  0
SECTION
  2
HEADER
  9
$ACADVER
  1
AC1009
  9
$INSBASE
 10
0.0
 20
0.0
 30
0.0
  9
$EXTMIN
 10
0.0
 20
-132.49476485530059
 30
0.0
  9
$EXTMAX
 10
288.33849258670108
 20
174.0500000000001
 30
0.0
  9
$LIMMIN
 10
0.0
 20
0.0
  9
$LIMMAX
 10
187.5
 20
135.0
  9
$ORTHOMODE
 70
     1
  9
$REGENMODE
 70
     1
  9
$FILLMODE
 70
     1
  9
$QTEXTMODE
 70
     0
  9
$MIRRTEXT
 70
     0
  9
$DRAGMODE
 70
     2
  9
$LTSCALE
 40
5.0
  9
$OSMODE
 70
    37
  9
$ATTMODE
 70
     1
  9
$TEXTSIZE
 40
0.2
  9
$TRACEWID
 40
0.05
  9
$TEXTSTYLE
  7
STANDARD
  9
$CLAYER
  8
1
  9
$CELTYPE
  6
BYLAYER
  9
$CECOLOR
 62
   256
  9
$DIMSCALE
 40
0.5
  9
$DIMASZ
 40
3.0
  9
$DIMEXO
 40
2.0
  9
$DIMDLI
 40
0.3799999999999999
  9
$DIMRND
 40
0.0
  9
$DIMDLE
 40
0.0
  9
$DIMEXE
 40
2.0
  9
$DIMTP
 40
0.0
  9
$DIMTM
 40
0.0
  9
$DIMTXT
 40
3.2000000000000002
  9
$DIMCEN
 40
0.0
  9
$DIMTSZ
 40
0.0
  9
$DIMTOL
 70
     0
  9
$DIMLIM
 70
     0
  9
$DIMTIH
 70
     0
  9
$DIMTOH
 70
     0
  9
$DIMSE1
 70
     0
  9
$DIMSE2
 70
     0
  9
$DIMTAD
 70
     1
  9
$DIMZIN
 70
     8
  9
$DIMBLK
  1

  9
$DIMASO
 70
     0
  9
$DIMSHO
 70
     0
  9
$DIMPOST
  1

  9
$DIMAPOST
  1

  9
$DIMALT
 70
     0
  9
$DIMALTD
 70
     2
  9
$DIMALTF
 40
25.399999999999999
  9
$DIMLFAC
 40
1.0
  9
$DIMTOFL
 70
     0
  9
$DIMTVP
 40
1.6000000000000001
  9
$DIMTIX
 70
     0
  9
$DIMSOXD
 70
     0
  9
$DIMSAH
 70
     0
  9
$DIMBLK1
  1

  9
$DIMBLK2
  1

  9
$DIMSTYLE
  2
STANDARD
  9
$DIMCLRD
 70
     0
  9
$DIMCLRE
 70
     0
  9
$DIMCLRT
 70
     0
  9
$DIMTFAC
 40
1.0
  9
$DIMGAP
 40
1.0
  9
$LUNITS
 70
     2
  9
$LUPREC
 70
     1
  9
$SKETCHINC
 40
0.1
  9
$FILLETRAD
 40
0.4
  9
$AUNITS
 70
     0
  9
$AUPREC
 70
     1
  9
$MENU
  1
E:\r13\win\SUPPORT\ACAD
  9
$ELEVATION
 40
0.0
  9
$PELEVATION
 40
0.0
  9
$THICKNESS
 40
0.0
  9
$LIMCHECK
 70
     0
  9
$BLIPMODE
 70
     0
  9
$CHAMFERA
 40
0.5
  9
$CHAMFERB
 40
0.5
  9
$SKPOLY
 70
     0
  9
$TDCREATE
 40
2451824.6906229062
  9
$TDUPDATE
 40
2457534.4031195021
  9
$TDINDWG
 40
0.8041054051
  9
$TDUSRTIMER
 40
0.8041054051
  9
$USRTIMER
 70
     1
  9
$ANGBASE
 50
0.0
  9
$ANGDIR
 70
     0
  9
$PDMODE
 70
     0
  9
$PDSIZE
 40
0.0
  9
$PLINEWID
 40
0.0
  9
$COORDS
 70
     1
  9
$SPLFRAME
 70
     0
  9
$SPLINETYPE
 70
     6
  9
$SPLINESEGS
 70
     8
  9
$ATTDIA
 70
     0
  9
$ATTREQ
 70
     1
  9
$HANDLING
 70
     1
  9
$HANDSEED
  5
AEFB
  9
$SURFTAB1
 70
     6
  9
$SURFTAB2
 70
     6
  9
$SURFTYPE
 70
     6
  9
$SURFU
 70
     6
  9
$SURFV
 70
     6
  9
$UCSNAME
  2

  9
$UCSORG
 10
0.0
 20
0.0
 30
0.0
  9
$UCSXDIR
 10
1.0
 20
0.0
 30
0.0
  9
$UCSYDIR
 10
0.0
 20
1.0
 30
0.0
  9
$PUCSNAME
  2

  9
$PUCSORG
 10
0.0
 20
0.0
 30
0.0
  9
$PUCSXDIR
 10
1.0
 20
0.0
 30
0.0
  9
$PUCSYDIR
 10
0.0
 20
1.0
 30
0.0
  9
$USERI1
 70
     0
  9
$USERI2
 70
     1
  9
$USERI3
 70
     0
  9
$USERI4
 70
     0
  9
$USERI5
 70
     0
  9
$USERR1
 40
0.0
  9
$USERR2
 40
0.0
  9
$USERR3
 40
0.0
  9
$USERR4
 40
0.0
  9
$USERR5
 40
0.0
  9
$WORLDVIEW
 70
     1
  9
$SHADEDGE
 70
     3
  9
$SHADEDIF
 70
    70
  9
$TILEMODE
 70
     1
  9
$MAXACTVP
 70
    16
  9
$PLIMCHECK
 70
     0
  9
$PEXTMIN
 10
1.0000000000000000E+020
 20
1.0000000000000000E+020
 30
1.0000000000000000E+020
  9
$PEXTMAX
 10
-1.0000000000000000E+020
 20
-1.0000000000000000E+020
 30
-1.0000000000000000E+020
  9
$PLIMMIN
 10
0.0
 20
0.0
  9
$PLIMMAX
 10
12.0
 20
9.0
  9
$UNITMODE
 70
     0
  9
$VISRETAIN
 70
     0
  9
$PLINEGEN
 70
     0
  9
$PSLTSCALE
 70
     0
  0
ENDSEC
  0
SECTION
  2
TABLES
  0
TABLE
  2
VPORT
 70
     1
  0
VPORT
  2
*ACTIVE
 70
     0
 10
0.0
 20
0.0
 11
1.0
 21
1.0
 12
172.54273504273499
 22
95.0
 13
0.0
 23
0.0
 14
5.0
 24
5.0
 15
5.0
 25
5.0
 16
0.0
 26
0.0
 36
1.0
 17
0.0
 27
0.0
 37
0.0
 40
190.0
 41
1.816239316239316
 42
50.0
 43
0.0
 44
0.0
 50
0.0
 51
0.0
 71
     0
 72
   500
 73
     1
 74
     0
 75
     0
 76
     0
 77
     0
 78
     2
  0
ENDTAB
  0
TABLE
  2
LTYPE
 70
     5
  0
LTYPE
  2
CONTINUOUS
 70
     0
  3
Solid Line
 72
    65
 73
     0
 40
0.0
  0
LTYPE
  2
CENTER
 70
     0
  3
____ _ ____ _ ____ _ ____ _ ____ _ ____ _ ____
 72
    65
 73
     4
 40
2.0
 49
1.25
 49
-0.25
 49
0.25
 49
-0.25
  0
LTYPE
  2
PHANTOM2
 70
     0
  3
___ _ _ ___ _ _ ___ _ _ ___ _ _
 72
    65
 73
     6
 40
1.25
 49
0.625
 49
-0.125
 49
0.125
 49
-0.125
 49
0.125
 49
-0.125
  0
LTYPE
  2
PHANTOM
 70
     0
  3
_____ _ _ _____ _ _ _____ _ _ _____ _ _ ____
 72
    65
 73
     6
 40
2.5
 49
1.25
 49
-0.25
 49
0.25
 49
-0.25
 49
0.25
 49
-0.25
  0
LTYPE
  2
HIDDEN
 70
     0
  3
Hidden __ __ __ __ __ __ __ __ __ __ __ __ __ __
 72
    65
 73
     2
 40
1.905
 49
1.27
 49
-0.635
  0
ENDTAB
  0
TABLE
  2
LAYER
 70
     5
  0
LAYER
  2
0
 70
     0
 62
     7
  6
CONTINUOUS
  0
LAYER
  2
1
 70
     0
 62
     1
  6
CENTER
  0
LAYER
  2
DEFPOINTS
 70
     0
 62
     7
  6
CONTINUOUS
  0
LAYER
  2
5
 70
     0
 62
     3
  6
PHANTOM
  0
LAYER
  2
2
 70
     0
 62
     2
  6
HIDDEN
  0
ENDTAB
  0
TABLE
  2
STYLE
 70
     2
  0
STYLE
  2
STANDARD
 70
     0
 40
0.0
 41
1.0
 50
0.0
 71
     0
 42
0.2
  3
TXT
  4
BIGFONT
  0
STYLE
  2
STANDARD1
 70
     0
 40
0.0
 41
1.0
 50
0.0
 71
     0
 42
3.0
  3
txt
  4

  0
ENDTAB
  0
TABLE
  2
VIEW
 70
     0
  0
ENDTAB
  0
TABLE
  2
UCS
 70
     0
  0
ENDTAB
  0
TABLE
  2
APPID
 70
     9
  0
APPID
  2
ACAD
 70
     0
  0
APPID
  2
ACAD_MLEADERVER
 70
     0
  0
APPID
  2
ACAD_EXEMPT_FROM_CAD_STANDARDS
 70
     0
  0
APPID
  2
ACAD_DSTYLE_DIMJAG
 70
     0
  0
APPID
  2
ACAD_DSTYLE_DIMTALN
 70
     0
  0
APPID
  2
ACAD_NAV_VCDISPLAY
 70
     0
  0
APPID
  2
ACADANNOTATIVE
 70
     0
  0
APPID
  2
ACAD_PSEXT
 70
     0
  0
APPID
  2
ACAD_DSTYLE_DIMRADIAL_EXTENSION
 70
     0
  0
ENDTAB
  0
TABLE
  2
DIMSTYLE
 70
     1
  0
DIMSTYLE
  2
STANDARD
 70
     0
  3

  4

  5

  6

  7

 40
1.0
 41
0.18
 42
0.0625
 43
0.38
 44
0.18
 45
0.0
 46
0.0
 47
0.0
 48
0.0
140
0.18
141
0.09
142
0.0
143
25.399999999999999
144
1.0
145
0.0
146
1.0
147
0.09
 71
     0
 72
     0
 73
     1
 74
     1
 75
     0
 76
     0
 77
     0
 78
     0
170
     0
171
     2
172
     0
173
     0
174
     0
175
     0
176
     0
177
     0
178
     0
  0
ENDTAB
  0
ENDSEC
  0
SECTION
  2
BLOCKS
  0
BLOCK
  8
0
  2
$MODEL_SPACE
 70
     0
 10
0.0
 20
0.0
 30
0.0
  3
$MODEL_SPACE
  1

  0
ENDBLK
  5
9
  8
0
  0
BLOCK
 67
     1
  8
0
  2
$PAPER_SPACE
 70
     0
 10
0.0
 20
0.0
 30
0.0
  3
$PAPER_SPACE
  1

  0
ENDBLK
  5
E
 67
     1
  8
0
  0
ENDSEC
  0
SECTION
  2
ENTITIES
  0
TEXT
  5
56B3
  8
0
 62
     3
 10
117.83849258670119
 20
-117.4947648553005
 30
0.0
 40
3.2000000000000002
  1
組付け状態
 72
     1
 11
126.9051592533678
 21
-117.4947648553005
 31
0.0
  0
POLYLINE
  5
56C6
  8
5
 66
     1
 10
0.0
 20
0.0
 30
0.0
 70
     1
  0
VERTEX
  5
AEE9
  8
5
 10
89.405159253367856
 20
-10.0
 30
0.0
  0
VERTEX
  5
AEEA
  8
5
 10
215.4051592533678
 20
-10.0
 30
0.0
  0
VERTEX
  5
AEEB
  8
5
 10
215.4051592533678
 20
-132.49476485530059
 30
0.0
  0
VERTEX
  5
AEEC
  8
5
 10
89.405159253367856
 20
-132.49476485530059
 30
0.0
  0
SEQEND
  5
AEED
  8
5
  0
TEXT
  5
56C8
  8
0
 62
     3
 10
169.6518259200345
 20
-117.4947648553005
 30
0.0
 40
3.2000000000000002
  1
取付け穴
 72
     1
 11
176.9051592533678
 21
-117.4947648553005
 31
0.0
  0
TEXT
  5
56D2
  8
0
 62
     3
 10
89.405159253367856
 20
0.0
 30
0.0
 40
3.2000000000000002
  1
■シャフトジョイントの取付け方法 (下図)
  0
TEXT
  5
5A7C
  8
0
 62
     3
 10
0.0
 20
0.0
 30
0.0
 40
10.0
  1
QCSJ0514A
  7
STANDARD1
  0
TEXT
  5
5B0E
  8
0
 62
     3
 10
89.405159253367856
 20
-7.0
 30
0.0
 40
3.2000000000000002
  1
■Installation Instructions for Shaft Coupling Clamps (see diagram below)
  0
TEXT
  5
5B15
  8
0
 62
     3
 10
105.68915925336781
 20
-124.4947648553005
 30
0.0
 40
3.2000000000000002
  1
Installed condition
 41
0.85
 72
     1
 11
126.9051592533678
 21
-124.4947648553005
 31
0.0
  0
TEXT
  5
5B16
  8
0
 62
     3
 10
158.18249258670119
 20
-124.4947648553005
 30
0.0
 40
3.2000000000000002
  1
Installation hole
 41
0.85
 72
     1
 11
176.9051592533678
 21
-124.4947648553005
 31
0.0
  0
LINE
  5
AA27
  8
0
 10
99.650000000000105
 20
94.05000000000004
 30
0.0
 11
99.700000000000045
 21
94.000000000000028
 31
0.0
  0
LINE
  5
AA28
  8
0
 10
102.3000000000001
 20
94.000000000000028
 30
0.0
 11
102.35000000000009
 21
94.05000000000004
 31
0.0
  0
LINE
  5
AA29
  8
0
 10
104.8
 20
97.000000000000014
 30
0.0
 11
105.0
 21
97.200000000000045
 31
0.0
  0
LINE
  5
AA2A
  8
0
 10
105.0
 20
99.300000000000054
 30
0.0
 11
104.7999999999999
 21
99.500000000000014
 31
0.0
  0
LINE
  5
AA2B
  8
0
 10
104.7999999999999
 20
99.500000000000014
 30
0.0
 11
103.5
 21
99.500000000000014
 31
0.0
  0
LINE
  5
AA2C
  8
0
 10
98.500000000000014
 20
99.500000000000014
 30
0.0
 11
97.200000000000045
 21
99.500000000000014
 31
0.0
  0
LINE
  5
AA2D
  8
0
 10
97.200000000000045
 20
97.000000000000014
 30
0.0
 11
98.500000000000014
 21
97.000000000000014
 31
0.0
  0
LINE
  5
AA2E
  8
0
 10
103.5
 20
97.000000000000014
 30
0.0
 11
104.8
 21
97.000000000000014
 31
0.0
  0
LINE
  5
AA2F
  8
0
 10
97.200000000000045
 20
99.500000000000014
 30
0.0
 11
97.0
 21
99.300000000000011
 31
0.0
  0
LINE
  5
AA30
  8
0
 10
97.0
 20
97.200000000000017
 30
0.0
 11
97.200000000000045
 21
97.000000000000014
 31
0.0
  0
LINE
  5
AA31
  8
0
 10
103.5
 20
99.500000000000014
 30
0.0
 11
103.5
 21
103.55
 31
0.0
  0
LINE
  5
AA32
  8
0
 10
103.5
 20
95.05000000000004
 30
0.0
 11
103.5
 21
97.000000000000014
 31
0.0
  0
LINE
  5
AA33
  8
0
 10
98.500000000000014
 20
97.000000000000014
 30
0.0
 11
98.500000000000014
 21
95.05000000000004
 31
0.0
  0
LINE
  5
AA34
  8
0
 10
98.500000000000014
 20
103.55
 30
0.0
 11
98.500000000000014
 21
99.500000000000014
 31
0.0
  0
LINE
  5
AA35
  8
0
 10
98.500000000000014
 20
95.05000000000004
 30
0.0
 11
99.077350269189651
 21
94.05000000000004
 31
0.0
  0
LINE
  5
AA36
  8
0
 10
102.92264973081041
 20
94.05000000000004
 30
0.0
 11
103.5
 21
95.05000000000004
 31
0.0
  0
LINE
  5
AA37
  8
0
 10
108.0
 20
104.05
 30
0.0
 11
108.0
 21
126.05
 31
0.0
  0
LINE
  5
AA38
  8
0
 10
94.0
 20
115.2543974647201
 30
0.0
 11
94.0
 21
104.0499999999999
 31
0.0
  0
LINE
  5
AA39
  8
0
 10
94.0
 20
126.05
 30
0.0
 11
94.0
 21
119.84560253527989
 31
0.0
  0
LINE
  5
AA3A
  8
0
 10
108.0
 20
126.05
 30
0.0
 11
106.9999999999999
 21
127.05
 31
0.0
  0
LINE
  5
AA3B
  8
0
 10
95.0
 20
127.05
 30
0.0
 11
94.0
 21
126.05
 31
0.0
  0
LINE
  5
AA3C
  8
0
 10
94.0
 20
104.0499999999999
 30
0.0
 11
94.500000000000014
 21
103.55
 31
0.0
  0
LINE
  5
AA3D
  8
0
 10
107.5
 20
103.55
 30
0.0
 11
108.0
 21
104.05
 31
0.0
  0
LINE
  5
AA3E
  8
0
 10
102.3000000000001
 20
94.000000000000028
 30
0.0
 11
99.700000000000045
 21
94.000000000000028
 31
0.0
  0
LINE
  5
AA40
  8
0
 10
104.8
 20
97.000000000000014
 30
0.0
 11
104.7999999999999
 21
99.500000000000014
 31
0.0
  0
LINE
  5
AA41
  8
0
 10
105.0
 20
99.300000000000054
 30
0.0
 11
105.0
 21
97.200000000000045
 31
0.0
  0
LINE
  5
AA42
  8
0
 10
97.200000000000045
 20
99.500000000000014
 30
0.0
 11
97.200000000000045
 21
97.000000000000014
 31
0.0
  0
LINE
  5
AA43
  8
0
 10
97.0
 20
97.200000000000017
 30
0.0
 11
97.0
 21
99.300000000000011
 31
0.0
  0
LINE
  5
AA45
  8
0
 10
98.500000000000014
 20
95.05000000000004
 30
0.0
 11
103.5
 21
95.05000000000004
 31
0.0
  0
ARC
  5
AA46
  8
0
 10
95.915555414051141
 20
98.137397466803719
 30
0.0
 40
2.9215518479461169
 50
2.2088426381575812
 51
27.709840123000561
  0
ARC
  5
AA47
  8
0
 10
95.907116292076225
 20
98.364744688233856
 30
0.0
 40
2.9300678248129541
 50
332.28253712737848
 51
357.75566017046748
  0
ARC
  5
AA48
  8
0
 10
106.0844445859491
 20
98.362602533196451
 30
0.0
 40
2.921551847946295
 50
182.2088426381608
 51
207.7098401230013
  0
ARC
  5
AA49
  8
0
 10
106.0928837079243
 20
98.135255311766031
 30
0.0
 40
2.930067824813479
 50
152.28253712738069
 51
177.75566017046339
  0
LINE
  5
AA4A
  8
0
 10
102.92264973081051
 20
94.05000000000004
 30
0.0
 11
99.077350269189651
 21
94.05000000000004
 31
0.0
  0
ARC
  5
AA4C
  8
0
 10
86.979871284553383
 20
118.5366736576389
 30
0.0
 40
7.1419146328888781
 50
0.1069102132905634
 51
10.56053262712693
  0
POLYLINE
  5
AA4D
  8
0
 66
     1
 10
0.0
 20
0.0
 30
0.0
 70
   128
  0
VERTEX
  5
AEEF
  8
0
 10
94.121773484392861
 20
116.5499999999999
 30
0.0
  0
VERTEX
  5
AEF0
  8
0
 10
94.118474971419801
 20
116.3369584102231
 30
0.0
  0
VERTEX
  5
AEF1
  8
0
 10
94.108588905318584
 20
116.1239168204463
 30
0.0
  0
VERTEX
  5
AEF2
  8
0
 10
94.09378345071184
 20
115.9288502389428
 30
0.0
  0
VERTEX
  5
AEF3
  8
0
 10
94.074935419909366
 20
115.745935675194
 30
0.0
  0
VERTEX
  5
AEF4
  8
0
 10
94.054889438613714
 20
115.58845920009659
 30
0.0
  0
VERTEX
  5
AEF5
  8
0
 10
94.034994202301505
 20
115.4539590509594
 30
0.0
  0
VERTEX
  5
AEF6
  8
0
 10
94.018388586227843
 20
115.35296285232501
 30
0.0
  0
VERTEX
  5
AEF7
  8
0
 10
94.006190203036908
 20
115.28375536483
 30
0.0
  0
VERTEX
  5
AEF8
  8
0
 10
94.000475511997365
 20
115.25256288855761
 30
0.0
  0
VERTEX
  5
AEF9
  8
0
 10
94.000814940270175
 20
115.2543974647201
 30
0.0
  0
SEQEND
  5
AEFA
  8
0
  0
LINE
  5
AA4E
  8
0
 10
94.121773484392861
 20
118.55
 30
0.0
 11
94.121773484392861
 21
116.5499999999999
 31
0.0
  0
LINE
  5
AA4F
  8
0
 10
108.0
 20
126.05
 30
0.0
 11
94.0
 21
126.05
 31
0.0
  0
LINE
  5
AA51
  8
0
 10
94.0
 20
104.0499999999999
 30
0.0
 11
108.0
 21
104.05
 31
0.0
  0
CIRCLE
  5
AA53
  8
0
 10
100.9999999999999
 20
123.55
 30
0.0
 40
1.4999999999999709
  0
LINE
  5
AA54
  8
0
 10
95.0
 20
127.05
 30
0.0
 11
106.9999999999999
 21
127.05
 31
0.0
  0
LINE
  5
AA55
  8
0
 10
107.5
 20
103.55
 30
0.0
 11
94.500000000000014
 21
103.55
 31
0.0
  0
LINE
  5
AA57
  8
0
 10
143.65000000000001
 20
94.05000000000004
 30
0.0
 11
143.69999999999999
 21
94.000000000000028
 31
0.0
  0
LINE
  5
AA58
  8
0
 10
146.30000000000001
 20
94.000000000000028
 30
0.0
 11
146.34999999999999
 21
94.05000000000004
 31
0.0
  0
LINE
  5
AA59
  8
0
 10
142.5
 20
95.05000000000004
 30
0.0
 11
143.07735026918959
 21
94.05000000000004
 31
0.0
  0
LINE
  5
AA5A
  8
0
 10
146.92264973081029
 20
94.05000000000004
 30
0.0
 11
147.5
 21
95.05000000000004
 31
0.0
  0
LINE
  5
AA5B
  8
0
 10
147.5
 20
95.05000000000004
 30
0.0
 11
147.5
 21
103.55
 31
0.0
  0
LINE
  5
AA5C
  8
0
 10
142.5
 20
103.55
 30
0.0
 11
142.5
 21
95.05000000000004
 31
0.0
  0
LINE
  5
AA5D
  8
0
 10
138.0
 20
104.05
 30
0.0
 11
138.5
 21
103.55
 31
0.0
  0
LINE
  5
AA5E
  8
0
 10
151.5
 20
103.55
 30
0.0
 11
152.0
 21
104.05
 31
0.0
  0
LINE
  5
AA5F
  8
0
 10
152.0
 20
125.4305394905324
 30
0.0
 11
152.0
 21
126.05
 31
0.0
  0
LINE
  5
AA60
  8
0
 10
152.0
 20
104.05
 30
0.0
 11
152.0
 21
121.6694829079304
 31
0.0
  0
LINE
  5
AA61
  8
0
 10
138.0
 20
121.6693967197657
 30
0.0
 11
138.0
 21
104.05
 31
0.0
  0
LINE
  5
AA62
  8
0
 10
138.0
 20
126.05
 30
0.0
 11
138.0
 21
125.4306033787626
 31
0.0
  0
LINE
  5
AA63
  8
0
 10
152.0
 20
126.05
 30
0.0
 11
151.0
 21
127.05
 31
0.0
  0
LINE
  5
AA64
  8
0
 10
139.0
 20
127.05
 30
0.0
 11
138.0
 21
126.05
 31
0.0
  0
LINE
  5
AA65
  8
0
 10
146.30000000000001
 20
94.000000000000028
 30
0.0
 11
143.69999999999999
 21
94.000000000000028
 31
0.0
  0
CIRCLE
  5
AA66
  8
0
 10
145.0
 20
98.250000000000014
 30
0.0
 40
1.25
  0
LINE
  5
AA68
  8
0
 10
146.92264973081029
 20
94.05000000000004
 30
0.0
 11
143.07735026918959
 21
94.05000000000004
 31
0.0
  0
LINE
  5
AA69
  8
0
 10
142.5
 20
95.05000000000004
 30
0.0
 11
147.5
 21
95.05000000000004
 31
0.0
  0
LINE
  5
AA6A
  8
0
 10
151.5
 20
103.55
 30
0.0
 11
138.5
 21
103.55
 31
0.0
  0
LINE
  5
AA6B
  8
0
 10
138.0
 20
104.05
 30
0.0
 11
152.0
 21
104.05
 31
0.0
  0
LINE
  5
AA6C
  8
0
 10
152.0
 20
126.05
 30
0.0
 11
138.0
 21
126.05
 31
0.0
  0
ARC
  5
AA6D
  8
0
 10
158.20975986812019
 20
123.5499993166022
 30
0.0
 40
6.4882817698981077
 50
163.1518387363582
 51
196.84794198885589
  0
LINE
  5
AA6F
  8
0
 10
139.0
 20
127.05
 30
0.0
 11
151.0
 21
127.05
 31
0.0
  0
LINE
  5
AA70
  8
0
 10
55.64999999999997
 20
94.05000000000004
 30
0.0
 11
55.699999999999932
 21
94.000000000000028
 31
0.0
  0
LINE
  5
AA71
  8
0
 10
58.29999999999994
 20
94.000000000000028
 30
0.0
 11
58.349999999999902
 21
94.05000000000004
 31
0.0
  0
LINE
  5
AA72
  8
0
 10
59.499999999999993
 20
95.05000000000004
 30
0.0
 11
59.499999999999993
 21
103.55
 31
0.0
  0
LINE
  5
AA73
  8
0
 10
54.499999999999993
 20
103.55
 30
0.0
 11
54.499999999999993
 21
95.05000000000004
 31
0.0
  0
LINE
  5
AA74
  8
0
 10
54.499999999999993
 20
95.05000000000004
 30
0.0
 11
55.07735026918953
 21
94.05000000000004
 31
0.0
  0
LINE
  5
AA75
  8
0
 10
58.922649730810342
 20
94.05000000000004
 30
0.0
 11
59.499999999999993
 21
95.05000000000004
 31
0.0
  0
LINE
  5
AA76
  8
0
 10
63.999999999999993
 20
126.05
 30
0.0
 11
62.999999999999993
 21
127.05
 31
0.0
  0
LINE
  5
AA77
  8
0
 10
50.999999999999993
 20
127.05
 30
0.0
 11
50.0
 21
126.05
 31
0.0
  0
LINE
  5
AA78
  8
0
 10
63.999999999999993
 20
125.4306033787626
 30
0.0
 11
63.999999999999993
 21
126.05
 31
0.0
  0
LINE
  5
AA79
  8
0
 10
63.999999999999993
 20
104.05
 30
0.0
 11
63.999999999999993
 21
121.6693967197657
 31
0.0
  0
LINE
  5
AA7A
  8
0
 10
50.0
 20
121.6694829079304
 30
0.0
 11
50.0
 21
104.05
 31
0.0
  0
LINE
  5
AA7B
  8
0
 10
50.0
 20
126.05
 30
0.0
 11
50.0
 21
125.4305394905324
 31
0.0
  0
LINE
  5
AA7C
  8
0
 10
50.0
 20
104.05
 30
0.0
 11
50.499999999999993
 21
103.55
 31
0.0
  0
LINE
  5
AA7D
  8
0
 10
63.499999999999993
 20
103.55
 30
0.0
 11
63.999999999999993
 21
104.05
 31
0.0
  0
LINE
  5
AA7E
  8
0
 10
58.29999999999994
 20
94.000000000000028
 30
0.0
 11
55.699999999999932
 21
94.000000000000028
 31
0.0
  0
CIRCLE
  5
AA7F
  8
0
 10
56.999999999999993
 20
118.55
 30
0.0
 40
1.2499999999999869
  0
LINE
  5
AA80
  8
0
 10
55.978486841680699
 20
115.7467062980338
 30
0.0
 11
58.023889548967631
 21
115.7467062980338
 31
0.0
  0
LINE
  5
AA81
  8
0
 10
56.508941748050908
 20
115.34999999999999
 30
0.0
 11
57.499967680107027
 21
115.34999999999999
 31
0.0
  0
LINE
  5
AA82
  8
0
 10
57.49831557108574
 20
115.34999999999999
 30
0.0
 11
56.50848295154605
 21
115.34999999999999
 31
0.0
  0
CIRCLE
  5
AA84
  8
0
 10
56.999999999999993
 20
98.250000000000014
 30
0.0
 40
1.25
  0
LINE
  5
AA85
  8
0
 10
55.699999999999932
 20
116.55
 30
0.0
 11
58.29999999999994
 21
116.55
 31
0.0
  0
LINE
  5
AA86
  8
0
 10
58.195931581777693
 20
116.05
 30
0.0
 11
55.803573986181718
 21
116.05
 31
0.0
  0
LINE
  5
AA87
  8
0
 10
54.499999999999993
 20
95.05000000000004
 30
0.0
 11
59.499999999999993
 21
95.05000000000004
 31
0.0
  0
LINE
  5
AA88
  8
0
 10
58.922649730810342
 20
94.05000000000004
 30
0.0
 11
55.07735026918953
 21
94.05000000000004
 31
0.0
  0
LINE
  5
AA89
  8
0
 10
63.999999999999993
 20
126.05
 30
0.0
 11
49.999999999999879
 21
126.05
 31
0.0
  0
LINE
  5
AA8A
  8
0
 10
50.999999999999993
 20
127.05
 30
0.0
 11
62.999999999999993
 21
127.05
 31
0.0
  0
ARC
  5
AA8B
  8
0
 10
56.999999999999993
 20
118.55
 30
0.0
 40
1.3000000000000109
 50
0.0
 51
180.0
  0
LINE
  5
AA8C
  8
0
 10
55.699999999999932
 20
116.5499999999999
 30
0.0
 11
55.699999999999932
 21
118.55
 31
0.0
  0
ARC
  5
AA8D
  8
0
 10
56.999999999999993
 20
116.5499999999999
 30
0.0
 40
1.3000000000000109
 50
180.0
 51
0.0
  0
LINE
  5
AA8E
  8
0
 10
58.29999999999994
 20
118.55
 30
0.0
 11
58.29999999999994
 21
116.5499999999999
 31
0.0
  0
LINE
  5
AA8F
  8
0
 10
50.0
 20
104.05
 30
0.0
 11
63.999999999999993
 21
104.05
 31
0.0
  0
ARC
  5
AA92
  8
0
 10
70.209273750959142
 20
123.5500000492642
 30
0.0
 40
6.4878154564746842
 50
163.1500088475207
 51
196.8499911524799
  0
LINE
  5
AA93
  8
0
 10
63.499999999999993
 20
103.55
 30
0.0
 11
50.499999999999993
 21
103.55
 31
0.0
  0
CIRCLE
  5
AA94
  8
0
 10
101.0
 20
164.0500000000001
 30
0.0
 40
4.5
  0
CIRCLE
  5
AA95
  8
0
 10
101.0
 20
164.0500000000001
 30
0.0
 40
7.0000000000000284
  0
CIRCLE
  5
AA96
  8
0
 10
101.0
 20
164.0500000000001
 30
0.0
 40
6.0
  0
CIRCLE
  5
AA97
  8
0
 10
101.0
 20
164.0500000000001
 30
0.0
 40
5.0
  0
LINE
  5
AA98
  8
0
 10
97.199999999999974
 20
58.250000000000007
 30
0.0
 11
96.999999999999943
 21
58.04999999999999
 31
0.0
  0
LINE
  5
AA99
  8
0
 10
97.000000000000057
 20
55.950000000000031
 30
0.0
 11
97.199999999999974
 21
55.750000000000007
 31
0.0
  0
LINE
  5
AA9A
  8
0
 10
104.7999999999999
 20
58.250000000000043
 30
0.0
 11
103.16506350946101
 21
58.250000000000043
 31
0.0
  0
LINE
  5
AA9B
  8
0
 10
98.834936490538837
 20
58.250000000000007
 30
0.0
 11
97.199999999999974
 21
58.250000000000007
 31
0.0
  0
LINE
  5
AA9C
  8
0
 10
97.199999999999974
 20
55.750000000000007
 30
0.0
 11
98.834936490538837
 21
55.750000000000043
 31
0.0
  0
LINE
  5
AA9D
  8
0
 10
103.16506350946101
 20
55.750000000000043
 30
0.0
 11
104.7999999999999
 21
55.750000000000043
 31
0.0
  0
LINE
  5
AA9E
  8
0
 10
104.7999999999999
 20
55.750000000000043
 30
0.0
 11
104.9999999999999
 21
55.950000000000031
 31
0.0
  0
LINE
  5
AA9F
  8
0
 10
104.9999999999999
 20
58.050000000000047
 30
0.0
 11
104.7999999999999
 21
58.250000000000043
 31
0.0
  0
CIRCLE
  5
AAA0
  8
0
 10
100.9999999999999
 20
57.000000000000043
 30
0.0
 40
1.3000000000000109
  0
LINE
  5
AAA1
  8
0
 10
100.1339745962155
 20
57.000000000000043
 30
0.0
 11
100.5669872981078
 21
56.250000000000043
 31
0.0
  0
LINE
  5
AAA2
  8
0
 10
100.5669872981078
 20
56.250000000000043
 30
0.0
 11
101.4330127018922
 21
56.250000000000043
 31
0.0
  0
LINE
  5
AAA3
  8
0
 10
101.4330127018922
 20
56.250000000000043
 30
0.0
 11
101.8660254037845
 21
57.000000000000043
 31
0.0
  0
LINE
  5
AAA4
  8
0
 10
101.8660254037845
 20
57.000000000000043
 30
0.0
 11
101.4330127018922
 21
57.750000000000043
 31
0.0
  0
LINE
  5
AAA5
  8
0
 10
101.4330127018922
 20
57.750000000000043
 30
0.0
 11
100.5669872981078
 21
57.750000000000043
 31
0.0
  0
LINE
  5
AAA6
  8
0
 10
100.5669872981078
 20
57.750000000000043
 30
0.0
 11
100.1339745962155
 21
57.000000000000043
 31
0.0
  0
LINE
  5
AAA7
  8
0
 10
97.000000000000057
 20
55.950000000000031
 30
0.0
 11
96.999999999999943
 21
58.04999999999999
 31
0.0
  0
LINE
  5
AAA8
  8
0
 10
97.199999999999974
 20
58.250000000000007
 30
0.0
 11
97.199999999999974
 21
55.750000000000007
 31
0.0
  0
LINE
  5
AAA9
  8
0
 10
104.7999999999999
 20
55.750000000000043
 30
0.0
 11
104.7999999999999
 21
58.250000000000043
 31
0.0
  0
LINE
  5
AAAA
  8
0
 10
104.9999999999999
 20
58.050000000000047
 30
0.0
 11
104.9999999999999
 21
55.950000000000031
 31
0.0
  0
CIRCLE
  5
AAAB
  8
0
 10
100.9999999999999
 20
57.000000000000043
 30
0.0
 40
1.9226497308103769
  0
CIRCLE
  5
AAAC
  8
0
 10
100.9999999999999
 20
57.000000000000043
 30
0.0
 40
2.5000000000000142
  0
CIRCLE
  5
AAAD
  8
0
 10
100.9999999999999
 20
57.000000000000043
 30
0.0
 40
1.525000000000005
  0
CIRCLE
  5
AAAE
  8
0
 10
100.9999999999999
 20
57.000000000000007
 30
0.0
 40
6.5000000000000284
  0
CIRCLE
  5
AAAF
  8
0
 10
100.9999999999999
 20
57.000000000000007
 30
0.0
 40
7.0000000000000142
  0
LINE
  5
AAB8
  8
1
 10
100.9999999999999
 20
174.0500000000001
 30
0.0
 11
100.9999999999999
 21
154.05000000000001
 31
0.0
  0
LINE
  5
AAB9
  8
1
 10
145.0
 20
130.0500000000001
 30
0.0
 11
145.0
 21
91.000000000000028
 31
0.0
  0
LINE
  5
AABA
  8
1
 10
56.999999999999929
 20
130.0499999999999
 30
0.0
 11
56.999999999999929
 21
91.000000000000028
 31
0.0
  0
LINE
  5
AABB
  8
1
 10
90.999999999999943
 20
57.000000000000043
 30
0.0
 11
110.9999999999999
 21
57.000000000000043
 31
0.0
  0
LINE
  5
AABC
  8
1
 10
111.0
 20
164.0500000000001
 30
0.0
 11
91.0
 21
164.0500000000001
 31
0.0
  0
LINE
  5
AAC2
  8
1
 10
100.9999999999999
 20
67.000000000000014
 30
0.0
 11
100.9999999999999
 21
47.0
 31
0.0
  0
LINE
  5
AAC3
  8
1
 10
100.9999999999999
 20
130.05000000000001
 30
0.0
 11
100.9999999999999
 21
91.000000000000028
 31
0.0
  0
LINE
  5
AAD9
  8
1
 10
103.4999999999999
 20
123.55
 30
0.0
 11
98.499999999999886
 21
123.55
 31
0.0
  0
LINE
  5
AADA
  8
1
 10
54.749999999999993
 20
98.250000000000043
 30
0.0
 11
59.249999999999993
 21
98.250000000000043
 31
0.0
  0
LINE
  5
AAE0
  8
1
 10
96.0
 20
98.250000000000043
 30
0.0
 11
106.0
 21
98.250000000000043
 31
0.0
  0
LINE
  5
AAE1
  8
1
 10
142.75
 20
98.250000000000043
 30
0.0
 11
147.25
 21
98.250000000000043
 31
0.0
  0
LINE
  5
AB41
  8
0
 10
125.5551592533681
 20
-68.944764855300562
 30
0.0
 11
125.6051592533681
 21
-68.994764855300573
 31
0.0
  0
LINE
  5
AB42
  8
0
 10
128.20515925336809
 20
-68.994764855300573
 30
0.0
 11
128.25515925336811
 21
-68.944764855300562
 31
0.0
  0
LINE
  5
AB43
  8
0
 10
129.4051592533682
 20
-67.944764855300562
 30
0.0
 11
129.4051592533682
 21
-59.444764855300619
 31
0.0
  0
LINE
  5
AB44
  8
0
 10
124.4051592533682
 20
-59.444764855300619
 30
0.0
 11
124.4051592533682
 21
-67.944764855300562
 31
0.0
  0
LINE
  5
AB45
  8
0
 10
124.4051592533682
 20
-67.944764855300562
 30
0.0
 11
124.98250952255771
 21
-68.944764855300562
 31
0.0
  0
LINE
  5
AB46
  8
0
 10
128.82780898417849
 20
-68.944764855300562
 30
0.0
 11
129.4051592533682
 21
-67.944764855300562
 31
0.0
  0
LINE
  5
AB47
  8
0
 10
133.9051592533682
 20
-36.944764855300562
 30
0.0
 11
132.9051592533682
 21
-35.944764855300562
 31
0.0
  0
LINE
  5
AB48
  8
0
 10
120.9051592533682
 20
-35.944764855300562
 30
0.0
 11
119.9051592533682
 21
-36.944764855300562
 31
0.0
  0
LINE
  5
AB49
  8
0
 10
133.9051592533682
 20
-37.564161476537961
 30
0.0
 11
133.9051592533682
 21
-35.444764855300591
 31
0.0
  0
LINE
  5
AB4A
  8
0
 10
133.9051592533682
 20
-58.944764855300591
 30
0.0
 11
133.9051592533682
 21
-41.325368135534873
 31
0.0
  0
LINE
  5
AB4B
  8
0
 10
119.9051592533682
 20
-41.325281947370122
 30
0.0
 11
119.9051592533682
 21
-58.944764855300591
 31
0.0
  0
LINE
  5
AB4C
  8
0
 10
119.9051592533682
 20
-35.444764855300591
 30
0.0
 11
119.9051592533682
 21
-37.564225364768241
 31
0.0
  0
LINE
  5
AB4D
  8
0
 10
119.9051592533682
 20
-58.944764855300591
 30
0.0
 11
120.4051592533682
 21
-59.444764855300591
 31
0.0
  0
LINE
  5
AB4E
  8
0
 10
133.4051592533682
 20
-59.444764855300591
 30
0.0
 11
133.9051592533682
 21
-58.944764855300591
 31
0.0
  0
LINE
  5
AB4F
  8
0
 10
128.20515925336809
 20
-68.994764855300573
 30
0.0
 11
125.6051592533681
 21
-68.994764855300573
 31
0.0
  0
CIRCLE
  5
AB50
  8
0
 10
126.9051592533682
 20
-44.444764855300619
 30
0.0
 40
1.2499999999999869
  0
LINE
  5
AB51
  8
0
 10
125.8836460950489
 20
-47.248058557266731
 30
0.0
 11
127.9290488023358
 21
-47.248058557266731
 31
0.0
  0
LINE
  5
AB52
  8
0
 10
126.4141010014191
 20
-47.6447648553006
 30
0.0
 11
127.4051269334752
 21
-47.6447648553006
 31
0.0
  0
LINE
  5
AB53
  8
0
 10
127.40347482445389
 20
-47.6447648553006
 30
0.0
 11
126.4136422049142
 21
-47.6447648553006
 31
0.0
  0
CIRCLE
  5
AB54
  8
0
 10
126.9051592533682
 20
-64.744764855300573
 30
0.0
 40
1.25
  0
LINE
  5
AB55
  8
0
 10
125.6051592533681
 20
-46.444764855300583
 30
0.0
 11
128.20515925336809
 21
-46.444764855300583
 31
0.0
  0
LINE
  5
AB56
  8
0
 10
128.1010908351459
 20
-46.944764855300591
 30
0.0
 11
125.7087332395499
 21
-46.944764855300591
 31
0.0
  0
LINE
  5
AB57
  8
0
 10
124.4051592533682
 20
-67.944764855300562
 30
0.0
 11
129.4051592533682
 21
-67.944764855300562
 31
0.0
  0
LINE
  5
AB58
  8
0
 10
128.82780898417849
 20
-68.944764855300562
 30
0.0
 11
124.98250952255771
 21
-68.944764855300562
 31
0.0
  0
LINE
  5
AB59
  8
0
 10
133.9051592533682
 20
-36.944764855300562
 30
0.0
 11
119.9051592533681
 21
-36.944764855300562
 31
0.0
  0
LINE
  5
AB5A
  8
0
 10
120.9051592533682
 20
-35.944764855300562
 30
0.0
 11
132.9051592533682
 21
-35.944764855300562
 31
0.0
  0
ARC
  5
AB5B
  8
0
 10
126.9051592533682
 20
-44.444764855300619
 30
0.0
 40
1.3000000000000109
 50
0.0
 51
180.0
  0
LINE
  5
AB5C
  8
0
 10
125.6051592533681
 20
-46.444764855300619
 30
0.0
 11
125.6051592533681
 21
-44.444764855300619
 31
0.0
  0
ARC
  5
AB5D
  8
0
 10
126.9051592533682
 20
-46.444764855300619
 30
0.0
 40
1.3000000000000109
 50
180.0
 51
0.0
  0
LINE
  5
AB5E
  8
0
 10
128.20515925336809
 20
-44.444764855300619
 30
0.0
 11
128.20515925336809
 21
-46.444764855300619
 31
0.0
  0
LINE
  5
AB5F
  8
0
 10
119.9051592533682
 20
-58.944764855300591
 30
0.0
 11
133.9051592533682
 21
-58.944764855300591
 31
0.0
  0
ARC
  5
AB62
  8
0
 10
140.11443300432731
 20
-39.444764806036417
 30
0.0
 40
6.4878154564746842
 50
163.15000884752109
 51
196.8499911524807
  0
LINE
  5
AB63
  8
0
 10
133.4051592533682
 20
-59.444764855300591
 30
0.0
 11
120.4051592533682
 21
-59.444764855300591
 31
0.0
  0
LINE
  5
AB64
  8
1
 10
126.9051592533681
 20
-28.238740522107729
 30
0.0
 11
126.9051592533681
 21
-71.994764855300573
 31
0.0
  0
LINE
  5
AB65
  8
1
 10
124.6551592533682
 20
-64.744764855300559
 30
0.0
 11
129.1551592533682
 21
-64.744764855300559
 31
0.0
  0
LINE
  5
AB80
  8
0
 10
133.9051592533682
 20
-55.444764855300591
 30
0.0
 11
135.9051592533682
 21
-55.444764855300591
 31
0.0
  0
LINE
  5
AB81
  8
0
 10
119.9051592533682
 20
-55.444764855300591
 30
0.0
 11
117.9051592533682
 21
-55.444764855300591
 31
0.0
  0
LINE
  5
AB82
  8
0
 10
135.9051592533682
 20
-55.444764855300591
 30
0.0
 11
135.9051592533682
 21
-31.23874052210763
 31
0.0
  0
LINE
  5
AB83
  8
0
 10
117.9051592533682
 20
-31.23874052210763
 30
0.0
 11
117.9051592533682
 21
-55.444764855300591
 31
0.0
  0
LINE
  5
AB86
  8
1
 10
137.9051592533682
 20
-39.444764855300548
 30
0.0
 11
115.9051592533682
 21
-39.444764855300562
 31
0.0
  0
LINE
  5
AB87
  8
0
 10
135.405159253368
 20
-37.944764855300591
 30
0.0
 11
133.8024008794832
 21
-37.944764855300591
 31
0.0
  0
LINE
  5
AB88
  8
0
 10
135.405159253368
 20
-40.944764855300541
 30
0.0
 11
133.8024009028976
 21
-40.944764855300512
 31
0.0
  0
LINE
  5
AB8B
  8
0
 10
120.00639236295289
 20
-40.944764855300527
 30
0.0
 11
118.4051592533682
 21
-40.944764855300519
 31
0.0
  0
LINE
  5
AB8C
  8
0
 10
120.0063956842242
 20
-37.944764855300591
 30
0.0
 11
118.4051592533682
 21
-37.944764855300591
 31
0.0
  0
LINE
  5
AB92
  8
0
 10
119.9051592533682
 20
-35.444764855300591
 30
0.0
 11
133.9051592533682
 21
-35.444764855300591
 31
0.0
  0
LINE
  5
AB94
  8
0
 10
133.9051592533682
 20
-35.444764855300591
 30
0.0
 11
126.9051592533681
 21
-31.238740522107641
 31
0.0
  0
LINE
  5
AB95
  8
0
 10
119.9051592533681
 20
-35.444764855300591
 30
0.0
 11
126.9051592533681
 21
-31.23874052210763
 31
0.0
  0
LINE
  5
ABA0
  8
0
 10
183.905159253368
 20
-54.944764855300981
 30
0.0
 11
183.905159253368
 21
-35.444764855300591
 31
0.0
  0
LINE
  5
ABA1
  8
0
 10
185.905159253368
 20
-55.444764855300591
 30
0.0
 11
185.905159253368
 21
-31.238740522107641
 31
0.0
  0
LINE
  5
ABA2
  8
0
 10
169.905159253368
 20
-35.444764855300591
 30
0.0
 11
169.905159253368
 21
-54.944764855300598
 31
0.0
  0
LINE
  5
ABA3
  8
0
 10
167.905159253368
 20
-31.238740522107641
 30
0.0
 11
167.905159253368
 21
-55.444764855300591
 31
0.0
  0
LINE
  5
ABBC
  8
1
 10
176.90515925336791
 20
-28.23874052210774
 30
0.0
 11
176.90515925336791
 21
-58.444764855300591
 31
0.0
  0
CIRCLE
  5
ABD5
  8
0
 10
176.905159253368
 20
-95.994764855300488
 30
0.0
 40
7.0000000000000142
  0
LINE
  5
ABD6
  8
1
 10
165.9051592533678
 20
-95.994764855300545
 30
0.0
 11
187.905159253368
 21
-95.994764855300545
 31
0.0
  0
LINE
  5
ABD7
  8
1
 10
176.90515925336791
 20
-106.9947648553006
 30
0.0
 11
176.90515925336791
 21
-84.994764855300375
 31
0.0
  0
LINE
  5
ABD8
  8
0
 10
167.905159253368
 20
-55.444764855300591
 30
0.0
 11
185.905159253368
 21
-55.444764855300591
 31
0.0
  0
LINE
  5
ABDA
  8
1
 10
187.905159253368
 20
-39.444764855300548
 30
0.0
 11
165.905159253368
 21
-39.444764855300562
 31
0.0
  0
LINE
  5
ABDB
  8
0
 10
185.405159253368
 20
-37.944764855300591
 30
0.0
 11
183.905159253368
 21
-37.944764855300591
 31
0.0
  0
LINE
  5
ABDC
  8
0
 10
169.905159253368
 20
-37.944764855300591
 30
0.0
 11
168.40515925336811
 21
-37.944764855300591
 31
0.0
  0
LINE
  5
ABDD
  8
0
 10
185.40515925336791
 20
-40.944764855300527
 30
0.0
 11
183.905159253368
 21
-40.944764855300519
 31
0.0
  0
LINE
  5
ABDE
  8
0
 10
169.905159253368
 20
-40.944764855300527
 30
0.0
 11
168.40515925336811
 21
-40.944764855300527
 31
0.0
  0
CIRCLE
  5
ABDF
  8
0
 10
176.90515925336791
 20
-95.994764855300488
 30
0.0
 40
9.0000000000001137
  0
LINE
  5
ABE0
  8
0
 10
169.905159253368
 20
-35.444764855300591
 30
0.0
 11
183.905159253368
 21
-35.444764855300591
 31
0.0
  0
LINE
  5
ABE1
  8
0
 10
183.905159253368
 20
-35.444764855300591
 30
0.0
 11
176.905159253368
 21
-31.238740522107641
 31
0.0
  0
LINE
  5
ABE2
  8
0
 10
169.90515925336791
 20
-35.444764855300591
 30
0.0
 11
176.905159253368
 21
-31.238740522107641
 31
0.0
  0
LINE
  5
ABE4
  8
2
 10
185.40515925336771
 20
-94.494764855300545
 30
0.0
 11
183.74255641895661
 21
-94.494764855300545
 31
0.0
  0
LINE
  5
ABE5
  8
2
 10
170.06776208777919
 20
-94.494764855300545
 30
0.0
 11
168.40515925336791
 21
-94.494764855300545
 31
0.0
  0
LINE
  5
ABE6
  8
2
 10
185.4051592533678
 20
-97.494764855300446
 30
0.0
 11
183.74255641895661
 21
-97.494764855300446
 31
0.0
  0
LINE
  5
ABE7
  8
2
 10
170.06776208777919
 20
-97.494764855300474
 30
0.0
 11
168.4051592533678
 21
-97.494764855300474
 31
0.0
  0
ARC
  5
AC80
  8
0
 10
113.6958855024088
 20
-39.444764806036581
 30
0.0
 40
6.4878154564746842
 50
343.15000884751993
 51
16.849991152479731
  0
ARC
  5
AC81
  8
0
 10
43.790726249040752
 20
123.550000049264
 30
0.0
 40
6.4878154564746842
 50
343.15000884752072
 51
16.849991152479671
  0
ARC
  5
AC82
  8
0
 10
131.7902401318797
 20
123.5499993166022
 30
0.0
 40
6.4882817698981077
 50
343.15205801114411
 51
16.848161263641561
  0
LINE
  5
AD1B
  8
0
 10
119.4051592533682
 20
-55.444764855300591
 30
0.0
 11
119.9051592533682
 21
-54.944764855300591
 31
0.0
  0
LINE
  5
AD1C
  8
0
 10
134.405159253368
 20
-55.444764855300761
 30
0.0
 11
133.90515925336791
 21
-54.944764855300747
 31
0.0
  0
LINE
  5
AD1D
  8
0
 10
169.405159253368
 20
-55.444764855300591
 30
0.0
 11
169.905159253368
 21
-54.944764855300591
 31
0.0
  0
LINE
  5
AD1E
  8
0
 10
184.4051592533678
 20
-55.444764855300761
 30
0.0
 11
183.9051592533678
 21
-54.944764855300747
 31
0.0
  0
LINE
  5
AD69
  8
0
 10
169.905159253368
 20
-54.944764855300591
 30
0.0
 11
183.905159253368
 21
-54.944764855300967
 31
0.0
  0
LINE
  5
ADB6
  8
0
 10
118.4051592533682
 20
-37.944764855300591
 30
0.0
 11
117.9051592533682
 21
-37.444764855300591
 31
0.0
  0
LINE
  5
ADB7
  8
0
 10
118.4051592533682
 20
-40.944764855300527
 30
0.0
 11
117.9051592533682
 21
-41.444764855300519
 31
0.0
  0
LINE
  5
ADB8
  8
0
 10
118.4051592533682
 20
-37.944764855300591
 30
0.0
 11
118.4051592533682
 21
-40.944764855300527
 31
0.0
  0
LINE
  5
ADB9
  8
0
 10
135.405159253368
 20
-37.944764855300591
 30
0.0
 11
135.905159253368
 21
-37.444764855300591
 31
0.0
  0
LINE
  5
ADBA
  8
0
 10
135.405159253368
 20
-40.944764855300527
 30
0.0
 11
135.905159253368
 21
-41.444764855300519
 31
0.0
  0
LINE
  5
ADBB
  8
0
 10
135.405159253368
 20
-37.944764855300591
 30
0.0
 11
135.405159253368
 21
-40.944764855300527
 31
0.0
  0
LINE
  5
ADBC
  8
0
 10
168.40515925336811
 20
-37.944764855300591
 30
0.0
 11
167.90515925336811
 21
-37.444764855300591
 31
0.0
  0
LINE
  5
ADBD
  8
0
 10
168.40515925336811
 20
-40.944764855300527
 30
0.0
 11
167.90515925336811
 21
-41.444764855300519
 31
0.0
  0
LINE
  5
ADBE
  8
0
 10
168.40515925336811
 20
-37.944764855300591
 30
0.0
 11
168.40515925336811
 21
-40.944764855300527
 31
0.0
  0
LINE
  5
ADBF
  8
0
 10
185.405159253368
 20
-37.944764855300591
 30
0.0
 11
185.90515925336791
 21
-37.444764855300591
 31
0.0
  0
LINE
  5
ADC0
  8
0
 10
185.405159253368
 20
-40.944764855300527
 30
0.0
 11
185.90515925336791
 21
-41.444764855300519
 31
0.0
  0
LINE
  5
ADC1
  8
0
 10
185.405159253368
 20
-37.944764855300591
 30
0.0
 11
185.405159253368
 21
-40.944764855300527
 31
0.0
  0
LINE
  5
AE0C
  8
2
 10
168.40515925336791
 20
-94.494764855300474
 30
0.0
 11
168.09008634700049
 21
-94.179691948933055
 31
0.0
  0
LINE
  5
AE0D
  8
2
 10
168.40515925336791
 20
-97.494764855300417
 30
0.0
 11
168.09008634700041
 21
-97.809837761667808
 31
0.0
  0
LINE
  5
AE0E
  8
2
 10
168.40515925336791
 20
-94.494764855300474
 30
0.0
 11
168.40515925336791
 21
-97.494764855300417
 31
0.0
  0
LINE
  5
AE0F
  8
2
 10
185.40515925336771
 20
-94.494764855300474
 30
0.0
 11
185.7202321597353
 21
-94.179691948932884
 31
0.0
  0
LINE
  5
AE10
  8
2
 10
185.40515925336771
 20
-97.494764855300417
 30
0.0
 11
185.7202321597353
 21
-97.809837761667993
 31
0.0
  0
LINE
  5
AE11
  8
2
 10
185.40515925336771
 20
-94.494764855300474
 30
0.0
 11
185.40515925336771
 21
-97.494764855300417
 31
0.0
  0
ENDSEC
  0
EOF
