  0
SECTION
  2
HEADER
  9
$ACADVER
  1
AC1009
  9
$INSBASE
 10
0.0
 20
0.0
 30
0.0
  9
$EXTMIN
 10
0.0
 20
-1.4802182810368341
 30
0.0
  9
$EXTMAX
 10
34.157571623465223
 20
70.00000037997961
 30
0.0
  9
$LIMMIN
 10
0.0
 20
0.0
  9
$LIMMAX
 10
187.5
 20
135.0
  9
$ORTHOMODE
 70
     1
  9
$REGENMODE
 70
     1
  9
$FILLMODE
 70
     1
  9
$QTEXTMODE
 70
     0
  9
$MIRRTEXT
 70
     0
  9
$DRAGMODE
 70
     2
  9
$LTSCALE
 40
3.0
  9
$OSMODE
 70
    37
  9
$ATTMODE
 70
     1
  9
$TEXTSIZE
 40
0.2
  9
$TRACEWID
 40
0.05
  9
$TEXTSTYLE
  7
STANDARD
  9
$CLAYER
  8
0
  9
$CELTYPE
  6
BYLAYER
  9
$CECOLOR
 62
   256
  9
$DIMSCALE
 40
0.5
  9
$DIMASZ
 40
3.0
  9
$DIMEXO
 40
2.0
  9
$DIMDLI
 40
0.38
  9
$DIMRND
 40
0.0
  9
$DIMDLE
 40
0.0
  9
$DIMEXE
 40
2.0
  9
$DIMTP
 40
0.0
  9
$DIMTM
 40
0.0
  9
$DIMTXT
 40
3.2000000000000002
  9
$DIMCEN
 40
0.0
  9
$DIMTSZ
 40
0.0
  9
$DIMTOL
 70
     0
  9
$DIMLIM
 70
     0
  9
$DIMTIH
 70
     0
  9
$DIMTOH
 70
     0
  9
$DIMSE1
 70
     0
  9
$DIMSE2
 70
     0
  9
$DIMTAD
 70
     1
  9
$DIMZIN
 70
     8
  9
$DIMBLK
  1

  9
$DIMASO
 70
     0
  9
$DIMSHO
 70
     0
  9
$DIMPOST
  1

  9
$DIMAPOST
  1

  9
$DIMALT
 70
     0
  9
$DIMALTD
 70
     2
  9
$DIMALTF
 40
25.399999999999999
  9
$DIMLFAC
 40
1.0
  9
$DIMTOFL
 70
     1
  9
$DIMTVP
 40
1.6000000000000001
  9
$DIMTIX
 70
     1
  9
$DIMSOXD
 70
     0
  9
$DIMSAH
 70
     0
  9
$DIMBLK1
  1

  9
$DIMBLK2
  1

  9
$DIMSTYLE
  2
STANDARD
  9
$DIMCLRD
 70
     4
  9
$DIMCLRE
 70
     4
  9
$DIMCLRT
 70
     4
  9
$DIMTFAC
 40
1.0
  9
$DIMGAP
 40
1.0
  9
$LUNITS
 70
     2
  9
$LUPREC
 70
     1
  9
$SKETCHINC
 40
0.1
  9
$FILLETRAD
 40
0.0
  9
$AUNITS
 70
     0
  9
$AUPREC
 70
     1
  9
$MENU
  1
E:\r13\win\SUPPORT\ACAD
  9
$ELEVATION
 40
0.0
  9
$PELEVATION
 40
0.0
  9
$THICKNESS
 40
0.0
  9
$LIMCHECK
 70
     0
  9
$BLIPMODE
 70
     0
  9
$CHAMFERA
 40
0.0
  9
$CHAMFERB
 40
0.0
  9
$SKPOLY
 70
     0
  9
$TDCREATE
 40
2449839.7732986109
  9
$TDUPDATE
 40
2459046.4124369682
  9
$TDINDWG
 40
0.1756882639
  9
$TDUSRTIMER
 40
0.1756882639
  9
$USRTIMER
 70
     1
  9
$ANGBASE
 50
0.0
  9
$ANGDIR
 70
     0
  9
$PDMODE
 70
     0
  9
$PDSIZE
 40
0.0
  9
$PLINEWID
 40
0.0
  9
$COORDS
 70
     1
  9
$SPLFRAME
 70
     0
  9
$SPLINETYPE
 70
     6
  9
$SPLINESEGS
 70
     8
  9
$ATTDIA
 70
     0
  9
$ATTREQ
 70
     1
  9
$HANDLING
 70
     1
  9
$HANDSEED
  5
2FC0
  9
$SURFTAB1
 70
     6
  9
$SURFTAB2
 70
     6
  9
$SURFTYPE
 70
     6
  9
$SURFU
 70
     6
  9
$SURFV
 70
     6
  9
$UCSNAME
  2

  9
$UCSORG
 10
0.0
 20
0.0
 30
0.0
  9
$UCSXDIR
 10
1.0
 20
0.0
 30
0.0
  9
$UCSYDIR
 10
0.0
 20
1.0
 30
0.0
  9
$PUCSNAME
  2

  9
$PUCSORG
 10
0.0
 20
0.0
 30
0.0
  9
$PUCSXDIR
 10
1.0
 20
0.0
 30
0.0
  9
$PUCSYDIR
 10
0.0
 20
1.0
 30
0.0
  9
$USERI1
 70
     0
  9
$USERI2
 70
     1
  9
$USERI3
 70
     0
  9
$USERI4
 70
     0
  9
$USERI5
 70
     0
  9
$USERR1
 40
0.0
  9
$USERR2
 40
0.0
  9
$USERR3
 40
0.0
  9
$USERR4
 40
0.0
  9
$USERR5
 40
0.0
  9
$WORLDVIEW
 70
     1
  9
$SHADEDGE
 70
     3
  9
$SHADEDIF
 70
    70
  9
$TILEMODE
 70
     1
  9
$MAXACTVP
 70
    16
  9
$PLIMCHECK
 70
     0
  9
$PEXTMIN
 10
1.0000000000000000E+020
 20
1.0000000000000000E+020
 30
1.0000000000000000E+020
  9
$PEXTMAX
 10
-1.0000000000000000E+020
 20
-1.0000000000000000E+020
 30
-1.0000000000000000E+020
  9
$PLIMMIN
 10
0.0
 20
0.0
  9
$PLIMMAX
 10
12.0
 20
9.0
  9
$UNITMODE
 70
     0
  9
$VISRETAIN
 70
     0
  9
$PLINEGEN
 70
     0
  9
$PSLTSCALE
 70
     0
  0
ENDSEC
  0
SECTION
  2
TABLES
  0
TABLE
  2
VPORT
 70
     1
  0
VPORT
  2
*ACTIVE
 70
     0
 10
0.0
 20
0.0
 11
1.0
 21
1.0
 12
120.782208588957
 22
50.0
 13
0.0
 23
0.0
 14
5.0
 24
5.0
 15
5.0
 25
5.0
 16
0.0
 26
0.0
 36
1.0
 17
0.0
 27
0.0
 37
0.0
 40
100.0
 41
2.415644171779141
 42
50.0
 43
0.0
 44
0.0
 50
0.0
 51
0.0
 71
     0
 72
   500
 73
     1
 74
     0
 75
     0
 76
     0
 77
     0
 78
     2
  0
ENDTAB
  0
TABLE
  2
LTYPE
 70
     4
  0
LTYPE
  2
CONTINUOUS
 70
     0
  3
Solid Line
 72
    65
 73
     0
 40
0.0
  0
LTYPE
  2
CENTER
 70
     0
  3
____ _ ____ _ ____ _ ____ _ ____ _ ____ _ ____
 72
    65
 73
     4
 40
2.0
 49
1.25
 49
-0.25
 49
0.25
 49
-0.25
  0
LTYPE
  2
HIDDEN
 70
     0
  3
_ _ _ _ _ _ _ _ _ _ _ _ _ _ _ _ _ _ _ _ _ _ _
 72
    65
 73
     2
 40
0.375
 49
0.25
 49
-0.125
  0
LTYPE
  2
PHANTOM2
 70
     0
  3
___ _ _ ___ _ _ ___ _ _ ___ _ _
 72
    65
 73
     6
 40
1.25
 49
0.625
 49
-0.125
 49
0.125
 49
-0.125
 49
0.125
 49
-0.125
  0
ENDTAB
  0
TABLE
  2
LAYER
 70
     5
  0
LAYER
  2
0
 70
     0
 62
     7
  6
CONTINUOUS
  0
LAYER
  2
1
 70
     0
 62
     1
  6
CENTER
  0
LAYER
  2
2
 70
     0
 62
     2
  6
HIDDEN
  0
LAYER
  2
3
 70
     0
 62
     3
  6
CONTINUOUS
  0
LAYER
  2
DEFPOINTS
 70
     0
 62
     7
  6
CONTINUOUS
  0
ENDTAB
  0
TABLE
  2
STYLE
 70
     2
  0
STYLE
  2
STANDARD
 70
     0
 40
0.0
 41
1.0
 50
0.0
 71
     0
 42
0.2
  3
TXT
  4
BIGFONT
  0
STYLE
  2
STANDARD1
 70
     0
 40
0.0
 41
1.0
 50
0.0
 71
     0
 42
3.0
  3
txt
  4

  0
ENDTAB
  0
TABLE
  2
VIEW
 70
     1
  0
VIEW
  2
ALL
 70
     0
 40
270.0
 10
220.99159663865549
 20
135.0
 41
0.0
 11
0.0
 21
0.0
 31
1.0
 12
0.0
 22
0.0
 32
0.0
 42
0.0
 43
0.0
 44
0.0
 50
0.0
 71
     0
  0
ENDTAB
  0
TABLE
  2
UCS
 70
     0
  0
ENDTAB
  0
TABLE
  2
APPID
 70
    12
  0
APPID
  2
ACAD
 70
     0
  0
APPID
  2
ACAD_EXEMPT_FROM_CAD_STANDARDS
 70
     0
  0
APPID
  2
ACAD_PSEXT
 70
     0
  0
APPID
  2
ACAD_MLEADERVER
 70
     0
  0
APPID
  2
ACAD_NAV_VCDISPLAY
 70
     0
  0
APPID
  2
ACAD_DSTYLE_DIMJAG
 70
     0
  0
APPID
  2
ACAD_DSTYLE_DIMTALN
 70
     0
  0
APPID
  2
ACAD_DSTYLE_DIMBREAK
 70
     0
  0
APPID
  2
ACAECLAYERSTANDARD
 70
     0
  0
APPID
  2
ACCMTRANSPARENCY
 70
     0
  0
APPID
  2
ACAD_DSTYLE_DIM_LINETYPE
 70
     0
  0
APPID
  2
ACAD_DSTYLE_DIMRADIAL_EXTENSION
 70
     0
  0
ENDTAB
  0
TABLE
  2
DIMSTYLE
 70
     1
  0
DIMSTYLE
  2
STANDARD
 70
     0
  3

  4

  5

  6

  7

 40
1.0
 41
0.18
 42
0.0625
 43
0.38
 44
0.18
 45
0.0
 46
0.0
 47
0.0
 48
0.0
140
0.18
141
0.09
142
0.0
143
25.399999999999999
144
1.0
145
0.0
146
1.0
147
0.09
 71
     0
 72
     0
 73
     1
 74
     1
 75
     0
 76
     0
 77
     0
 78
     0
170
     0
171
     2
172
     0
173
     0
174
     0
175
     0
176
     0
177
     0
178
     0
  0
ENDTAB
  0
ENDSEC
  0
SECTION
  2
BLOCKS
  0
BLOCK
  8
0
  2
$MODEL_SPACE
 70
     0
 10
0.0
 20
0.0
 30
0.0
  3
$MODEL_SPACE
  1

  0
ENDBLK
  5
1D4
  8
0
  0
BLOCK
 67
     1
  8
0
  2
$PAPER_SPACE
 70
     0
 10
0.0
 20
0.0
 30
0.0
  3
$PAPER_SPACE
  1

  0
ENDBLK
  5
1D2
 67
     1
  8
0
  0
ENDSEC
  0
SECTION
  2
ENTITIES
  0
TEXT
  5
6B1
  8
0
 62
     3
 10
0.0
 20
0.0
 30
0.0
 40
5.0
  1
QCIC07TB
  7
STANDARD1
  0
CIRCLE
  5
2D63
  8
0
 10
25.0
 20
63.00000037997961
 30
0.0
 40
4.8000000000000114
  0
CIRCLE
  5
2D64
  8
0
 10
25.0
 20
63.00000037997961
 30
0.0
 40
5.0
  0
CIRCLE
  5
2D65
  8
0
 10
25.0
 20
63.00000037997961
 30
0.0
 40
2.5
  0
CIRCLE
  5
2D66
  8
0
 10
25.0
 20
63.00000037997961
 30
0.0
 40
1.6499999999999979
  0
CIRCLE
  5
2D67
  8
0
 10
25.0
 20
63.00000037997961
 30
0.0
 40
3.4007005808449469
  0
CIRCLE
  5
2D6A
  8
3
 10
25.0
 20
63.00000037997961
 30
0.0
 40
2.0000000949948951
  0
LINE
  5
2D6B
  8
0
 10
20.000000111758709
 20
47.799999788403497
 30
0.0
 11
20.19999977201223
 21
48.00000037997961
 31
0.0
  0
ARC
  5
2D6D
  8
2
 10
21.11633650601053
 20
47.499999999999993
 30
0.0
 40
0.5
 50
15.00000000000038
 51
90.0
  0
LINE
  5
2D6E
  8
2
 10
22.500000055879351
 20
44.267949145287261
 30
0.0
 11
21.599299367517229
 21
47.62940943241118
 31
0.0
  0
LINE
  5
2D6F
  8
2
 10
22.500000055879351
 20
44.267949145287261
 30
0.0
 11
22.500000055879351
 21
43.500000108033397
 31
0.0
  0
LINE
  5
2D70
  8
2
 10
22.500000055879351
 20
43.500000108033397
 30
0.0
 11
23.3500000089407
 21
42.989268396049717
 31
0.0
  0
LINE
  5
2D71
  8
2
 10
23.3500000089407
 20
42.989268396049717
 30
0.0
 11
23.3500000089407
 21
40.699999975040541
 31
0.0
  0
LINE
  5
2D72
  8
2
 10
23.3500000089407
 20
40.699999975040541
 30
0.0
 11
22.650000033900142
 21
40.0
 31
0.0
  0
LINE
  5
2D73
  8
0
 10
20.500000193715088
 20
40.0
 30
0.0
 11
29.499999806284901
 21
40.0
 31
0.0
  0
LINE
  5
2D74
  8
0
 10
20.500000193715088
 20
40.0
 30
0.0
 11
20.0250000692904
 21
40.47500000800936
 31
0.0
  0
LINE
  5
2D75
  8
0
 10
20.0250000692904
 20
42.499999944120631
 30
0.0
 11
20.0250000692904
 21
40.47500000800936
 31
0.0
  0
LINE
  5
2D77
  8
0
 10
20.000000111758709
 20
47.799999788403497
 30
0.0
 11
20.000000111758709
 21
42.499999944120631
 31
0.0
  0
LINE
  5
2D78
  8
0
 10
20.00000011175872
 20
42.499999944120638
 30
0.0
 11
29.999999888241291
 21
42.499999944120631
 31
0.0
  0
LINE
  5
2D79
  8
0
 10
29.9749999307096
 20
40.47500000800936
 30
0.0
 11
29.9749999307096
 21
42.499999944120631
 31
0.0
  0
LINE
  5
2D7A
  8
0
 10
29.9749999307096
 20
40.47500000800936
 30
0.0
 11
29.499999806284901
 21
40.0
 31
0.0
  0
LINE
  5
2D7C
  8
2
 10
27.349999966099858
 20
40.0
 30
0.0
 11
26.6499999910593
 21
40.699999975040541
 31
0.0
  0
LINE
  5
2D7D
  8
2
 10
26.6499999910593
 20
40.699999975040541
 30
0.0
 11
26.6499999910593
 21
42.989268396049717
 31
0.0
  0
LINE
  5
2D7E
  8
2
 10
26.6499999910593
 20
42.989268396049717
 30
0.0
 11
27.499999944120638
 21
43.500000108033397
 31
0.0
  0
LINE
  5
2D7F
  8
2
 10
27.499999944120638
 20
43.500000108033397
 30
0.0
 11
27.499999944120638
 21
44.267949145287261
 31
0.0
  0
LINE
  5
2D80
  8
2
 10
28.400700632482771
 20
47.62940943241118
 30
0.0
 11
27.499999944120638
 21
44.267949145287261
 31
0.0
  0
ARC
  5
2D81
  8
2
 10
28.883663493989499
 20
47.499999999999993
 30
0.0
 40
0.5000000000000013
 50
90.0
 51
165.00000000000031
  0
LINE
  5
2D82
  8
0
 10
29.800000227987759
 20
48.00000037997961
 30
0.0
 11
20.199999772012251
 21
48.00000037997961
 31
0.0
  0
LINE
  5
2D83
  8
0
 10
29.800000227987759
 20
48.00000037997961
 30
0.0
 11
29.999999888241291
 21
47.799999788403497
 31
0.0
  0
LINE
  5
2D84
  8
0
 10
29.999999888241291
 20
42.499999944120631
 30
0.0
 11
29.999999888241291
 21
47.799999788403497
 31
0.0
  0
LINE
  5
2D86
  8
2
 10
23.3500000089407
 20
40.699999975040541
 30
0.0
 11
26.6499999910593
 21
40.699999975040541
 31
0.0
  0
LINE
  5
2D87
  8
2
 10
26.6499999910593
 20
42.989268396049717
 30
0.0
 11
23.3500000089407
 21
42.989268396049717
 31
0.0
  0
LINE
  5
2D88
  8
2
 10
27.499999944120638
 20
44.267949145287261
 30
0.0
 11
22.500000055879351
 21
44.267949145287261
 31
0.0
  0
LINE
  5
2D89
  8
2
 10
27.499999944120638
 20
43.500000108033397
 30
0.0
 11
22.500000055879351
 21
43.500000108033397
 31
0.0
  0
LINE
  5
2D8B
  8
2
 10
28.400700632482771
 20
47.62940943241118
 30
0.0
 11
21.599299367517229
 21
47.62940943241118
 31
0.0
  0
LINE
  5
2DA5
  8
2
 10
22.999999905005101
 20
40.349999987520263
 30
0.0
 11
22.999999905005101
 21
43.199569648131707
 31
0.0
  0
LINE
  5
2DA6
  8
2
 10
27.000000094994899
 20
43.199569648131707
 30
0.0
 11
27.000000094994899
 21
40.349999987520263
 31
0.0
  0
CIRCLE
  5
2E22
  8
0
 10
25.0
 20
25.0
 30
0.0
 40
4.4999999999999956
  0
CIRCLE
  5
2E23
  8
0
 10
25.0
 20
25.0
 30
0.0
 40
4.9749999999999988
  0
CIRCLE
  5
2E24
  8
0
 10
25.0
 20
25.0
 30
0.0
 40
2.3499999999999992
  0
CIRCLE
  5
2E25
  8
0
 10
25.0
 20
25.0
 30
0.0
 40
1.6500000000000019
  0
CIRCLE
  5
2E26
  8
0
 10
25.0
 20
25.0
 30
0.0
 40
4.9999999999999956
  0
CIRCLE
  5
2E28
  8
3
 10
25.0
 20
25.0
 30
0.0
 40
2.0000000949949022
  0
LINE
  5
2F15
  8
0
 10
20.0250000692904
 20
40.47500000800936
 30
0.0
 11
29.9749999307096
 21
40.47500000800936
 31
0.0
  0
LINE
  5
2F16
  8
0
 10
29.999999888241291
 20
47.799999788403497
 30
0.0
 11
20.000000111758709
 21
47.799999788403497
 31
0.0
  0
LINE
  5
2F1E
  8
1
 10
25.0
 20
50.000000379979603
 30
0.0
 11
25.0
 21
37.999999999999993
 31
0.0
  0
LINE
  5
2F27
  8
1
 10
25.0
 20
31.999999999999989
 30
0.0
 11
25.0
 21
18.0
 31
0.0
  0
LINE
  5
2F28
  8
1
 10
32.0
 20
25.0
 30
0.0
 11
18.0
 21
25.0
 31
0.0
  0
LINE
  5
2F31
  8
1
 10
25.0
 20
70.00000037997961
 30
0.0
 11
25.0
 21
56.000000379979603
 31
0.0
  0
LINE
  5
2F33
  8
1
 10
32.0
 20
63.00000037997961
 30
0.0
 11
18.0
 21
63.00000037997961
 31
0.0
  0
ENDSEC
  0
EOF
