  0
SECTION
  2
HEADER
  9
$ACADVER
  1
AC1009
  9
$INSBASE
 10
0.0
 20
0.0
 30
0.0
  9
$EXTMIN
 10
0.0
 20
-139.60523514469941
 30
0.0
  9
$EXTMAX
 10
383.80437348160638
 20
135.99999972293159
 30
0.0
  9
$LIMMIN
 10
0.0
 20
0.0
  9
$LIMMAX
 10
187.5
 20
135.0
  9
$ORTHOMODE
 70
     1
  9
$REGENMODE
 70
     1
  9
$FILLMODE
 70
     1
  9
$QTEXTMODE
 70
     0
  9
$MIRRTEXT
 70
     0
  9
$DRAGMODE
 70
     2
  9
$LTSCALE
 40
5.0
  9
$OSMODE
 70
    37
  9
$ATTMODE
 70
     1
  9
$TEXTSIZE
 40
0.2
  9
$TRACEWID
 40
0.05
  9
$TEXTSTYLE
  7
STANDARD
  9
$CLAYER
  8
0
  9
$CELTYPE
  6
BYLAYER
  9
$CECOLOR
 62
   256
  9
$DIMSCALE
 40
0.5
  9
$DIMASZ
 40
3.0
  9
$DIMEXO
 40
2.0
  9
$DIMDLI
 40
0.3799999999999999
  9
$DIMRND
 40
0.0
  9
$DIMDLE
 40
0.0
  9
$DIMEXE
 40
2.0
  9
$DIMTP
 40
0.0
  9
$DIMTM
 40
0.0
  9
$DIMTXT
 40
3.2000000000000002
  9
$DIMCEN
 40
0.09
  9
$DIMTSZ
 40
0.0
  9
$DIMTOL
 70
     0
  9
$DIMLIM
 70
     0
  9
$DIMTIH
 70
     0
  9
$DIMTOH
 70
     0
  9
$DIMSE1
 70
     0
  9
$DIMSE2
 70
     0
  9
$DIMTAD
 70
     1
  9
$DIMZIN
 70
     8
  9
$DIMBLK
  1

  9
$DIMASO
 70
     0
  9
$DIMSHO
 70
     0
  9
$DIMPOST
  1

  9
$DIMAPOST
  1

  9
$DIMALT
 70
     0
  9
$DIMALTD
 70
     2
  9
$DIMALTF
 40
25.399999999999999
  9
$DIMLFAC
 40
1.0
  9
$DIMTOFL
 70
     0
  9
$DIMTVP
 40
1.6000000000000001
  9
$DIMTIX
 70
     1
  9
$DIMSOXD
 70
     0
  9
$DIMSAH
 70
     0
  9
$DIMBLK1
  1

  9
$DIMBLK2
  1

  9
$DIMSTYLE
  2
STANDARD
  9
$DIMCLRD
 70
     0
  9
$DIMCLRE
 70
     0
  9
$DIMCLRT
 70
     0
  9
$DIMTFAC
 40
1.0
  9
$DIMGAP
 40
1.0
  9
$LUNITS
 70
     2
  9
$LUPREC
 70
     4
  9
$SKETCHINC
 40
0.1
  9
$FILLETRAD
 40
0.4
  9
$AUNITS
 70
     0
  9
$AUPREC
 70
     0
  9
$MENU
  1
E:\r13\win\SUPPORT\ACAD
  9
$ELEVATION
 40
0.0
  9
$PELEVATION
 40
0.0
  9
$THICKNESS
 40
0.0
  9
$LIMCHECK
 70
     0
  9
$BLIPMODE
 70
     0
  9
$CHAMFERA
 40
0.0
  9
$CHAMFERB
 40
0.0
  9
$SKPOLY
 70
     0
  9
$TDCREATE
 40
2451824.6906229062
  9
$TDUPDATE
 40
2456804.7034376161
  9
$TDINDWG
 40
0.3822833449
  9
$TDUSRTIMER
 40
0.3822833449
  9
$USRTIMER
 70
     1
  9
$ANGBASE
 50
0.0
  9
$ANGDIR
 70
     0
  9
$PDMODE
 70
     0
  9
$PDSIZE
 40
0.0
  9
$PLINEWID
 40
0.0
  9
$COORDS
 70
     1
  9
$SPLFRAME
 70
     0
  9
$SPLINETYPE
 70
     6
  9
$SPLINESEGS
 70
     8
  9
$ATTDIA
 70
     0
  9
$ATTREQ
 70
     1
  9
$HANDLING
 70
     1
  9
$HANDSEED
  5
6F6D
  9
$SURFTAB1
 70
     6
  9
$SURFTAB2
 70
     6
  9
$SURFTYPE
 70
     6
  9
$SURFU
 70
     6
  9
$SURFV
 70
     6
  9
$UCSNAME
  2

  9
$UCSORG
 10
0.0
 20
0.0
 30
0.0
  9
$UCSXDIR
 10
1.0
 20
0.0
 30
0.0
  9
$UCSYDIR
 10
0.0
 20
1.0
 30
0.0
  9
$PUCSNAME
  2

  9
$PUCSORG
 10
0.0
 20
0.0
 30
0.0
  9
$PUCSXDIR
 10
1.0
 20
0.0
 30
0.0
  9
$PUCSYDIR
 10
0.0
 20
1.0
 30
0.0
  9
$USERI1
 70
     0
  9
$USERI2
 70
     1
  9
$USERI3
 70
     0
  9
$USERI4
 70
     0
  9
$USERI5
 70
     0
  9
$USERR1
 40
0.0
  9
$USERR2
 40
0.0
  9
$USERR3
 40
0.0
  9
$USERR4
 40
0.0
  9
$USERR5
 40
0.0
  9
$WORLDVIEW
 70
     1
  9
$SHADEDGE
 70
     3
  9
$SHADEDIF
 70
    70
  9
$TILEMODE
 70
     1
  9
$MAXACTVP
 70
    16
  9
$PLIMCHECK
 70
     0
  9
$PEXTMIN
 10
1.0000000000000000E+020
 20
1.0000000000000000E+020
 30
1.0000000000000000E+020
  9
$PEXTMAX
 10
-1.0000000000000000E+020
 20
-1.0000000000000000E+020
 30
-1.0000000000000000E+020
  9
$PLIMMIN
 10
0.0
 20
0.0
  9
$PLIMMAX
 10
12.0
 20
9.0
  9
$UNITMODE
 70
     0
  9
$VISRETAIN
 70
     0
  9
$PLINEGEN
 70
     0
  9
$PSLTSCALE
 70
     0
  0
ENDSEC
  0
SECTION
  2
TABLES
  0
TABLE
  2
VPORT
 70
     1
  0
VPORT
  2
*ACTIVE
 70
     0
 10
0.0
 20
0.0
 11
1.0
 21
1.0
 12
235.63977746870651
 22
135.0
 13
0.0
 23
0.0
 14
5.0
 24
5.0
 15
5.0
 25
5.0
 16
0.0
 26
0.0
 36
1.0
 17
0.0
 27
0.0
 37
0.0
 40
270.0
 41
1.7454798331015291
 42
50.0
 43
0.0
 44
0.0
 50
0.0
 51
0.0
 71
     0
 72
   500
 73
     1
 74
     0
 75
     0
 76
     0
 77
     0
 78
     2
  0
ENDTAB
  0
TABLE
  2
LTYPE
 70
     4
  0
LTYPE
  2
CONTINUOUS
 70
     0
  3
Solid Line
 72
    65
 73
     0
 40
0.0
  0
LTYPE
  2
CENTER
 70
     0
  3
____ _ ____ _ ____ _ ____ _ ____ _ ____ _ ____
 72
    65
 73
     4
 40
2.0
 49
1.25
 49
-0.25
 49
0.25
 49
-0.25
  0
LTYPE
  2
PHANTOM2
 70
     0
  3
___ _ _ ___ _ _ ___ _ _ ___ _ _
 72
    65
 73
     6
 40
1.25
 49
0.625
 49
-0.125
 49
0.125
 49
-0.125
 49
0.125
 49
-0.125
  0
LTYPE
  2
PHANTOM
 70
     0
  3
_____ _ _ _____ _ _ _____ _ _ _____ _ _ ____
 72
    65
 73
     6
 40
2.5
 49
1.25
 49
-0.25
 49
0.25
 49
-0.25
 49
0.25
 49
-0.25
  0
ENDTAB
  0
TABLE
  2
LAYER
 70
     5
  0
LAYER
  2
0
 70
     0
 62
     7
  6
CONTINUOUS
  0
LAYER
  2
1
 70
     0
 62
     1
  6
CENTER
  0
LAYER
  2
3
 70
     0
 62
     3
  6
CONTINUOUS
  0
LAYER
  2
DEFPOINTS
 70
     0
 62
     7
  6
CONTINUOUS
  0
LAYER
  2
5
 70
     0
 62
     3
  6
PHANTOM
  0
ENDTAB
  0
TABLE
  2
STYLE
 70
     2
  0
STYLE
  2
STANDARD
 70
     0
 40
0.0
 41
1.0
 50
0.0
 71
     0
 42
0.2
  3
TXT
  4
BIGFONT
  0
STYLE
  2
STANDARD1
 70
     0
 40
0.0
 41
1.0
 50
0.0
 71
     0
 42
3.0
  3
txt
  4

  0
ENDTAB
  0
TABLE
  2
VIEW
 70
     0
  0
ENDTAB
  0
TABLE
  2
UCS
 70
     0
  0
ENDTAB
  0
TABLE
  2
APPID
 70
     8
  0
APPID
  2
ACAD
 70
     0
  0
APPID
  2
ACAD_MLEADERVER
 70
     0
  0
APPID
  2
ACAD_EXEMPT_FROM_CAD_STANDARDS
 70
     0
  0
APPID
  2
ACAD_DSTYLE_DIMJAG
 70
     0
  0
APPID
  2
ACAD_DSTYLE_DIMTALN
 70
     0
  0
APPID
  2
ACAD_NAV_VCDISPLAY
 70
     0
  0
APPID
  2
ACADANNOTATIVE
 70
     0
  0
APPID
  2
ACAD_PSEXT
 70
     0
  0
ENDTAB
  0
TABLE
  2
DIMSTYLE
 70
     1
  0
DIMSTYLE
  2
STANDARD
 70
     0
  3

  4

  5

  6

  7

 40
1.0
 41
0.18
 42
0.0625
 43
0.38
 44
0.18
 45
0.0
 46
0.0
 47
0.0
 48
0.0
140
0.18
141
0.09
142
0.0
143
25.399999999999999
144
1.0
145
0.0
146
1.0
147
0.09
 71
     0
 72
     0
 73
     1
 74
     1
 75
     0
 76
     0
 77
     0
 78
     0
170
     0
171
     2
172
     0
173
     0
174
     0
175
     0
176
     0
177
     0
178
     0
  0
ENDTAB
  0
ENDSEC
  0
SECTION
  2
BLOCKS
  0
BLOCK
  8
0
  2
$MODEL_SPACE
 70
     0
 10
0.0
 20
0.0
 30
0.0
  3
$MODEL_SPACE
  1

  0
ENDBLK
  5
9
  8
0
  0
BLOCK
 67
     1
  8
0
  2
$PAPER_SPACE
 70
     0
 10
0.0
 20
0.0
 30
0.0
  3
$PAPER_SPACE
  1

  0
ENDBLK
  5
E
 67
     1
  8
0
  0
ENDSEC
  0
SECTION
  2
ENTITIES
  0
TEXT
  5
5E3F
  8
0
 62
     3
 10
113.80437348160631
 20
0.0
 30
0.0
 40
3.2000000000000002
  1
■取付け方法 (下図)
  0
TEXT
  5
5E44
  8
0
 62
     3
 10
118.80437348160631
 20
-106.60523514469929
 30
0.0
 40
3.2000000000000002
  1
ケースを使用しない場合
  0
LINE
  5
5E70
  8
0
 10
139.51637348160631
 20
-121.60523514469941
 30
0.0
 11
174.51637348160631
 21
-121.60523514469941
 31
0.0
  0
LINE
  5
5E71
  8
1
 10
157.01637348160639
 20
-118.60523514469941
 30
0.0
 11
157.01637348160639
 21
-132.60523514469941
 31
0.0
  0
LINE
  5
5E72
  8
0
 10
160.01637348160639
 20
-122.60523514469941
 30
0.0
 11
160.01637348160639
 21
-126.5052351446994
 31
0.0
  0
LINE
  5
5E73
  8
0
 10
154.01637348160639
 20
-122.60523514469941
 30
0.0
 11
154.01637348160639
 21
-126.5052351446994
 31
0.0
  0
LINE
  5
5E74
  8
0
 10
154.01637348160651
 20
-126.5052351446994
 30
0.0
 11
160.01637348160651
 21
-126.5052351446994
 31
0.0
  0
LINE
  5
5E76
  8
0
 10
139.51637348160631
 20
-129.60523514469941
 30
0.0
 11
174.51637348160631
 21
-129.60523514469941
 31
0.0
  0
LINE
  5
5E77
  8
0
 10
154.01637348160639
 20
-122.60523514469941
 30
0.0
 11
153.01637348160639
 21
-121.60523514469941
 31
0.0
  0
LINE
  5
5E78
  8
0
 10
154.01637348160639
 20
-122.60523514469941
 30
0.0
 11
160.01637348160639
 21
-122.60523514469941
 31
0.0
  0
LINE
  5
5E79
  8
0
 10
160.01637348160639
 20
-122.60523514469941
 30
0.0
 11
161.01637348160639
 21
-121.60523514469929
 31
0.0
  0
LINE
  5
5E7A
  8
0
 10
160.01637348160651
 20
-126.5052351446994
 30
0.0
 11
161.01637348160651
 21
-128.23728595226811
 31
0.0
  0
LINE
  5
5E7B
  8
0
 10
154.01637348160651
 20
-126.5052351446994
 30
0.0
 11
153.01637348160639
 21
-128.23728595226811
 31
0.0
  0
LINE
  5
5E90
  8
0
 10
189.51637348160631
 20
-51.594764855300461
 30
0.0
 11
224.51637348160631
 21
-51.594764855300461
 31
0.0
  0
LINE
  5
5E91
  8
0
 10
199.01637348160639
 20
-55.094764855300461
 30
0.0
 11
215.01637348160639
 21
-55.094764855300461
 31
0.0
  0
LINE
  5
5E92
  8
1
 10
207.01637348160631
 20
-48.594764855300461
 30
0.0
 11
207.01637348160631
 21
-60.594764855300461
 31
0.0
  0
LINE
  5
5E93
  8
0
 10
215.01637348160639
 20
-52.094764855300461
 30
0.0
 11
215.01637348160639
 21
-55.094764855300461
 31
0.0
  0
LINE
  5
5E94
  8
0
 10
199.01637348160639
 20
-52.094764855300461
 30
0.0
 11
199.01637348160639
 21
-55.094764855300461
 31
0.0
  0
LINE
  5
5E95
  8
0
 10
200.51637348160639
 20
-57.094764855300461
 30
0.0
 11
200.51637348160639
 21
-55.094764855300461
 31
0.0
  0
LINE
  5
5E96
  8
0
 10
213.51637348160639
 20
-57.09476485530061
 30
0.0
 11
213.51637348160639
 21
-55.094764855300461
 31
0.0
  0
LINE
  5
5E97
  8
0
 10
189.51637348160631
 20
-57.594764855300461
 30
0.0
 11
224.51637348160631
 21
-57.594764855300461
 31
0.0
  0
LINE
  5
5E9E
  8
0
 10
328.80437348160638
 20
-51.59476485530061
 30
0.0
 11
363.80437348160649
 21
-51.59476485530061
 31
0.0
  0
LINE
  5
5E9F
  8
0
 10
338.30437348160638
 20
-55.09476485530061
 30
0.0
 11
354.30437348160638
 21
-55.09476485530061
 31
0.0
  0
LINE
  5
5EA1
  8
1
 10
346.30437348160638
 20
-48.59476485530061
 30
0.0
 11
346.30437348160638
 21
-66.59476485530061
 31
0.0
  0
LINE
  5
5EA2
  8
0
 10
354.30437348160638
 20
-52.09476485530061
 30
0.0
 11
354.30437348160638
 21
-55.09476485530061
 31
0.0
  0
LINE
  5
5EA3
  8
0
 10
338.30437348160638
 20
-52.09476485530061
 30
0.0
 11
338.30437348160638
 21
-55.09476485530061
 31
0.0
  0
LINE
  5
5EA9
  8
0
 10
328.80437348160638
 20
-63.594764855300582
 30
0.0
 11
363.80437348160649
 21
-63.594764855300582
 31
0.0
  0
LINE
  5
5EBA
  8
0
 10
199.01637348160639
 20
-52.094764855300461
 30
0.0
 11
198.51637348160639
 21
-51.594764855300461
 31
0.0
  0
LINE
  5
5EBB
  8
0
 10
215.01637348160639
 20
-52.09476485530066
 30
0.0
 11
215.51637348160631
 21
-51.59476485530066
 31
0.0
  0
LINE
  5
5EBC
  8
0
 10
199.01637348160639
 20
-52.094764855300461
 30
0.0
 11
215.01637348160639
 21
-52.094764855300461
 31
0.0
  0
LINE
  5
5EBD
  8
0
 10
200.51637348160639
 20
-57.094764855300461
 30
0.0
 11
200.01637348160639
 21
-57.594764855300461
 31
0.0
  0
LINE
  5
5EBE
  8
0
 10
213.51637348160631
 20
-57.094764855300461
 30
0.0
 11
214.01637348160639
 21
-57.594764855300461
 31
0.0
  0
LINE
  5
5EBF
  8
0
 10
200.51637348160639
 20
-57.09476485530061
 30
0.0
 11
213.51637348160639
 21
-57.09476485530061
 31
0.0
  0
LINE
  5
5EC6
  8
0
 10
338.30437348160638
 20
-52.09476485530061
 30
0.0
 11
337.80437348160638
 21
-51.59476485530061
 31
0.0
  0
LINE
  5
5EC7
  8
0
 10
338.30437348160638
 20
-52.09476485530061
 30
0.0
 11
354.30437348160638
 21
-52.09476485530061
 31
0.0
  0
LINE
  5
5EC8
  8
0
 10
354.30437348160638
 20
-52.094764855300689
 30
0.0
 11
354.80437348160638
 21
-51.594764855300703
 31
0.0
  0
LINE
  5
5F49
  8
0
 10
340.98087348160669
 20
-62.094764855300582
 30
0.0
 11
339.48087348160669
 21
-63.594764855300582
 31
0.0
  0
TEXT
  5
5F53
  8
0
 62
     3
 10
147.9497068149397
 20
-79.094764855300468
 30
0.0
 40
3.2000000000000002
  1
組付け状態
 72
     1
 11
157.01637348160639
 21
-79.094764855300468
 31
0.0
  0
POLYLINE
  5
5F54
  8
5
 66
     1
 10
0.0
 20
0.0
 30
0.0
 70
     1
  0
VERTEX
  5
6F67
  8
5
 10
113.80437348160631
 20
-10.0
 30
0.0
  0
VERTEX
  5
6F68
  8
5
 10
383.80437348160638
 20
-10.0
 30
0.0
  0
VERTEX
  5
6F69
  8
5
 10
383.80437348160638
 20
-139.60523514469941
 30
0.0
  0
VERTEX
  5
6F6A
  8
5
 10
113.80437348160631
 20
-139.60523514469941
 30
0.0
  0
SEQEND
  5
6F6B
  8
5
  0
TEXT
  5
5F55
  8
0
 62
     3
 10
199.76304014827301
 20
-79.094764855300468
 30
0.0
 40
3.2000000000000002
  1
取付け穴
 72
     1
 11
207.01637348160639
 21
-79.094764855300468
 31
0.0
  0
TEXT
  5
5F58
  8
0
 62
     3
 10
287.23770681493988
 20
-79.094764855300468
 30
0.0
 40
3.2000000000000002
  1
組付け状態
 72
     1
 11
296.3043734816066
 21
-79.094764855300468
 31
0.0
  0
TEXT
  5
5F59
  8
0
 62
     3
 10
339.05104014827322
 20
-79.094764855300468
 30
0.0
 40
3.2000000000000002
  1
取付け穴
 72
     1
 11
346.3043734816066
 21
-79.094764855300468
 31
0.0
  0
TEXT
  5
5F5C
  8
0
 62
     3
 10
118.80437348160631
 20
-20.0
 30
0.0
 40
3.2000000000000002
  1
ケースの取付け方法
  0
TEXT
  5
5FC0
  8
0
 62
     3
 10
0.0
 20
0.0
 30
0.0
 40
10.0
  1
QCBU0608-M12
  7
STANDARD1
  0
TEXT
  5
6052
  8
0
 62
     3
 10
113.80437348160631
 20
-7.0
 30
0.0
 40
3.2000000000000002
  1
■Installation Instructions (see diagram below)
  0
TEXT
  5
6057
  8
0
 62
     3
 10
118.80437348160631
 20
-113.60523514469929
 30
0.0
 40
3.2000000000000002
  1
Installation without Receptacles
  0
TEXT
  5
6058
  8
0
 62
     3
 10
135.80037348160641
 20
-86.094764855300468
 30
0.0
 40
3.2000000000000002
  1
Installed condition
 41
0.85
 72
     1
 11
157.01637348160639
 21
-86.094764855300468
 31
0.0
  0
TEXT
  5
6059
  8
0
 62
     3
 10
188.2937068149397
 20
-86.094764855300468
 30
0.0
 40
3.2000000000000002
  1
Installation hole
 41
0.85
 72
     1
 11
207.01637348160639
 21
-86.094764855300468
 31
0.0
  0
TEXT
  5
605C
  8
0
 62
     3
 10
275.08837348160648
 20
-86.094764855300468
 30
0.0
 40
3.2000000000000002
  1
Installed condition
 41
0.85
 72
     1
 11
296.3043734816066
 21
-86.094764855300468
 31
0.0
  0
TEXT
  5
605D
  8
0
 62
     3
 10
327.58170681493988
 20
-86.094764855300468
 30
0.0
 40
3.2000000000000002
  1
Installation hole
 41
0.85
 72
     1
 11
346.3043734816066
 21
-86.094764855300468
 31
0.0
  0
TEXT
  5
6060
  8
0
 62
     3
 10
118.80437348160631
 20
-27.0
 30
0.0
 40
3.2000000000000002
  1
Installation Instructions for Cam Receptacles
  0
LINE
  5
66FF
  8
0
 10
98.750000027939663
 20
132.90174004199099
 30
0.0
 11
98.750000027939663
 21
127.72717764833941
 31
0.0
  0
LINE
  5
6701
  8
0
 10
98.750000027939663
 20
122.2728217975237
 30
0.0
 11
98.750000027939663
 21
117.09825940387221
 31
0.0
  0
LINE
  5
6703
  8
0
 10
101.24999997206029
 20
127.72717764833941
 30
0.0
 11
101.24999997206029
 21
132.90174004199099
 31
0.0
  0
LINE
  5
6704
  8
0
 10
101.24999997206029
 20
117.09825940387221
 30
0.0
 11
101.24999997206029
 21
122.2728217975237
 31
0.0
  0
LINE
  5
6718
  8
0
 10
91.999999620020375
 20
92.499999720603213
 30
0.0
 11
92.500000167638063
 21
91.999999638646841
 31
0.0
  0
LINE
  5
6719
  8
0
 10
107.49999983236189
 20
91.999999638646841
 30
0.0
 11
108.0000003799796
 21
92.499999720603213
 31
0.0
  0
LINE
  5
671A
  8
0
 10
108.0000003799796
 20
92.499999720603213
 30
0.0
 11
108.0000003799796
 21
94.499999699182794
 31
0.0
  0
LINE
  5
671B
  8
0
 10
91.999999620020375
 20
94.499999699182794
 30
0.0
 11
91.999999620020375
 21
92.499999720603213
 31
0.0
  0
LINE
  5
671C
  8
0
 10
92.500000167638063
 20
94.999999722931534
 30
0.0
 11
91.999999620020375
 21
94.499999699182794
 31
0.0
  0
LINE
  5
671D
  8
0
 10
108.0000003799796
 20
94.499999699182794
 30
0.0
 11
107.49999983236189
 21
94.999999722931534
 31
0.0
  0
LINE
  5
671E
  8
0
 10
93.999999947845936
 20
81.000000163912773
 30
0.0
 11
95.000000111758695
 21
80.0
 31
0.0
  0
LINE
  5
671F
  8
0
 10
104.99999988824131
 20
80.0
 30
0.0
 11
106.00000005215399
 21
81.000000163912773
 31
0.0
  0
LINE
  5
6720
  8
0
 10
106.00000005215399
 20
81.000000163912773
 30
0.0
 11
106.00000005215399
 21
87.508140988647924
 31
0.0
  0
LINE
  5
6721
  8
0
 10
93.999999947845936
 20
87.508140988647924
 30
0.0
 11
93.999999947845936
 21
81.000000163912773
 31
0.0
  0
LINE
  5
6722
  8
0
 10
106.00000005215399
 20
87.508140988647924
 30
0.0
 11
104.95717953890561
 21
89.314359165728092
 31
0.0
  0
LINE
  5
6723
  8
0
 10
95.042820461094365
 20
89.314359165728092
 30
0.0
 11
93.999999947845936
 21
87.508140988647924
 31
0.0
  0
ARC
  5
6724
  8
0
 10
94.349999999999966
 20
91.199999746680234
 30
0.0
 40
0.8000000000000042
 50
0.0
 51
90.0
  0
ARC
  5
6725
  8
0
 10
105.64999999999991
 20
91.199999746680234
 30
0.0
 40
0.8000000000000113
 50
90.0
 51
180.0
  0
ARC
  5
6726
  8
0
 10
105.64999999999991
 20
89.714359100625188
 30
0.0
 40
0.8000000000000119
 50
180.0
 51
210.00000000000051
  0
ARC
  5
6727
  8
0
 10
94.349999999999966
 20
89.714359100625188
 30
0.0
 40
0.8000000000000058
 50
329.99999999999949
 51
0.0
  0
LINE
  5
6728
  8
0
 10
104.8500001430511
 20
89.714358951896415
 30
0.0
 11
104.8500001430511
 21
91.19999960064888
 31
0.0
  0
LINE
  5
6729
  8
0
 10
95.149999856948853
 20
91.19999960064888
 30
0.0
 11
95.149999856948853
 21
89.714358951896415
 31
0.0
  0
LINE
  5
672A
  8
0
 10
107.49999983236199
 20
91.999999638646884
 30
0.0
 11
92.500000167638063
 21
91.999999638646841
 31
0.0
  0
LINE
  5
672E
  8
0
 10
101.24999997206039
 20
94.999999722931648
 30
0.0
 11
101.24999997206029
 21
92.999999802559657
 31
0.0
  0
LINE
  5
6731
  8
0
 10
98.750000027939663
 20
92.999999802559657
 30
0.0
 11
98.750000027939734
 21
94.999999722931577
 31
0.0
  0
LINE
  5
6732
  8
0
 10
101.24999997206029
 20
92.999999802559657
 30
0.0
 11
98.750000027939663
 21
92.999999802559657
 31
0.0
  0
LINE
  5
6733
  8
0
 10
92.500000167638063
 20
94.999999722931534
 30
0.0
 11
98.750000027939663
 21
94.999999722931577
 31
0.0
  0
LINE
  5
6735
  8
0
 10
101.24999997206029
 20
94.999999722931577
 30
0.0
 11
107.49999983236189
 21
94.999999722931534
 31
0.0
  0
LINE
  5
6737
  8
0
 10
106.00000005215399
 20
81.000000163912773
 30
0.0
 11
93.999999947845936
 21
81.000000163912773
 31
0.0
  0
LINE
  5
6738
  8
0
 10
104.99999988824131
 20
80.0
 30
0.0
 11
95.000000111758695
 21
80.0
 31
0.0
  0
LINE
  5
6739
  8
0
 10
106.00000005215399
 20
87.508140988647924
 30
0.0
 11
93.999999947845936
 21
87.508140988647924
 31
0.0
  0
LINE
  5
673A
  8
0
 10
104.95717953890561
 20
89.314359165728092
 30
0.0
 11
95.042820461094365
 21
89.314359165728092
 31
0.0
  0
LINE
  5
6752
  8
3
 10
94.676500000000274
 20
88.679873492442383
 30
0.0
 11
94.676500000000246
 21
80.323499646097162
 31
0.0
  0
LINE
  5
6753
  8
3
 10
105.3234999999998
 20
80.323499646097204
 30
0.0
 11
105.3234999999998
 21
88.679873492442283
 31
0.0
  0
LINE
  5
6757
  8
0
 10
130.00000000000011
 20
92.499999720603284
 30
0.0
 11
130.50000054761779
 21
91.999999638646884
 31
0.0
  0
LINE
  5
6758
  8
0
 10
145.5000002123416
 20
91.999999638646784
 30
0.0
 11
146.00000075995931
 21
92.499999720603171
 31
0.0
  0
LINE
  5
6759
  8
0
 10
146.00000075995931
 20
92.499999720603171
 30
0.0
 11
146.00000075995931
 21
92.999999802559557
 31
0.0
  0
LINE
  5
675A
  8
0
 10
130.00000000000011
 20
92.999999802559657
 30
0.0
 11
130.00000000000011
 21
92.499999720603284
 31
0.0
  0
LINE
  5
675B
  8
0
 10
144.0000004321337
 20
87.508140988647881
 30
0.0
 11
142.95717991888529
 21
89.314359165728035
 31
0.0
  0
LINE
  5
675C
  8
0
 10
133.04282084107399
 20
89.314359165728135
 30
0.0
 11
132.0000003278256
 21
87.508140988647995
 31
0.0
  0
LINE
  5
675D
  8
0
 10
144.0000004321337
 20
81.000000163912716
 30
0.0
 11
144.0000004321337
 21
87.508140988647881
 31
0.0
  0
LINE
  5
675E
  8
0
 10
132.0000003278256
 20
87.508140988647995
 30
0.0
 11
132.00000032782549
 21
81.000000163912816
 31
0.0
  0
LINE
  5
675F
  8
0
 10
132.00000032782549
 20
81.000000163912816
 30
0.0
 11
133.00000049173829
 21
80.000000000000057
 31
0.0
  0
LINE
  5
6760
  8
0
 10
143.0000002682209
 20
79.999999999999943
 30
0.0
 11
144.0000004321337
 21
81.000000163912716
 31
0.0
  0
ARC
  5
6761
  8
0
 10
132.35000037997969
 20
91.199999746680305
 30
0.0
 40
0.8000000000000007
 50
0.0
 51
90.0
  0
ARC
  5
6762
  8
0
 10
143.6500003799797
 20
91.199999746680191
 30
0.0
 40
0.7999999999999972
 50
90.0
 51
180.0
  0
ARC
  5
6763
  8
0
 10
143.6500003799797
 20
89.714359100625131
 30
0.0
 40
0.7999999999999997
 50
180.0
 51
210.00000000000199
  0
ARC
  5
6764
  8
0
 10
132.35000037997969
 20
89.714359100625188
 30
0.0
 40
0.8000000000000067
 50
329.99999999999812
 51
0.0
  0
LINE
  5
6765
  8
0
 10
142.85000052303079
 20
89.714358951896415
 30
0.0
 11
142.85000052303079
 21
91.19999960064888
 31
0.0
  0
LINE
  5
6766
  8
0
 10
133.15000023692861
 20
91.19999960064888
 30
0.0
 11
133.15000023692849
 21
89.714358951896415
 31
0.0
  0
LINE
  5
6767
  8
0
 10
145.5000002123416
 20
91.999999638646784
 30
0.0
 11
130.50000054761779
 21
91.999999638646884
 31
0.0
  0
LINE
  5
6769
  8
0
 10
130.60490053147089
 20
94.999999722931577
 30
0.0
 11
145.3951002284885
 21
94.999999722931477
 31
0.0
  0
LINE
  5
676A
  8
0
 10
145.3951002284885
 20
94.999999722931477
 30
0.0
 11
145.9017406404019
 21
94.499999699182752
 31
0.0
  0
LINE
  5
676C
  8
0
 10
130.09826011955749
 20
94.499999699182865
 30
0.0
 11
130.60490053147089
 21
94.999999722931577
 31
0.0
  0
LINE
  5
676D
  8
0
 10
130.09826011955749
 20
94.499999699182865
 30
0.0
 11
130.09826011955749
 21
92.999999802559657
 31
0.0
  0
LINE
  5
676E
  8
0
 10
145.9017406404019
 20
92.999999802559557
 30
0.0
 11
145.9017406404019
 21
94.499999699182752
 31
0.0
  0
LINE
  5
676F
  8
0
 10
146.00000075995931
 20
92.999999802559557
 30
0.0
 11
145.9017406404019
 21
92.999999802559557
 31
0.0
  0
LINE
  5
6770
  8
0
 10
130.09826011955749
 20
92.999999802559657
 30
0.0
 11
130.00000000000011
 21
92.999999802559657
 31
0.0
  0
LINE
  5
6771
  8
0
 10
144.0000004321337
 20
87.508140988647881
 30
0.0
 11
132.0000003278256
 21
87.508140988647995
 31
0.0
  0
LINE
  5
6772
  8
0
 10
144.0000004321337
 20
81.000000163912716
 30
0.0
 11
132.00000032782549
 21
81.000000163912816
 31
0.0
  0
LINE
  5
6773
  8
0
 10
143.0000002682209
 20
79.999999999999943
 30
0.0
 11
133.00000049173829
 21
80.000000000000057
 31
0.0
  0
LINE
  5
6774
  8
0
 10
142.95717991888529
 20
89.314359165728035
 30
0.0
 11
133.04282084107399
 21
89.314359165728135
 31
0.0
  0
CIRCLE
  5
6807
  8
0
 10
100.0
 20
50.0
 30
0.0
 40
6.0
  0
CIRCLE
  5
6809
  8
0
 10
100.0
 20
50.0
 30
0.0
 40
4.0000000000000284
  0
CIRCLE
  5
680A
  8
0
 10
100.0
 20
49.999999999999893
 30
0.0
 40
3.0
  0
CIRCLE
  5
680C
  8
0
 10
100.0
 20
49.999999999999893
 30
0.0
 40
8.0
  0
CIRCLE
  5
680E
  8
3
 10
100.0
 20
50.0
 30
0.0
 40
5.3234999999997248
  0
CIRCLE
  5
6AA2
  8
0
 10
100.0
 20
124.99999972293161
 30
0.0
 40
8.0
  0
CIRCLE
  5
6AA3
  8
0
 10
100.0
 20
124.99999972293161
 30
0.0
 40
3.0
  0
LINE
  5
6AA4
  8
1
 10
100.0
 20
135.99999972293159
 30
0.0
 11
100.0
 21
113.99999972293161
 31
0.0
  0
LINE
  5
6AA5
  8
1
 10
111.0
 20
124.99999972293161
 30
0.0
 11
89.0
 21
124.99999972293161
 31
0.0
  0
LINE
  5
6AEF
  8
1
 10
100.0
 20
61.0
 30
0.0
 11
100.0
 21
39.0
 31
0.0
  0
LINE
  5
6AF0
  8
1
 10
111.0
 20
50.0
 30
0.0
 11
89.0
 21
50.0
 31
0.0
  0
LINE
  5
6AF1
  8
1
 10
100.0
 20
97.999999722931591
 30
0.0
 11
100.0
 21
77.0
 31
0.0
  0
LINE
  5
6AF4
  8
1
 10
138.00000037997961
 20
97.999999722931591
 30
0.0
 11
138.00000037997961
 21
77.0
 31
0.0
  0
TEXT
  5
6BAE
  8
0
 62
     3
 10
156.68304014827299
 20
-36.168098188633891
 30
0.0
 40
3.2000000000000002
  1
6mm～10mmのベースの場合
 72
     1
 11
182.01637348160639
 21
-36.594764855300561
 31
0.0
 73
     1
  0
TEXT
  5
6BAF
  8
0
 62
     3
 10
119.45637348160641
 20
-43.168098188633891
 30
0.0
 40
3.2000000000000002
  1
For installation on plate of over 6 to 10 mm thickness.
 41
0.85
 72
     1
 11
182.01637348160639
 21
-43.594764855300561
 31
0.0
 73
     1
  0
TEXT
  5
6BB7
  8
0
 62
     3
 10
293.19770681493981
 20
-36.594764855300546
 30
0.0
 40
3.2000000000000002
  1
10mmを超えるベースへの取付け
 72
     1
 11
321.30437348160649
 21
-36.594764855300546
 31
0.0
  0
TEXT
  5
6BB8
  8
0
 62
     3
 10
264.45637348160648
 20
-43.594764855300546
 30
0.0
 40
3.2000000000000002
  1
For installation on plate of over 10 mm thickness.
 41
0.85
 72
     1
 11
321.30437348160649
 21
-43.594764855300546
 31
0.0
  0
LINE
  5
6C17
  8
0
 10
139.51637348160631
 20
-51.594764855300461
 30
0.0
 11
174.51637348160631
 21
-51.594764855300461
 31
0.0
  0
LINE
  5
6C18
  8
0
 10
149.01637348160639
 20
-55.094764855300461
 30
0.0
 11
165.01637348160639
 21
-55.094764855300461
 31
0.0
  0
LINE
  5
6C1A
  8
0
 10
165.01637348160639
 20
-52.094764855300461
 30
0.0
 11
165.01637348160639
 21
-55.094764855300461
 31
0.0
  0
LINE
  5
6C1B
  8
0
 10
149.01637348160639
 20
-52.094764855300461
 30
0.0
 11
149.01637348160639
 21
-55.094764855300461
 31
0.0
  0
LINE
  5
6C1C
  8
0
 10
150.51637348160639
 20
-57.094764855300461
 30
0.0
 11
150.51637348160639
 21
-55.094764855300461
 31
0.0
  0
LINE
  5
6C1D
  8
0
 10
163.51637348160639
 20
-57.09476485530061
 30
0.0
 11
163.51637348160639
 21
-55.094764855300461
 31
0.0
  0
LINE
  5
6C1E
  8
0
 10
139.51637348160631
 20
-57.594764855300461
 30
0.0
 11
174.51637348160631
 21
-57.594764855300461
 31
0.0
  0
LINE
  5
6C1F
  8
0
 10
149.01637348160639
 20
-52.094764855300461
 30
0.0
 11
148.51637348160639
 21
-51.594764855300461
 31
0.0
  0
LINE
  5
6C20
  8
0
 10
165.01637348160639
 20
-52.09476485530066
 30
0.0
 11
165.51637348160631
 21
-51.59476485530066
 31
0.0
  0
LINE
  5
6C21
  8
0
 10
149.01637348160639
 20
-52.094764855300461
 30
0.0
 11
165.01637348160639
 21
-52.094764855300461
 31
0.0
  0
LINE
  5
6C22
  8
0
 10
150.51637348160639
 20
-57.094764855300461
 30
0.0
 11
150.01637348160639
 21
-57.594764855300461
 31
0.0
  0
LINE
  5
6C23
  8
0
 10
163.51637348160631
 20
-57.094764855300461
 30
0.0
 11
164.01637348160639
 21
-57.594764855300461
 31
0.0
  0
LINE
  5
6C24
  8
0
 10
150.51637348160639
 20
-57.09476485530061
 30
0.0
 11
152.1663733385551
 21
-57.094764855300603
 31
0.0
  0
LINE
  5
6C4D
  8
0
 10
288.30437310162682
 20
-54.594764773344252
 30
0.0
 11
288.8043736492445
 21
-55.094764855300639
 31
0.0
  0
LINE
  5
6C4E
  8
0
 10
303.80437331396843
 20
-55.094764855300639
 30
0.0
 11
304.30437386158599
 21
-54.594764773344252
 31
0.0
  0
LINE
  5
6C51
  8
0
 10
288.8043736492445
 20
-52.094764771015953
 30
0.0
 11
288.30437310162682
 21
-52.594764794764671
 31
0.0
  0
LINE
  5
6C52
  8
0
 10
304.30437386158599
 20
-52.594764794764671
 30
0.0
 11
303.80437331396843
 21
-52.094764771015953
 31
0.0
  0
LINE
  5
6C53
  8
0
 10
290.30437342945243
 20
-66.094764330034707
 30
0.0
 11
291.30437359336509
 21
-67.09476449394748
 31
0.0
  0
LINE
  5
6C54
  8
0
 10
301.30437336984772
 20
-67.09476449394748
 30
0.0
 11
302.3043735337605
 21
-66.094764330034707
 31
0.0
  0
LINE
  5
6C55
  8
0
 10
302.3043735337605
 20
-66.094764330034707
 30
0.0
 11
302.3043735337605
 21
-59.586623505299542
 31
0.0
  0
LINE
  5
6C56
  8
0
 10
290.30437342945243
 20
-59.586623505299542
 30
0.0
 11
290.30437342945243
 21
-66.094764330034707
 31
0.0
  0
LINE
  5
6C57
  8
0
 10
302.3043735337605
 20
-59.586623505299542
 30
0.0
 11
301.261553020512
 21
-57.780405328219388
 31
0.0
  0
LINE
  5
6C58
  8
0
 10
291.34719394270081
 20
-57.780405328219388
 30
0.0
 11
290.30437342945243
 21
-59.586623505299542
 31
0.0
  0
ARC
  5
6C59
  8
0
 10
290.6543734816064
 20
-55.894764747267232
 30
0.0
 40
0.8000000000000042
 50
0.0
 51
90.0
  0
ARC
  5
6C5A
  8
0
 10
301.95437348160641
 20
-55.894764747267232
 30
0.0
 40
0.8000000000000113
 50
90.0
 51
180.0
  0
ARC
  5
6C5B
  8
0
 10
301.95437348160641
 20
-57.380405393322292
 30
0.0
 40
0.8000000000000119
 50
180.0
 51
210.0000000000019
  0
ARC
  5
6C5C
  8
0
 10
290.6543734816064
 20
-57.380405393322292
 30
0.0
 40
0.8000000000000058
 50
329.99999999999812
 51
0.0
  0
LINE
  5
6C5D
  8
0
 10
301.15437362465758
 20
-57.380405542051051
 30
0.0
 11
301.15437362465758
 21
-55.8947648932986
 31
0.0
  0
LINE
  5
6C5E
  8
0
 10
291.45437333855529
 20
-55.8947648932986
 30
0.0
 11
291.45437333855529
 21
-57.380405542051051
 31
0.0
  0
LINE
  5
6C60
  8
0
 10
297.5543734536667
 20
-52.094764771015832
 30
0.0
 11
297.5543734536667
 21
-54.094764691387802
 31
0.0
  0
LINE
  5
6C61
  8
0
 10
295.05437350954611
 20
-54.094764691387802
 30
0.0
 11
295.05437350954611
 21
-52.094764771015882
 31
0.0
  0
LINE
  5
6C62
  8
0
 10
297.5543734536667
 20
-54.094764691387802
 30
0.0
 11
295.05437350954611
 21
-54.094764691387802
 31
0.0
  0
LINE
  5
6C65
  8
0
 10
302.3043735337605
 20
-66.094764330034707
 30
0.0
 11
290.30437342945243
 21
-66.094764330034707
 31
0.0
  0
LINE
  5
6C66
  8
0
 10
301.30437336984772
 20
-67.09476449394748
 30
0.0
 11
291.30437359336509
 21
-67.09476449394748
 31
0.0
  0
LINE
  5
6C67
  8
0
 10
302.3043735337605
 20
-59.586623505299542
 30
0.0
 11
290.30437342945243
 21
-59.586623505299542
 31
0.0
  0
LINE
  5
6C68
  8
0
 10
301.261553020512
 20
-57.780405328219388
 30
0.0
 11
291.34719394270081
 21
-57.780405328219388
 31
0.0
  0
LINE
  5
6C69
  8
3
 10
290.98087348160669
 20
-58.41489100150509
 30
0.0
 11
290.98087348160669
 21
-66.771264847850318
 31
0.0
  0
LINE
  5
6C6A
  8
3
 10
301.62787348160617
 20
-66.771264847850318
 30
0.0
 11
301.62787348160617
 21
-58.414891001504969
 31
0.0
  0
LINE
  5
6C6B
  8
1
 10
296.30437348160638
 20
-48.59476485530061
 30
0.0
 11
296.30437348160638
 21
-70.09476449394748
 31
0.0
  0
LINE
  5
6CC6
  8
0
 10
149.0163731016267
 20
-54.59476477334411
 30
0.0
 11
149.51637364924429
 21
-55.094764855300497
 31
0.0
  0
LINE
  5
6CC7
  8
0
 10
164.51637331396819
 20
-55.094764855300497
 30
0.0
 11
165.01637386158589
 21
-54.59476477334411
 31
0.0
  0
LINE
  5
6CCA
  8
0
 10
149.51637364924429
 20
-52.094764771015797
 30
0.0
 11
149.0163731016267
 21
-52.594764794764529
 31
0.0
  0
LINE
  5
6CCB
  8
0
 10
165.01637386158589
 20
-52.594764794764529
 30
0.0
 11
164.51637331396819
 21
-52.094764771015797
 31
0.0
  0
LINE
  5
6CCC
  8
0
 10
151.01637342945219
 20
-66.094764330034565
 30
0.0
 11
152.01637359336499
 21
-67.094764493947338
 31
0.0
  0
LINE
  5
6CCD
  8
0
 10
162.0163733698476
 20
-67.094764493947338
 30
0.0
 11
163.01637353376029
 21
-66.094764330034565
 31
0.0
  0
LINE
  5
6CCE
  8
0
 10
163.01637353376029
 20
-66.094764330034565
 30
0.0
 11
163.01637353376029
 21
-63.594764855300461
 31
0.0
  0
LINE
  5
6CCF
  8
0
 10
151.01637342945219
 20
-63.594764855300461
 30
0.0
 11
151.01637342945219
 21
-66.094764330034565
 31
0.0
  0
ARC
  5
6CD2
  8
0
 10
151.3663734816063
 20
-55.894764747267082
 30
0.0
 40
0.8000000000000042
 50
0.0
 51
90.0
  0
ARC
  5
6CD3
  8
0
 10
162.66637348160631
 20
-55.894764747267082
 30
0.0
 40
0.8000000000000113
 50
90.0
 51
180.0
  0
ARC
  5
6CD4
  8
0
 10
162.66637348160631
 20
-57.38040539332215
 30
0.0
 40
0.8000000000000119
 50
180.0
 51
195.5422762543696
  0
ARC
  5
6CD5
  8
0
 10
151.3663734816063
 20
-57.38040539332215
 30
0.0
 40
0.8000000000000058
 50
344.4577237456304
 51
0.0
  0
LINE
  5
6CD6
  8
0
 10
161.8663736246574
 20
-57.380405542050909
 30
0.0
 11
161.8663736246574
 21
-55.894764893298458
 31
0.0
  0
LINE
  5
6CD7
  8
0
 10
152.1663733385551
 20
-55.894764893298458
 30
0.0
 11
152.1663733385551
 21
-57.380405542050909
 31
0.0
  0
LINE
  5
6CD9
  8
0
 10
158.26637345366669
 20
-52.09476477101569
 30
0.0
 11
158.2663734536666
 21
-54.09476469138766
 31
0.0
  0
LINE
  5
6CDA
  8
0
 10
155.76637350954601
 20
-54.09476469138766
 30
0.0
 11
155.76637350954601
 21
-52.09476477101574
 31
0.0
  0
LINE
  5
6CDB
  8
0
 10
158.2663734536666
 20
-54.09476469138766
 30
0.0
 11
155.76637350954601
 21
-54.09476469138766
 31
0.0
  0
LINE
  5
6CDE
  8
0
 10
163.01637353376029
 20
-66.094764330034565
 30
0.0
 11
151.01637342945219
 21
-66.094764330034565
 31
0.0
  0
LINE
  5
6CDF
  8
0
 10
162.0163733698476
 20
-67.094764493947338
 30
0.0
 11
152.01637359336499
 21
-67.094764493947338
 31
0.0
  0
LINE
  5
6CE2
  8
3
 10
151.69287348160651
 20
-63.594764855300461
 30
0.0
 11
151.6928734816066
 21
-66.771264847850176
 31
0.0
  0
LINE
  5
6CE3
  8
3
 10
162.33987348160611
 20
-66.771264847850119
 30
0.0
 11
162.33987348160611
 21
-63.594764855300461
 31
0.0
  0
LINE
  5
6CE4
  8
1
 10
157.01637348160631
 20
-48.594764855300461
 30
0.0
 11
157.01637348160631
 21
-70.094764493947338
 31
0.0
  0
LINE
  5
6CE5
  8
0
 10
161.86637362465751
 20
-57.094764855300603
 30
0.0
 11
163.51637348160639
 21
-57.09476485530061
 31
0.0
  0
LINE
  5
6CE7
  8
0
 10
166.51637887640419
 20
-57.594764855300461
 30
0.0
 11
167.98603398208019
 21
-58.443270626178439
 31
0.0
  0
ARC
  5
6CE8
  8
0
 10
165.24362020565979
 20
-62.450828094440098
 30
0.0
 40
4.8560632391392371
 50
90.0
 51
124.38424729780419
  0
ARC
  5
6CE9
  8
0
 10
157.01637348160691
 20
-75.746259155501207
 30
0.0
 40
18.151494300200689
 50
72.412046317068231
 51
107.5879536829317
  0
ARC
  5
6CEA
  8
0
 10
148.78913215235059
 20
-62.450828094440098
 30
0.0
 40
4.8560632391392371
 50
55.615752702195763
 51
90.0
  0
LINE
  5
6CEB
  8
0
 10
147.51637348160631
 20
-57.594764855300461
 30
0.0
 11
146.0467183759302
 21
-58.443270626178439
 31
0.0
  0
LINE
  5
6CEC
  8
0
 10
151.53154592877121
 20
-62.746259084422029
 30
0.0
 11
151.53154592877121
 21
-58.443270626178553
 31
0.0
  0
LINE
  5
6CED
  8
0
 10
146.0467183759302
 20
-58.443270626178439
 30
0.0
 11
146.0467183759302
 21
-62.746259084422483
 31
0.0
  0
LINE
  5
6CEE
  8
0
 10
162.5012010344426
 20
-62.746259084421567
 30
0.0
 11
162.5012010344426
 21
-58.443270626178553
 31
0.0
  0
LINE
  5
6CEF
  8
0
 10
167.98602858727671
 20
-58.443270626178553
 30
0.0
 11
167.98602858727671
 21
-62.746262199113737
 31
0.0
  0
LINE
  5
6CF1
  8
0
 10
166.51637348160631
 20
-63.594764855300461
 30
0.0
 11
147.51637348160631
 21
-63.594764855300461
 31
0.0
  0
LINE
  5
6CF2
  8
0
 10
147.51637348160631
 20
-63.594764855300461
 30
0.0
 11
146.0467183759302
 21
-62.746259084422483
 31
0.0
  0
ARC
  5
6CF3
  8
0
 10
148.78913215235059
 20
-58.738701616160817
 30
0.0
 40
4.8560632391392371
 50
270.0
 51
304.38424729780422
  0
ARC
  5
6CF4
  8
0
 10
157.01637348160691
 20
-45.443270555099723
 30
0.0
 40
18.151494300200689
 50
252.4120463170683
 51
287.58795368293181
  0
ARC
  5
6CF5
  8
0
 10
165.24362020565979
 20
-58.738701616160817
 30
0.0
 40
4.8560632391392371
 50
235.61575270219569
 51
270.0
  0
LINE
  5
6CF6
  8
0
 10
166.51637887640419
 20
-63.594764855300461
 30
0.0
 11
167.98603398208019
 21
-62.746259084422483
 31
0.0
  0
LINE
  5
6D8F
  8
3
 10
340.30437348160638
 20
-62.771264855300871
 30
0.0
 11
340.3043734816066
 21
-55.918264855300421
 31
0.0
  0
LINE
  5
6D90
  8
0
 10
340.98087348160669
 20
-62.09476485530061
 30
0.0
 11
340.98087348160681
 21
-56.594764855300703
 31
0.0
  0
LINE
  5
6D91
  8
0
 10
351.62787348160617
 20
-62.09476485530061
 30
0.0
 11
351.62787348160617
 21
-56.594764855300632
 31
0.0
  0
LINE
  5
6D92
  8
3
 10
352.30437348160638
 20
-62.771264855300871
 30
0.0
 11
352.30437348160638
 21
-55.918264855300329
 31
0.0
  0
LINE
  5
6D9A
  8
0
 10
351.62787348160617
 20
-62.09476485530061
 30
0.0
 11
340.98087348160669
 21
-62.09476485530061
 31
0.0
  0
LINE
  5
6D9C
  8
0
 10
351.62787348160617
 20
-62.094764855300582
 30
0.0
 11
353.12787348160617
 21
-63.594764855300582
 31
0.0
  0
LINE
  5
6D9E
  8
0
 10
340.98087348160669
 20
-56.59476485530061
 30
0.0
 11
339.48087348160669
 21
-55.09476485530061
 31
0.0
  0
LINE
  5
6D9F
  8
0
 10
351.62787348160617
 20
-56.594764855300582
 30
0.0
 11
340.98087348160669
 21
-56.594764855300582
 31
0.0
  0
LINE
  5
6DA0
  8
0
 10
351.62787348160617
 20
-56.59476485530061
 30
0.0
 11
353.12787348160617
 21
-55.09476485530061
 31
0.0
  0
LINE
  5
6DA1
  8
0
 10
278.80437348160638
 20
-51.59476485530061
 30
0.0
 11
313.80437348160649
 21
-51.59476485530061
 31
0.0
  0
LINE
  5
6DA2
  8
0
 10
288.30437348160638
 20
-55.09476485530061
 30
0.0
 11
304.30437348160638
 21
-55.09476485530061
 31
0.0
  0
LINE
  5
6DA4
  8
0
 10
304.30437348160638
 20
-52.09476485530061
 30
0.0
 11
304.30437348160638
 21
-55.09476485530061
 31
0.0
  0
LINE
  5
6DA5
  8
0
 10
288.30437348160638
 20
-52.09476485530061
 30
0.0
 11
288.30437348160638
 21
-55.09476485530061
 31
0.0
  0
LINE
  5
6DA6
  8
0
 10
278.80437348160638
 20
-63.594764855300582
 30
0.0
 11
290.30437342945243
 21
-63.594764855300582
 31
0.0
  0
LINE
  5
6DA7
  8
0
 10
288.30437348160638
 20
-52.09476485530061
 30
0.0
 11
287.80437348160638
 21
-51.59476485530061
 31
0.0
  0
LINE
  5
6DA8
  8
0
 10
288.30437348160638
 20
-52.09476485530061
 30
0.0
 11
304.30437348160638
 21
-52.09476485530061
 31
0.0
  0
LINE
  5
6DA9
  8
0
 10
304.30437348160638
 20
-52.094764855300689
 30
0.0
 11
304.80437348160638
 21
-51.594764855300703
 31
0.0
  0
LINE
  5
6DAA
  8
0
 10
290.30437342945243
 20
-62.771264907454857
 30
0.0
 11
289.48087348160669
 21
-63.594764855300582
 31
0.0
  0
LINE
  5
6DAB
  8
3
 10
290.3043734816066
 20
-59.586623505299549
 30
0.0
 11
290.3043734816066
 21
-55.918264855300421
 31
0.0
  0
LINE
  5
6DAC
  8
0
 10
290.98087348160669
 20
-58.414891001505119
 30
0.0
 11
290.98087348160681
 21
-56.594764855300703
 31
0.0
  0
LINE
  5
6DAD
  8
0
 10
301.62787348160617
 20
-58.414891001504969
 30
0.0
 11
301.62787348160617
 21
-56.594764855300632
 31
0.0
  0
LINE
  5
6DAE
  8
3
 10
302.30437348160638
 20
-59.586623505299549
 30
0.0
 11
302.30437348160638
 21
-55.918264855300329
 31
0.0
  0
LINE
  5
6DB0
  8
0
 10
302.3043735337605
 20
-62.771264907454857
 30
0.0
 11
303.12787348160617
 21
-63.594764855300582
 31
0.0
  0
LINE
  5
6DB1
  8
0
 10
290.98087348160669
 20
-56.59476485530061
 30
0.0
 11
289.48087348160669
 21
-55.09476485530061
 31
0.0
  0
LINE
  5
6DB2
  8
0
 10
301.62787348160617
 20
-56.594764855300582
 30
0.0
 11
301.15437362465758
 21
-56.594764855300582
 31
0.0
  0
LINE
  5
6DB3
  8
0
 10
301.62787348160617
 20
-56.59476485530061
 30
0.0
 11
303.12787348160617
 21
-55.09476485530061
 31
0.0
  0
LINE
  5
6DB8
  8
0
 10
302.3043735337605
 20
-63.594764855300582
 30
0.0
 11
313.80437348160649
 21
-63.594764855300582
 31
0.0
  0
LINE
  5
6DB9
  8
0
 10
291.45437333855529
 20
-56.594764855300582
 30
0.0
 11
290.98087348160669
 21
-56.594764855300582
 31
0.0
  0
LINE
  5
6DC2
  8
3
 10
132.67650037997981
 20
88.679873492442383
 30
0.0
 11
132.67650037997981
 21
80.323499646097162
 31
0.0
  0
LINE
  5
6DC3
  8
3
 10
143.32350037997941
 20
80.323499646097204
 30
0.0
 11
143.32350037997941
 21
88.679873492442283
 31
0.0
  0
LINE
  5
6ED9
  8
0
 10
153.01637348160651
 20
-128.23728595226811
 30
0.0
 11
161.01637348160639
 21
-128.23728595226811
 31
0.0
  0
LINE
  5
6EDA
  8
0
 10
161.01637348160651
 20
-128.23728595226811
 30
0.0
 11
161.01637348160651
 21
-129.60523514469941
 31
0.0
  0
LINE
  5
6EDB
  8
0
 10
153.01637348160639
 20
-128.23728595226811
 30
0.0
 11
153.01637348160651
 21
-129.60523514469941
 31
0.0
  0
ENDSEC
  0
EOF
