  0
SECTION
  2
HEADER
  9
$ACADVER
  1
AC1009
  9
$INSBASE
 10
0.0
 20
0.0
 30
0.0
  9
$EXTMIN
 10
0.0
 20
-257.5
 30
0.0
  9
$EXTMAX
 10
357.0
 20
206.6999998241663
 30
0.0
  9
$LIMMIN
 10
0.0
 20
0.0
  9
$LIMMAX
 10
187.5
 20
135.0
  9
$ORTHOMODE
 70
     0
  9
$REGENMODE
 70
     1
  9
$FILLMODE
 70
     1
  9
$QTEXTMODE
 70
     0
  9
$MIRRTEXT
 70
     0
  9
$DRAGMODE
 70
     2
  9
$LTSCALE
 40
5.0
  9
$OSMODE
 70
    37
  9
$ATTMODE
 70
     1
  9
$TEXTSIZE
 40
0.2
  9
$TRACEWID
 40
0.05
  9
$TEXTSTYLE
  7
STANDARD
  9
$CLAYER
  8
0
  9
$CELTYPE
  6
BYLAYER
  9
$CECOLOR
 62
   256
  9
$DIMSCALE
 40
0.5
  9
$DIMASZ
 40
3.0
  9
$DIMEXO
 40
2.0
  9
$DIMDLI
 40
0.3799999999999999
  9
$DIMRND
 40
0.0
  9
$DIMDLE
 40
0.0
  9
$DIMEXE
 40
2.0
  9
$DIMTP
 40
0.0
  9
$DIMTM
 40
0.0
  9
$DIMTXT
 40
3.2000000000000002
  9
$DIMCEN
 40
0.09
  9
$DIMTSZ
 40
0.0
  9
$DIMTOL
 70
     0
  9
$DIMLIM
 70
     0
  9
$DIMTIH
 70
     0
  9
$DIMTOH
 70
     0
  9
$DIMSE1
 70
     0
  9
$DIMSE2
 70
     0
  9
$DIMTAD
 70
     1
  9
$DIMZIN
 70
     8
  9
$DIMBLK
  1

  9
$DIMASO
 70
     0
  9
$DIMSHO
 70
     0
  9
$DIMPOST
  1

  9
$DIMAPOST
  1

  9
$DIMALT
 70
     0
  9
$DIMALTD
 70
     2
  9
$DIMALTF
 40
25.399999999999999
  9
$DIMLFAC
 40
1.0
  9
$DIMTOFL
 70
     0
  9
$DIMTVP
 40
1.6000000000000001
  9
$DIMTIX
 70
     1
  9
$DIMSOXD
 70
     0
  9
$DIMSAH
 70
     0
  9
$DIMBLK1
  1

  9
$DIMBLK2
  1

  9
$DIMSTYLE
  2
STANDARD
  9
$DIMCLRD
 70
     0
  9
$DIMCLRE
 70
     0
  9
$DIMCLRT
 70
     0
  9
$DIMTFAC
 40
1.0
  9
$DIMGAP
 40
1.0
  9
$LUNITS
 70
     2
  9
$LUPREC
 70
     4
  9
$SKETCHINC
 40
0.1
  9
$FILLETRAD
 40
0.4
  9
$AUNITS
 70
     0
  9
$AUPREC
 70
     0
  9
$MENU
  1
E:\r13\win\SUPPORT\ACAD
  9
$ELEVATION
 40
0.0
  9
$PELEVATION
 40
0.0
  9
$THICKNESS
 40
0.0
  9
$LIMCHECK
 70
     0
  9
$BLIPMODE
 70
     0
  9
$CHAMFERA
 40
0.0
  9
$CHAMFERB
 40
0.0
  9
$SKPOLY
 70
     0
  9
$TDCREATE
 40
2451824.6906229062
  9
$TDUPDATE
 40
2456804.703428762
  9
$TDINDWG
 40
0.4023530093
  9
$TDUSRTIMER
 40
0.4023530093
  9
$USRTIMER
 70
     1
  9
$ANGBASE
 50
0.0
  9
$ANGDIR
 70
     0
  9
$PDMODE
 70
     0
  9
$PDSIZE
 40
0.0
  9
$PLINEWID
 40
0.0
  9
$COORDS
 70
     1
  9
$SPLFRAME
 70
     0
  9
$SPLINETYPE
 70
     6
  9
$SPLINESEGS
 70
     8
  9
$ATTDIA
 70
     0
  9
$ATTREQ
 70
     1
  9
$HANDLING
 70
     1
  9
$HANDSEED
  5
89A8
  9
$SURFTAB1
 70
     6
  9
$SURFTAB2
 70
     6
  9
$SURFTYPE
 70
     6
  9
$SURFU
 70
     6
  9
$SURFV
 70
     6
  9
$UCSNAME
  2

  9
$UCSORG
 10
0.0
 20
0.0
 30
0.0
  9
$UCSXDIR
 10
1.0
 20
0.0
 30
0.0
  9
$UCSYDIR
 10
0.0
 20
1.0
 30
0.0
  9
$PUCSNAME
  2

  9
$PUCSORG
 10
0.0
 20
0.0
 30
0.0
  9
$PUCSXDIR
 10
1.0
 20
0.0
 30
0.0
  9
$PUCSYDIR
 10
0.0
 20
1.0
 30
0.0
  9
$USERI1
 70
     0
  9
$USERI2
 70
     1
  9
$USERI3
 70
     0
  9
$USERI4
 70
     0
  9
$USERI5
 70
     0
  9
$USERR1
 40
0.0
  9
$USERR2
 40
0.0
  9
$USERR3
 40
0.0
  9
$USERR4
 40
0.0
  9
$USERR5
 40
0.0
  9
$WORLDVIEW
 70
     1
  9
$SHADEDGE
 70
     3
  9
$SHADEDIF
 70
    70
  9
$TILEMODE
 70
     1
  9
$MAXACTVP
 70
    16
  9
$PLIMCHECK
 70
     0
  9
$PEXTMIN
 10
1.0000000000000000E+020
 20
1.0000000000000000E+020
 30
1.0000000000000000E+020
  9
$PEXTMAX
 10
-1.0000000000000000E+020
 20
-1.0000000000000000E+020
 30
-1.0000000000000000E+020
  9
$PLIMMIN
 10
0.0
 20
0.0
  9
$PLIMMAX
 10
12.0
 20
9.0
  9
$UNITMODE
 70
     0
  9
$VISRETAIN
 70
     0
  9
$PLINEGEN
 70
     0
  9
$PSLTSCALE
 70
     0
  0
ENDSEC
  0
SECTION
  2
TABLES
  0
TABLE
  2
VPORT
 70
     1
  0
VPORT
  2
*ACTIVE
 70
     0
 10
0.0
 20
0.0
 11
1.0
 21
1.0
 12
314.18636995827541
 22
180.0
 13
0.0
 23
0.0
 14
5.0
 24
5.0
 15
5.0
 25
5.0
 16
0.0
 26
0.0
 36
1.0
 17
0.0
 27
0.0
 37
0.0
 40
360.0
 41
1.7454798331015291
 42
50.0
 43
0.0
 44
0.0
 50
0.0
 51
0.0
 71
     0
 72
   500
 73
     1
 74
     0
 75
     0
 76
     0
 77
     0
 78
     2
  0
ENDTAB
  0
TABLE
  2
LTYPE
 70
     4
  0
LTYPE
  2
CONTINUOUS
 70
     0
  3
Solid Line
 72
    65
 73
     0
 40
0.0
  0
LTYPE
  2
CENTER
 70
     0
  3
____ _ ____ _ ____ _ ____ _ ____ _ ____ _ ____
 72
    65
 73
     4
 40
2.0
 49
1.25
 49
-0.25
 49
0.25
 49
-0.25
  0
LTYPE
  2
PHANTOM2
 70
     0
  3
___ _ _ ___ _ _ ___ _ _ ___ _ _
 72
    65
 73
     6
 40
1.25
 49
0.625
 49
-0.125
 49
0.125
 49
-0.125
 49
0.125
 49
-0.125
  0
LTYPE
  2
PHANTOM
 70
     0
  3
_____ _ _ _____ _ _ _____ _ _ _____ _ _ ____
 72
    65
 73
     6
 40
2.5
 49
1.25
 49
-0.25
 49
0.25
 49
-0.25
 49
0.25
 49
-0.25
  0
ENDTAB
  0
TABLE
  2
LAYER
 70
     5
  0
LAYER
  2
0
 70
     0
 62
     7
  6
CONTINUOUS
  0
LAYER
  2
1
 70
     0
 62
     1
  6
CENTER
  0
LAYER
  2
3
 70
     0
 62
     3
  6
CONTINUOUS
  0
LAYER
  2
DEFPOINTS
 70
     0
 62
     7
  6
CONTINUOUS
  0
LAYER
  2
5
 70
     0
 62
     3
  6
PHANTOM
  0
ENDTAB
  0
TABLE
  2
STYLE
 70
     2
  0
STYLE
  2
STANDARD
 70
     0
 40
0.0
 41
1.0
 50
0.0
 71
     0
 42
0.2
  3
TXT
  4
BIGFONT
  0
STYLE
  2
STANDARD1
 70
     0
 40
0.0
 41
1.0
 50
0.0
 71
     0
 42
3.0
  3
txt
  4

  0
ENDTAB
  0
TABLE
  2
VIEW
 70
     0
  0
ENDTAB
  0
TABLE
  2
UCS
 70
     0
  0
ENDTAB
  0
TABLE
  2
APPID
 70
     8
  0
APPID
  2
ACAD
 70
     0
  0
APPID
  2
ACAD_MLEADERVER
 70
     0
  0
APPID
  2
ACAD_EXEMPT_FROM_CAD_STANDARDS
 70
     0
  0
APPID
  2
ACAD_DSTYLE_DIMJAG
 70
     0
  0
APPID
  2
ACAD_DSTYLE_DIMTALN
 70
     0
  0
APPID
  2
ACAD_NAV_VCDISPLAY
 70
     0
  0
APPID
  2
ACADANNOTATIVE
 70
     0
  0
APPID
  2
ACAD_PSEXT
 70
     0
  0
ENDTAB
  0
TABLE
  2
DIMSTYLE
 70
     1
  0
DIMSTYLE
  2
STANDARD
 70
     0
  3

  4

  5

  6

  7

 40
1.0
 41
0.18
 42
0.0625
 43
0.38
 44
0.18
 45
0.0
 46
0.0
 47
0.0
 48
0.0
140
0.18
141
0.09
142
0.0
143
25.399999999999999
144
1.0
145
0.0
146
1.0
147
0.09
 71
     0
 72
     0
 73
     1
 74
     1
 75
     0
 76
     0
 77
     0
 78
     0
170
     0
171
     2
172
     0
173
     0
174
     0
175
     0
176
     0
177
     0
178
     0
  0
ENDTAB
  0
ENDSEC
  0
SECTION
  2
BLOCKS
  0
BLOCK
  8
0
  2
$MODEL_SPACE
 70
     0
 10
0.0
 20
0.0
 30
0.0
  3
$MODEL_SPACE
  1

  0
ENDBLK
  5
9
  8
0
  0
BLOCK
 67
     1
  8
0
  2
$PAPER_SPACE
 70
     0
 10
0.0
 20
0.0
 30
0.0
  3
$PAPER_SPACE
  1

  0
ENDBLK
  5
E
 67
     1
  8
0
  0
ENDSEC
  0
SECTION
  2
ENTITIES
  0
TEXT
  5
56B3
  8
0
 62
     3
 10
133.43333333333331
 20
-117.4947648553005
 30
0.0
 40
3.2000000000000002
  1
組付け状態
 72
     1
 11
142.5
 21
-117.4947648553005
 31
0.0
  0
POLYLINE
  5
56C6
  8
5
 66
     1
 10
0.0
 20
0.0
 30
0.0
 70
     1
  0
VERTEX
  5
8896
  8
5
 10
105.0
 20
-10.0
 30
0.0
  0
VERTEX
  5
8897
  8
5
 10
357.0
 20
-10.0
 30
0.0
  0
VERTEX
  5
8898
  8
5
 10
357.0
 20
-257.5
 30
0.0
  0
VERTEX
  5
8899
  8
5
 10
105.0
 20
-257.5
 30
0.0
  0
SEQEND
  5
889A
  8
5
  0
TEXT
  5
56C8
  8
0
 62
     3
 10
185.24666666666661
 20
-117.4947648553005
 30
0.0
 40
3.2000000000000002
  1
取付け穴
 72
     1
 11
192.5
 21
-117.4947648553005
 31
0.0
  0
TEXT
  5
56C9
  8
0
 62
     3
 10
258.43333333333328
 20
-117.4947648553005
 30
0.0
 40
3.2000000000000002
  1
組付け状態
 72
     1
 11
267.5
 21
-117.4947648553005
 31
0.0
  0
TEXT
  5
56CA
  8
0
 62
     3
 10
310.24666666666673
 20
-117.4947648553005
 30
0.0
 40
3.2000000000000002
  1
取付け穴
 72
     1
 11
317.5
 21
-117.4947648553005
 31
0.0
  0
TEXT
  5
56D2
  8
0
 62
     3
 10
105.0
 20
0.0
 30
0.0
 40
3.2000000000000002
  1
■ボタンロッククランパーの取付け方法 (下図)
  0
TEXT
  5
56D3
  8
0
 62
     3
 10
147.76666666666659
 20
-36.594764855300561
 30
0.0
 40
3.2000000000000002
  1
6mmのプレートの場合
 72
     1
 11
167.5
 21
-36.594764855300561
 31
0.0
  0
TEXT
  5
56D4
  8
0
 62
     3
 10
257.56666666666672
 20
-36.594764855300561
 30
0.0
 40
3.2000000000000002
  1
6mmを超え10mm以下のプレートの場合
 72
     1
 11
292.50000000000011
 21
-36.594764855300561
 31
0.0
  0
LINE
  5
56D5
  8
0
 10
175.0
 20
-85.994764855300588
 30
0.0
 11
210.0
 21
-85.994764855300588
 31
0.0
  0
LINE
  5
56D7
  8
1
 10
192.5
 20
-82.994764855300588
 30
0.0
 11
192.5
 21
-94.994764855300573
 31
0.0
  0
LINE
  5
56D8
  8
0
 10
175.0
 20
-91.994764855300588
 30
0.0
 11
210.0
 21
-91.994764855300588
 31
0.0
  0
LINE
  5
56D9
  8
0
 10
175.0
 20
-211.0
 30
0.0
 11
210.0
 21
-211.0
 31
0.0
  0
LINE
  5
56DA
  8
0
 10
175.0
 20
-217.0
 30
0.0
 11
210.0
 21
-217.0
 31
0.0
  0
LINE
  5
56DB
  8
1
 10
192.5
 20
-208.0
 30
0.0
 11
192.5
 21
-220.0
 31
0.0
  0
LINE
  5
56DC
  8
0
 10
196.5
 20
-211.5
 30
0.0
 11
196.5
 21
-216.5
 31
0.0
  0
LINE
  5
56DD
  8
0
 10
188.5
 20
-211.5
 30
0.0
 11
188.5
 21
-216.5
 31
0.0
  0
LINE
  5
56DE
  8
0
 10
188.5
 20
-211.5
 30
0.0
 11
188.0
 21
-211.0
 31
0.0
  0
LINE
  5
56DF
  8
0
 10
188.5
 20
-211.5
 30
0.0
 11
196.5
 21
-211.5
 31
0.0
  0
LINE
  5
56E0
  8
0
 10
196.5
 20
-211.50000000000011
 30
0.0
 11
196.99999999999989
 21
-211.00000000000011
 31
0.0
  0
LINE
  5
56E6
  8
0
 10
188.5
 20
-216.5
 30
0.0
 11
188.0
 21
-217.0
 31
0.0
  0
LINE
  5
56E7
  8
0
 10
188.5
 20
-216.5
 30
0.0
 11
196.5
 21
-216.5
 31
0.0
  0
LINE
  5
56E8
  8
0
 10
196.5
 20
-216.5
 30
0.0
 11
196.99999999999989
 21
-216.99999999999989
 31
0.0
  0
LINE
  5
56E9
  8
0
 10
311.0
 20
-85.994764855300517
 30
0.0
 11
324.0
 21
-85.994764855300517
 31
0.0
  0
LINE
  5
56EA
  8
1
 10
317.5
 20
-78.994764855300531
 30
0.0
 11
317.5
 21
-94.994764855300531
 31
0.0
  0
LINE
  5
56EB
  8
0
 10
300.0
 20
-91.994764855300545
 30
0.0
 11
335.0
 21
-91.994764855300545
 31
0.0
  0
LINE
  5
56EC
  8
0
 10
311.0
 20
-82.494764855300531
 30
0.0
 11
311.0
 21
-85.994764855300517
 31
0.0
  0
LINE
  5
56ED
  8
0
 10
310.5
 20
-81.994764855300545
 30
0.0
 11
311.0
 21
-82.494764855300531
 31
0.0
  0
LINE
  5
56EE
  8
0
 10
324.0
 20
-82.494764855301156
 30
0.0
 11
324.0
 21
-85.994764855300517
 31
0.0
  0
LINE
  5
56EF
  8
0
 10
300.0
 20
-81.994764855300545
 30
0.0
 11
335.0
 21
-81.994764855300545
 31
0.0
  0
LINE
  5
56F0
  8
0
 10
324.50000000000023
 20
-81.994764855300872
 30
0.0
 11
324.00000000000023
 21
-82.494764855300843
 31
0.0
  0
LINE
  5
56F1
  8
0
 10
324.0
 20
-82.494764855301156
 30
0.0
 11
311.0
 21
-82.494764855300531
 31
0.0
  0
LINE
  5
5770
  8
0
 10
311.00000000000023
 20
-211.0
 30
0.0
 11
324.00000000000023
 21
-211.0
 31
0.0
  0
LINE
  5
5771
  8
0
 10
300.00000000000023
 20
-207.0
 30
0.0
 11
335.00000000000023
 21
-207.0
 31
0.0
  0
LINE
  5
5772
  8
0
 10
311.00000000000023
 20
-207.5
 30
0.0
 11
310.50000000000023
 21
-207.0
 31
0.0
  0
LINE
  5
5773
  8
0
 10
300.00000000000023
 20
-217.0
 30
0.0
 11
335.00000000000023
 21
-217.0
 31
0.0
  0
LINE
  5
5774
  8
1
 10
317.50000000000023
 20
-204.0
 30
0.0
 11
317.50000000000023
 21
-220.0
 31
0.0
  0
LINE
  5
577A
  8
0
 10
311.00000000000023
 20
-211.0
 30
0.0
 11
311.00000000000023
 21
-207.5
 31
0.0
  0
LINE
  5
577B
  8
0
 10
324.0
 20
-207.4999999999998
 30
0.0
 11
324.5
 21
-206.9999999999998
 31
0.0
  0
LINE
  5
577C
  8
0
 10
324.00000000000028
 20
-210.9999999999998
 30
0.0
 11
324.0
 21
-207.4999999999998
 31
0.0
  0
LINE
  5
577D
  8
0
 10
323.99999999999977
 20
-207.5
 30
0.0
 11
311.00000000000023
 21
-207.5
 31
0.0
  0
TEXT
  5
5796
  8
0
 62
     3
 10
110.0
 20
-20.0
 30
0.0
 40
3.2000000000000002
  1
本体をプレートに固定する場合
  0
TEXT
  5
57FF
  8
0
 62
     3
 10
147.76666666666659
 20
-161.59999999999999
 30
0.0
 40
3.2000000000000002
  1
6mmのプレートの場合
 72
     1
 11
167.5
 21
-161.59999999999999
 31
0.0
  0
TEXT
  5
5800
  8
0
 62
     3
 10
257.56666666666672
 20
-161.59999999999999
 30
0.0
 40
3.2000000000000002
  1
6mmを超え10mm以下のプレートの場合
 72
     1
 11
292.50000000000011
 21
-161.59999999999999
 31
0.0
  0
TEXT
  5
5801
  8
0
 62
     3
 10
110.0
 20
-145.00523514469941
 30
0.0
 40
3.2000000000000002
  1
本体をプレートに固定しない場合
  0
TEXT
  5
587E
  8
0
 62
     3
 10
133.43333333333331
 20
-242.5
 30
0.0
 40
3.2000000000000002
  1
組付け状態
 72
     1
 11
142.5
 21
-242.5
 31
0.0
  0
TEXT
  5
587F
  8
0
 62
     3
 10
185.24666666666661
 20
-242.5
 30
0.0
 40
3.2000000000000002
  1
取付け穴
 72
     1
 11
192.5
 21
-242.5
 31
0.0
  0
TEXT
  5
5880
  8
0
 62
     3
 10
258.43333333333328
 20
-242.5
 30
0.0
 40
3.2000000000000002
  1
組付け状態
 72
     1
 11
267.5
 21
-242.5
 31
0.0
  0
TEXT
  5
5881
  8
0
 62
     3
 10
310.24666666666673
 20
-242.5
 30
0.0
 40
3.2000000000000002
  1
取付け穴
 72
     1
 11
317.5
 21
-242.5
 31
0.0
  0
TEXT
  5
5A7C
  8
0
 62
     3
 10
0.0
 20
0.0
 30
0.0
 40
10.0
  1
QCBU0608-10
  7
STANDARD1
  0
TEXT
  5
5B0E
  8
0
 62
     3
 10
105.0
 20
-7.0
 30
0.0
 40
3.2000000000000002
  1
■Installation Instructions for Quarter-Turn Clamps (see diagram below)
  0
TEXT
  5
5B0F
  8
0
 62
     3
 10
117.58799999999999
 20
-43.594764855300561
 30
0.0
 40
3.2000000000000002
  1
For installation on plate of 6 mm thickness.
 41
0.85
 72
     1
 11
167.5
 21
-43.594764855300561
 31
0.0
  0
TEXT
  5
5B10
  8
0
 62
     3
 10
229.94000000000011
 20
-43.594764855300561
 30
0.0
 40
3.2000000000000002
  1
For installation on plate of over 6 to 10 mm thickness.
 41
0.85
 72
     1
 11
292.50000000000011
 21
-43.594764855300561
 31
0.0
  0
TEXT
  5
5B11
  8
0
 62
     3
 10
110.0
 20
-27.0
 30
0.0
 40
3.2000000000000002
  1
Fixed Installation
  0
TEXT
  5
5B12
  8
0
 62
     3
 10
117.58799999999999
 20
-168.59999999999999
 30
0.0
 40
3.2000000000000002
  1
For installation on plate of 6 mm thickness.
 41
0.85
 72
     1
 11
167.5
 21
-168.59999999999999
 31
0.0
  0
TEXT
  5
5B13
  8
0
 62
     3
 10
229.94000000000011
 20
-168.59999999999999
 30
0.0
 40
3.2000000000000002
  1
For installation on plate of over 6 to 10 mm thickness.
 41
0.85
 72
     1
 11
292.50000000000011
 21
-168.59999999999999
 31
0.0
  0
TEXT
  5
5B14
  8
0
 62
     3
 10
110.0
 20
-152.00523514469941
 30
0.0
 40
3.2000000000000002
  1
Unfixed installation
  0
TEXT
  5
5B15
  8
0
 62
     3
 10
121.28400000000001
 20
-124.4947648553005
 30
0.0
 40
3.2000000000000002
  1
Installed condition
 41
0.85
 72
     1
 11
142.5
 21
-124.4947648553005
 31
0.0
  0
TEXT
  5
5B16
  8
0
 62
     3
 10
173.7773333333333
 20
-124.4947648553005
 30
0.0
 40
3.2000000000000002
  1
Installation hole
 41
0.85
 72
     1
 11
192.5
 21
-124.4947648553005
 31
0.0
  0
TEXT
  5
5B17
  8
0
 62
     3
 10
246.28399999999999
 20
-124.4947648553005
 30
0.0
 40
3.2000000000000002
  1
Installed condition
 41
0.85
 72
     1
 11
267.5
 21
-124.4947648553005
 31
0.0
  0
TEXT
  5
5B18
  8
0
 62
     3
 10
298.77733333333327
 20
-124.4947648553005
 30
0.0
 40
3.2000000000000002
  1
Installation hole
 41
0.85
 72
     1
 11
317.5
 21
-124.4947648553005
 31
0.0
  0
TEXT
  5
5B19
  8
0
 62
     3
 10
121.28400000000001
 20
-249.5
 30
0.0
 40
3.2000000000000002
  1
Installed condition
 41
0.85
 72
     1
 11
142.5
 21
-249.5
 31
0.0
  0
TEXT
  5
5B1A
  8
0
 62
     3
 10
173.7773333333333
 20
-249.5
 30
0.0
 40
3.2000000000000002
  1
Installation hole
 41
0.85
 72
     1
 11
192.5
 21
-249.5
 31
0.0
  0
TEXT
  5
5B1B
  8
0
 62
     3
 10
246.28399999999999
 20
-249.5
 30
0.0
 40
3.2000000000000002
  1
Installed condition
 41
0.85
 72
     1
 11
267.5
 21
-249.5
 31
0.0
  0
TEXT
  5
5B1C
  8
0
 62
     3
 10
298.77733333333327
 20
-249.5
 30
0.0
 40
3.2000000000000002
  1
Installation hole
 41
0.85
 72
     1
 11
317.5
 21
-249.5
 31
0.0
  0
LINE
  5
6AEA
  8
1
 10
178.17499999827891
 20
107.2
 30
0.0
 11
188.14999999827879
 21
107.2
 31
0.0
  0
LINE
  5
6AF5
  8
0
 10
176.49999999828009
 20
119.2
 30
0.0
 11
176.69999999827999
 21
119.0
 31
0.0
  0
LINE
  5
6AF6
  8
0
 10
188.2999999982801
 20
119.0
 30
0.0
 11
188.49999999828009
 21
119.2
 31
0.0
  0
LINE
  5
6AF7
  8
0
 10
188.49999999828009
 20
119.2
 30
0.0
 11
188.49999999828009
 21
124.8
 31
0.0
  0
LINE
  5
6AF8
  8
0
 10
176.49999999828009
 20
124.8
 30
0.0
 11
176.49999999828009
 21
119.2
 31
0.0
  0
LINE
  5
6AF9
  8
0
 10
188.49999999828009
 20
124.8
 30
0.0
 11
188.2999999982801
 21
125.0
 31
0.0
  0
LINE
  5
6AFA
  8
0
 10
176.69999999827999
 20
125.0
 30
0.0
 11
176.49999999828009
 21
124.8
 31
0.0
  0
ARC
  5
6AFB
  8
0
 10
170.49999999828009
 20
139.5
 30
0.0
 40
0.5
 50
90.0
 51
180.0
  0
ARC
  5
6AFC
  8
0
 10
194.49999999828009
 20
139.5
 30
0.0
 40
0.5
 50
0.0
 51
90.0
  0
ARC
  5
6AFD
  8
0
 10
194.49999999828009
 20
137.5
 30
0.0
 40
0.5
 50
270.0
 51
0.0
  0
ARC
  5
6AFE
  8
0
 10
170.49999999828009
 20
137.5
 30
0.0
 40
0.5
 50
180.0
 51
270.0
  0
LINE
  5
6AFF
  8
0
 10
194.99999999828009
 20
137.5
 30
0.0
 11
194.99999999828009
 21
139.5
 31
0.0
  0
LINE
  5
6B00
  8
0
 10
169.99999999828009
 20
139.5
 30
0.0
 11
169.99999999828009
 21
137.5
 31
0.0
  0
ARC
  5
6B01
  8
0
 10
192.49999999828009
 20
133.0
 30
0.0
 40
4.0000000000000142
 50
90.0
 51
180.0
  0
ARC
  5
6B02
  8
0
 10
172.49999999828009
 20
133.0
 30
0.0
 40
4.0000000000000142
 50
0.0
 51
90.0
  0
LINE
  5
6B03
  8
0
 10
188.49999999828009
 20
131.5
 30
0.0
 11
188.49999999828009
 21
133.0
 31
0.0
  0
LINE
  5
6B04
  8
0
 10
176.49999999828009
 20
133.0
 30
0.0
 11
176.49999999828009
 21
131.5
 31
0.0
  0
LINE
  5
6B05
  8
0
 10
178.49999999828009
 20
119.0
 30
0.0
 11
178.49999999828009
 21
114.5
 31
0.0
  0
LINE
  5
6B06
  8
0
 10
186.49999999828009
 20
114.5
 30
0.0
 11
186.49999999828009
 21
119.0
 31
0.0
  0
LINE
  5
6B07
  8
0
 10
178.49999999828009
 20
114.5
 30
0.0
 11
179.49999999828009
 21
113.5
 31
0.0
  0
LINE
  5
6B08
  8
0
 10
185.49999999828009
 20
113.5
 30
0.0
 11
186.49999999828009
 21
114.5
 31
0.0
  0
LINE
  5
6B09
  8
0
 10
179.49999999828009
 20
113.5
 30
0.0
 11
179.49999999828009
 21
101.5
 31
0.0
  0
LINE
  5
6B0A
  8
0
 10
185.49999999828009
 20
108.1890196374022
 30
0.0
 11
185.49999999828009
 21
113.5
 31
0.0
  0
LINE
  5
6B0B
  8
0
 10
185.49999999828009
 20
101.5
 30
0.0
 11
185.49999999828009
 21
106.20942838184
 31
0.0
  0
LINE
  5
6B0C
  8
0
 10
179.49999999828009
 20
101.5
 30
0.0
 11
179.90192378692669
 21
100.0
 31
0.0
  0
LINE
  5
6B0D
  8
0
 10
185.0980762096334
 20
100.0
 30
0.0
 11
185.49999999828009
 21
101.5
 31
0.0
  0
LINE
  5
6B0F
  8
0
 10
188.2999999982801
 20
119.0
 30
0.0
 11
176.69999999827999
 21
119.0
 31
0.0
  0
LINE
  5
6B11
  8
0
 10
176.69999999827999
 20
125.0
 30
0.0
 11
188.2999999982801
 21
125.0
 31
0.0
  0
LINE
  5
6B12
  8
0
 10
170.49999999828009
 20
140.0
 30
0.0
 11
194.49999999828009
 21
140.0
 31
0.0
  0
LINE
  5
6B13
  8
0
 10
194.49999999828009
 20
137.0
 30
0.0
 11
170.49999999828009
 21
137.0
 31
0.0
  0
LINE
  5
6B15
  8
0
 10
177.49999999828009
 20
130.5
 30
0.0
 11
176.49999999828009
 21
131.5
 31
0.0
  0
LINE
  5
6B16
  8
0
 10
188.49999999828009
 20
131.5
 30
0.0
 11
187.49999999828
 21
130.5
 31
0.0
  0
LINE
  5
6B17
  8
0
 10
187.49999999828009
 20
130.5
 30
0.0
 11
187.4999999982802
 21
125.0
 31
0.0
  0
LINE
  5
6B18
  8
0
 10
177.49999999828009
 20
125.5
 30
0.0
 11
187.49999999828009
 21
125.5
 31
0.0
  0
LINE
  5
6B19
  8
0
 10
177.49999999828009
 20
125.0
 30
0.0
 11
177.49999999828009
 21
130.5
 31
0.0
  0
LINE
  5
6B1C
  8
0
 10
178.49999999828009
 20
114.5
 30
0.0
 11
186.49999999828009
 21
114.5
 31
0.0
  0
LINE
  5
6B1D
  8
0
 10
179.49999999828009
 20
113.5
 30
0.0
 11
185.49999999828009
 21
113.5
 31
0.0
  0
POLYLINE
  5
6B1F
  8
0
 66
     1
 10
0.0
 20
0.0
 30
0.0
 70
   128
  0
VERTEX
  5
889C
  8
0
 10
185.49999999828009
 20
108.1890196374022
 30
0.0
  0
VERTEX
  5
889D
  8
0
 10
185.49999999828009
 20
108.1890196374022
 30
0.0
  0
VERTEX
  5
889E
  8
0
 10
185.47338045426881
 20
108.1170557976786
 30
0.0
  0
VERTEX
  5
889F
  8
0
 10
185.42458677941289
 20
107.9437794299235
 30
0.0
  0
VERTEX
  5
88A0
  8
0
 10
185.3690937873038
 20
107.6813513999295
 30
0.0
  0
VERTEX
  5
88A1
  8
0
 10
185.33281631452621
 20
107.35763337714479
 30
0.0
  0
VERTEX
  5
88A2
  8
0
 10
185.33358513830501
 20
107.029106039399
 30
0.0
  0
VERTEX
  5
88A3
  8
0
 10
185.36712438216691
 20
106.7305298383512
 30
0.0
  0
VERTEX
  5
88A4
  8
0
 10
185.4202648151705
 20
106.4734006600827
 30
0.0
  0
VERTEX
  5
88A5
  8
0
 10
185.47259091109811
 20
106.2855073893312
 30
0.0
  0
VERTEX
  5
88A6
  8
0
 10
185.49999999828009
 20
106.20942838184
 30
0.0
  0
VERTEX
  5
88A7
  8
0
 10
185.49999999828009
 20
106.20942838184
 30
0.0
  0
SEQEND
  5
88A8
  8
0
  0
LINE
  5
6B20
  8
0
 10
179.49999999828009
 20
101.5
 30
0.0
 11
185.49999999828009
 21
101.5
 31
0.0
  0
LINE
  5
6B21
  8
0
 10
185.0980762096334
 20
100.0
 30
0.0
 11
179.90192378692669
 21
100.0
 31
0.0
  0
LINE
  5
6B25
  8
0
 10
188.49999999828009
 20
133.0
 30
0.0
 11
176.49999999828009
 21
133.0
 31
0.0
  0
CIRCLE
  5
6B28
  8
0
 10
182.49999999828009
 20
191.1999998241663
 30
0.0
 40
4.0
  0
CIRCLE
  5
6B29
  8
0
 10
182.49999999828009
 20
191.1999998241663
 30
0.0
 40
12.5
  0
CIRCLE
  5
6B2C
  8
0
 10
182.49999999828009
 20
191.1999998241663
 30
0.0
 40
10.072844253636831
  0
LINE
  5
6B39
  8
0
 10
250.99999999656029
 20
124.8
 30
0.0
 11
250.7999999965603
 21
125.0
 31
0.0
  0
LINE
  5
6B3A
  8
0
 10
239.19999999656031
 20
125.0
 30
0.0
 11
238.99999999656029
 21
124.8
 31
0.0
  0
LINE
  5
6B3B
  8
0
 10
250.99999999656029
 20
119.2
 30
0.0
 11
250.99999999656029
 21
124.8
 31
0.0
  0
LINE
  5
6B3C
  8
0
 10
238.99999999656029
 20
124.8
 30
0.0
 11
238.99999999656029
 21
119.2
 31
0.0
  0
LINE
  5
6B3D
  8
0
 10
238.99999999656029
 20
119.2
 30
0.0
 11
239.19999999656031
 21
119.0
 31
0.0
  0
LINE
  5
6B3E
  8
0
 10
250.7999999965603
 20
119.0
 30
0.0
 11
250.99999999656029
 21
119.2
 31
0.0
  0
ARC
  5
6B3F
  8
0
 10
232.99999999656029
 20
139.5
 30
0.0
 40
0.5000000000000285
 50
90.0
 51
180.0
  0
ARC
  5
6B40
  8
0
 10
256.99999999656029
 20
139.5
 30
0.0
 40
0.5
 50
0.0
 51
90.0
  0
ARC
  5
6B41
  8
0
 10
256.99999999656029
 20
137.5
 30
0.0
 40
0.5
 50
270.0
 51
0.0
  0
ARC
  5
6B42
  8
0
 10
232.99999999656029
 20
137.5
 30
0.0
 40
0.5000000000000285
 50
180.0
 51
270.0
  0
LINE
  5
6B43
  8
0
 10
257.49999999656029
 20
137.5
 30
0.0
 11
257.49999999656029
 21
139.5
 31
0.0
  0
LINE
  5
6B44
  8
0
 10
232.49999999656029
 20
139.5
 30
0.0
 11
232.49999999656029
 21
137.5
 31
0.0
  0
ARC
  5
6B45
  8
0
 10
254.99999999656029
 20
133.0
 30
0.0
 40
4.0000000000000142
 50
90.0
 51
180.0
  0
ARC
  5
6B46
  8
0
 10
234.99999999656029
 20
133.0
 30
0.0
 40
4.0000000000000142
 50
0.0
 51
90.0
  0
LINE
  5
6B47
  8
0
 10
250.99999999656029
 20
125.5
 30
0.0
 11
250.99999999656029
 21
133.0
 31
0.0
  0
LINE
  5
6B48
  8
0
 10
238.99999999656029
 20
133.0
 30
0.0
 11
238.99999999656029
 21
125.5
 31
0.0
  0
LINE
  5
6B49
  8
0
 10
250.49999999656029
 20
125.0
 30
0.0
 11
250.99999999656029
 21
125.5
 31
0.0
  0
LINE
  5
6B4A
  8
0
 10
238.99999999656029
 20
125.5
 30
0.0
 11
239.4999999965604
 21
125.0
 31
0.0
  0
LINE
  5
6B4B
  8
0
 10
240.99999999656029
 20
114.5
 30
0.0
 11
241.99999999656029
 21
113.5
 31
0.0
  0
LINE
  5
6B4C
  8
0
 10
247.99999999656029
 20
113.5
 30
0.0
 11
248.99999999656029
 21
114.5
 31
0.0
  0
LINE
  5
6B4D
  8
0
 10
240.99999999656029
 20
119.0
 30
0.0
 11
240.99999999656029
 21
114.5
 31
0.0
  0
LINE
  5
6B4E
  8
0
 10
248.99999999656029
 20
114.5
 30
0.0
 11
248.99999999656029
 21
119.0
 31
0.0
  0
LINE
  5
6B4F
  8
0
 10
241.99999999656029
 20
113.5
 30
0.0
 11
241.99999999656029
 21
101.5
 31
0.0
  0
LINE
  5
6B50
  8
0
 10
247.99999999656029
 20
101.5
 30
0.0
 11
247.99999999656029
 21
113.5
 31
0.0
  0
LINE
  5
6B51
  8
0
 10
241.99999999656029
 20
101.5
 30
0.0
 11
242.401923785207
 21
100.0
 31
0.0
  0
LINE
  5
6B52
  8
0
 10
247.59807620791361
 20
100.0
 30
0.0
 11
247.99999999656029
 21
101.5
 31
0.0
  0
LINE
  5
6B53
  8
0
 10
239.19999999656031
 20
125.0
 30
0.0
 11
250.7999999965603
 21
125.0
 31
0.0
  0
LINE
  5
6B56
  8
0
 10
250.7999999965603
 20
119.0
 30
0.0
 11
239.19999999656031
 21
119.0
 31
0.0
  0
LINE
  5
6B57
  8
0
 10
233.0
 20
140.0
 30
0.0
 11
256.99999999656029
 21
140.0
 31
0.0
  0
LINE
  5
6B58
  8
0
 10
256.9999999931207
 20
137.0
 30
0.0
 11
232.99999999656029
 21
137.0
 31
0.0
  0
LINE
  5
6B59
  8
0
 10
248.31662478691561
 20
125.5
 30
0.0
 11
250.99999999656029
 21
125.5
 31
0.0
  0
LINE
  5
6B5A
  8
0
 10
248.31662478691561
 20
125.5
 30
0.0
 11
248.31662478691561
 21
130.5
 31
0.0
  0
ARC
  5
6B5B
  8
0
 10
244.99999999656029
 20
125.5000000000001
 30
0.0
 40
5.9999999999999858
 50
56.442690238072537
 51
123.5573097619274
  0
LINE
  5
6B5C
  8
0
 10
241.68337520620489
 20
130.5
 30
0.0
 11
241.68337520620489
 21
125.5
 31
0.0
  0
LINE
  5
6B5D
  8
0
 10
238.99999999656029
 20
125.5
 30
0.0
 11
241.68337520620489
 21
125.5
 31
0.0
  0
LINE
  5
6B5E
  8
0
 10
241.68337520620489
 20
130.5
 30
0.0
 11
248.31662478691561
 21
130.5
 31
0.0
  0
LINE
  5
6B5F
  8
0
 10
247.29128784403821
 20
125.0
 30
0.0
 11
248.31662478691561
 21
125.5
 31
0.0
  0
LINE
  5
6B60
  8
0
 10
241.68337520620489
 20
125.5
 30
0.0
 11
242.7087121490824
 21
125.0
 31
0.0
  0
LINE
  5
6B61
  8
0
 10
240.99999999656029
 20
114.5
 30
0.0
 11
248.99999999656029
 21
114.5
 31
0.0
  0
LINE
  5
6B62
  8
0
 10
241.99999999656029
 20
113.5
 30
0.0
 11
247.99999999656029
 21
113.5
 31
0.0
  0
CIRCLE
  5
6B63
  8
0
 10
244.99999999656029
 20
107.2000000000001
 30
0.0
 40
1.000000000000056
  0
LINE
  5
6B64
  8
0
 10
241.99999999656029
 20
101.5
 30
0.0
 11
247.99999999656029
 21
101.5
 31
0.0
  0
LINE
  5
6B65
  8
0
 10
247.59807620791361
 20
100.0
 30
0.0
 11
242.401923785207
 21
100.0
 31
0.0
  0
LINE
  5
6B68
  8
0
 10
250.99999999656029
 20
133.0
 30
0.0
 11
238.99999999656029
 21
133.0
 31
0.0
  0
CIRCLE
  5
6B69
  8
0
 10
182.49999999828009
 20
50.0
 30
0.0
 40
2.0000000000000582
  0
CIRCLE
  5
6B6E
  8
0
 10
182.49999999828009
 20
49.999999999999943
 30
0.0
 40
6.0000000000000417
  0
CIRCLE
  5
6B71
  8
0
 10
182.49999999828009
 20
50.0
 30
0.0
 40
1.6500000000000119
  0
CIRCLE
  5
6B73
  8
0
 10
182.49999999828009
 20
50.0
 30
0.0
 40
0.8500000000000085
  0
CIRCLE
  5
6B74
  8
0
 10
182.49999999828009
 20
50.0
 30
0.0
 40
0.4000000000000057
  0
CIRCLE
  5
6B75
  8
0
 10
182.49999999828009
 20
50.0
 30
0.0
 40
2.5980762113533231
  0
CIRCLE
  5
6B76
  8
0
 10
182.49999999828009
 20
50.0
 30
0.0
 40
2.1500000000000021
  0
CIRCLE
  5
6B77
  8
0
 10
182.49999999828009
 20
50.0
 30
0.0
 40
3.0000000000000102
  0
CIRCLE
  5
6B78
  8
0
 10
182.49999999828009
 20
49.999999999999943
 30
0.0
 40
4.0000000000000071
  0
CIRCLE
  5
6B79
  8
0
 10
182.49999999828009
 20
49.999999999999893
 30
0.0
 40
10.0
  0
CIRCLE
  5
6B7B
  8
0
 10
182.49999999828009
 20
49.999999999999893
 30
0.0
 40
12.499999999999989
  0
LINE
  5
6B85
  8
0
 10
125.9999999999999
 20
124.8
 30
0.0
 11
125.8
 21
125.0
 31
0.0
  0
LINE
  5
6B86
  8
0
 10
114.2
 20
125.0
 30
0.0
 11
113.9999999999999
 21
124.8
 31
0.0
  0
LINE
  5
6B87
  8
0
 10
125.9999999999999
 20
119.2
 30
0.0
 11
125.9999999999999
 21
124.8
 31
0.0
  0
LINE
  5
6B88
  8
0
 10
113.9999999999999
 20
124.8
 30
0.0
 11
113.9999999999999
 21
119.2
 31
0.0
  0
LINE
  5
6B89
  8
0
 10
113.9999999999999
 20
119.2
 30
0.0
 11
114.2
 21
119.0
 31
0.0
  0
LINE
  5
6B8A
  8
0
 10
125.8
 20
119.0
 30
0.0
 11
125.9999999999999
 21
119.2
 31
0.0
  0
ARC
  5
6B8B
  8
0
 10
107.9999999999999
 20
139.5
 30
0.0
 40
0.5
 50
90.0
 51
180.0
  0
ARC
  5
6B8C
  8
0
 10
131.99999999999989
 20
139.5
 30
0.0
 40
0.5
 50
0.0
 51
90.0
  0
ARC
  5
6B8D
  8
0
 10
131.99999999999989
 20
137.5
 30
0.0
 40
0.5
 50
270.0
 51
0.0
  0
ARC
  5
6B8E
  8
0
 10
107.9999999999999
 20
137.5
 30
0.0
 40
0.5
 50
180.0
 51
270.0
  0
LINE
  5
6B8F
  8
0
 10
132.49999999999989
 20
137.5
 30
0.0
 11
132.49999999999989
 21
139.5
 31
0.0
  0
LINE
  5
6B90
  8
0
 10
107.4999999999999
 20
139.5
 30
0.0
 11
107.4999999999999
 21
137.5
 31
0.0
  0
ARC
  5
6B91
  8
0
 10
129.99999999999989
 20
133.0
 30
0.0
 40
4.0000000000000142
 50
90.0
 51
180.0
  0
ARC
  5
6B92
  8
0
 10
109.9999999999999
 20
133.0
 30
0.0
 40
4.0000000000000142
 50
0.0
 51
90.0
  0
LINE
  5
6B93
  8
0
 10
125.9999999999999
 20
125.5
 30
0.0
 11
125.9999999999999
 21
133.0
 31
0.0
  0
LINE
  5
6B94
  8
0
 10
113.9999999999999
 20
133.0
 30
0.0
 11
113.9999999999999
 21
125.5
 31
0.0
  0
LINE
  5
6B95
  8
0
 10
125.4999999999999
 20
125.0
 30
0.0
 11
125.9999999999999
 21
125.5
 31
0.0
  0
LINE
  5
6B96
  8
0
 10
113.9999999999999
 20
125.5
 30
0.0
 11
114.4999999999999
 21
125.0
 31
0.0
  0
LINE
  5
6B97
  8
0
 10
115.9999999999999
 20
114.5
 30
0.0
 11
116.9999999999999
 21
113.5
 31
0.0
  0
LINE
  5
6B98
  8
0
 10
122.9999999999999
 20
113.5
 30
0.0
 11
123.9999999999999
 21
114.5
 31
0.0
  0
LINE
  5
6B99
  8
0
 10
115.9999999999999
 20
119.0
 30
0.0
 11
115.9999999999999
 21
114.5
 31
0.0
  0
LINE
  5
6B9A
  8
0
 10
123.9999999999999
 20
114.5
 30
0.0
 11
123.9999999999999
 21
119.0
 31
0.0
  0
LINE
  5
6B9B
  8
0
 10
116.9999999999999
 20
113.5
 30
0.0
 11
116.9999999999999
 21
107.90917509949141
 31
0.0
  0
LINE
  5
6B9C
  8
0
 10
116.9999999999999
 20
106.4908254667526
 30
0.0
 11
116.9999999999999
 21
101.5
 31
0.0
  0
LINE
  5
6B9D
  8
0
 10
122.9999999999999
 20
101.5
 30
0.0
 11
122.9999999999999
 21
106.4908254667525
 31
0.0
  0
LINE
  5
6B9E
  8
0
 10
122.9999999999999
 20
107.90917509949151
 30
0.0
 11
122.9999999999999
 21
113.5
 31
0.0
  0
LINE
  5
6B9F
  8
0
 10
116.9999999999999
 20
101.5
 30
0.0
 11
117.4019237886467
 21
100.0
 31
0.0
  0
LINE
  5
6BA0
  8
0
 10
122.5980762113533
 20
100.0
 30
0.0
 11
122.9999999999999
 21
101.5
 31
0.0
  0
LINE
  5
6BA2
  8
0
 10
114.2
 20
125.0
 30
0.0
 11
125.8
 21
125.0
 31
0.0
  0
LINE
  5
6BA7
  8
0
 10
125.8
 20
119.0
 30
0.0
 11
114.2
 21
119.0
 31
0.0
  0
LINE
  5
6BA9
  8
0
 10
107.9999999999999
 20
140.0
 30
0.0
 11
131.99999999656029
 21
140.0
 31
0.0
  0
LINE
  5
6BAA
  8
0
 10
131.99999999999989
 20
137.0
 30
0.0
 11
108.0000000034395
 21
137.0
 31
0.0
  0
ARC
  5
6BAB
  8
0
 10
119.9999999999999
 20
125.5
 30
0.0
 40
5.9999999999999751
 50
56.442690238072537
 51
123.5573097619274
  0
LINE
  5
6BAC
  8
0
 10
116.68337520964459
 20
130.5
 30
0.0
 11
116.68337520964459
 21
125.5
 31
0.0
  0
LINE
  5
6BAD
  8
0
 10
113.9999999999999
 20
125.5
 30
0.0
 11
116.68337520964459
 21
125.5
 31
0.0
  0
LINE
  5
6BAE
  8
0
 10
123.31662479035531
 20
125.5
 30
0.0
 11
125.9999999999999
 21
125.5
 31
0.0
  0
LINE
  5
6BAF
  8
0
 10
123.31662479035531
 20
125.5
 30
0.0
 11
123.31662479035531
 21
130.5
 31
0.0
  0
LINE
  5
6BB0
  8
0
 10
123.31662479035531
 20
130.5
 30
0.0
 11
116.68337520964459
 21
130.5
 31
0.0
  0
LINE
  5
6BB1
  8
0
 10
122.2912878474778
 20
125.0
 30
0.0
 11
123.31662479035531
 21
125.5
 31
0.0
  0
LINE
  5
6BB2
  8
0
 10
116.68337520964459
 20
125.5
 30
0.0
 11
117.708712152522
 21
125.0
 31
0.0
  0
LINE
  5
6BB3
  8
0
 10
115.9999999999999
 20
114.5
 30
0.0
 11
123.9999999999999
 21
114.5
 31
0.0
  0
LINE
  5
6BB4
  8
0
 10
116.9999999999999
 20
113.5
 30
0.0
 11
122.9999999999999
 21
113.5
 31
0.0
  0
LINE
  5
6BB6
  8
0
 10
116.9999999999999
 20
101.5
 30
0.0
 11
122.9999999999999
 21
101.5
 31
0.0
  0
LINE
  5
6BB9
  8
0
 10
122.5980762113533
 20
100.0
 30
0.0
 11
117.4019237886467
 21
100.0
 31
0.0
  0
LINE
  5
6BBC
  8
0
 10
125.9999999999999
 20
133.0
 30
0.0
 11
113.9999999999999
 21
133.0
 31
0.0
  0
LINE
  5
6EEB
  8
1
 10
166.99999999828009
 20
191.1999998241663
 30
0.0
 11
197.99999999828009
 21
191.1999998241663
 31
0.0
  0
LINE
  5
6EEC
  8
1
 10
182.49999999828009
 20
206.6999998241663
 30
0.0
 11
182.49999999828009
 21
175.6999998241663
 31
0.0
  0
LINE
  5
6F62
  8
1
 10
166.99999999828009
 20
50.0
 30
0.0
 11
197.99999999828009
 21
50.0
 31
0.0
  0
LINE
  5
6F63
  8
1
 10
182.49999999828009
 20
65.5
 30
0.0
 11
182.49999999828009
 21
34.5
 31
0.0
  0
LINE
  5
6F6D
  8
3
 10
185.8234999982802
 20
113.8235
 30
0.0
 11
185.8234999982802
 21
118.9999999999999
 31
0.0
  0
LINE
  5
6F6E
  8
3
 10
179.17649999828001
 20
113.8235
 30
0.0
 11
179.17649999828001
 21
118.9999999999999
 31
0.0
  0
ARC
  5
6F72
  8
3
 10
182.49999999828009
 20
50.0
 30
0.0
 40
3.3235000000000801
 50
254.30821259285921
 51
345.69178740714102
  0
ARC
  5
6F73
  8
3
 10
182.49999999828009
 20
50.0
 30
0.0
 40
3.3235000000000801
 50
14.30821259285903
 51
105.69178740714069
  0
ARC
  5
6F74
  8
3
 10
182.49999999828009
 20
50.0
 30
0.0
 40
3.3235000000000801
 50
134.30821259285861
 51
225.6917874071404
  0
LINE
  5
6FFE
  8
1
 10
182.49999999828
 20
95.0
 30
0.0
 11
182.49999999828
 21
146.1999998241663
 31
0.0
  0
LINE
  5
7044
  8
3
 10
116.68337520964459
 20
130.50000000000011
 30
0.0
 11
123.31662479035541
 21
125.5
 31
0.0
  0
LINE
  5
7045
  8
3
 10
116.68337520964459
 20
125.5
 30
0.0
 11
123.31662479035531
 21
130.5
 31
0.0
  0
LINE
  5
7046
  8
1
 10
114.7050326799712
 20
107.2
 30
0.0
 11
125.2949673200288
 21
107.2000000000001
 31
0.0
  0
LINE
  5
7047
  8
3
 10
123.3235000000001
 20
113.8235
 30
0.0
 11
123.3235000000001
 21
118.9999999999999
 31
0.0
  0
LINE
  5
7048
  8
3
 10
116.6765
 20
113.8235
 30
0.0
 11
116.6764999999999
 21
118.9999999999999
 31
0.0
  0
LINE
  5
7049
  8
1
 10
120.0
 20
95.0
 30
0.0
 11
120.0
 21
146.1999998241663
 31
0.0
  0
LINE
  5
7094
  8
3
 10
241.68337520620489
 20
130.50000000000011
 30
0.0
 11
248.3166247869157
 21
125.5
 31
0.0
  0
LINE
  5
7095
  8
3
 10
241.68337520620489
 20
125.5
 30
0.0
 11
248.31662478691561
 21
130.5
 31
0.0
  0
LINE
  5
7096
  8
1
 10
239.8220199746394
 20
107.2
 30
0.0
 11
250.17798001848129
 21
107.2
 31
0.0
  0
LINE
  5
7097
  8
3
 10
248.32349999656051
 20
113.8235
 30
0.0
 11
248.32349999656051
 21
118.9999999999999
 31
0.0
  0
LINE
  5
7098
  8
3
 10
241.6764999965603
 20
113.8235
 30
0.0
 11
241.6764999965603
 21
118.9999999999999
 31
0.0
  0
LINE
  5
7099
  8
1
 10
244.9999999965604
 20
95.0
 30
0.0
 11
244.9999999965604
 21
146.1999998241663
 31
0.0
  0
ARC
  5
7A06
  8
0
 10
241.4999999982802
 20
140.70000028312211
 30
0.0
 40
0.5
 50
90.0
 51
180.0
  0
ARC
  5
7A07
  8
0
 10
248.4999999982802
 20
140.70000028312211
 30
0.0
 40
0.5
 50
0.0
 51
90.0
  0
LINE
  5
7A08
  8
0
 10
249.00000018827001
 20
140.70000067353249
 30
0.0
 11
249.00000018827001
 21
140.0
 31
0.0
  0
LINE
  5
7A09
  8
0
 10
240.9999998082904
 20
140.0
 30
0.0
 11
240.9999998082904
 21
140.70000067353249
 31
0.0
  0
LINE
  5
7A0A
  8
0
 10
248.50000010631359
 20
141.1999998241663
 30
0.0
 11
241.49999989024681
 21
141.1999998241663
 31
0.0
  0
ARC
  5
7A0B
  8
0
 10
178.9999999982802
 20
140.70000028312211
 30
0.0
 40
0.5
 50
90.0
 51
180.0
  0
ARC
  5
7A0C
  8
0
 10
185.9999999982802
 20
140.70000028312211
 30
0.0
 40
0.5
 50
0.0
 51
90.0
  0
LINE
  5
7A0D
  8
0
 10
186.50000018827001
 20
140.70000067353249
 30
0.0
 11
186.50000018827001
 21
140.0
 31
0.0
  0
LINE
  5
7A0E
  8
0
 10
178.4999998082904
 20
140.0
 30
0.0
 11
178.4999998082904
 21
140.70000067353249
 31
0.0
  0
LINE
  5
7A0F
  8
0
 10
186.00000010631359
 20
141.1999998241663
 30
0.0
 11
178.99999989024681
 21
141.1999998241663
 31
0.0
  0
ARC
  5
7A10
  8
0
 10
116.5
 20
140.70000028312211
 30
0.0
 40
0.5
 50
90.0
 51
180.0
  0
ARC
  5
7A11
  8
0
 10
123.5
 20
140.70000028312211
 30
0.0
 40
0.5
 50
0.0
 51
90.0
  0
LINE
  5
7A12
  8
0
 10
124.00000018998981
 20
140.70000067353249
 30
0.0
 11
124.00000018998981
 21
140.0
 31
0.0
  0
LINE
  5
7A13
  8
0
 10
115.99999981001019
 20
140.0
 30
0.0
 11
115.99999981001019
 21
140.70000067353249
 31
0.0
  0
LINE
  5
7A14
  8
0
 10
123.5000001080335
 20
141.1999998241663
 30
0.0
 11
116.4999998919666
 21
141.1999998241663
 31
0.0
  0
ARC
  5
7A1E
  8
0
 10
122.2949673200288
 20
107.20000028312199
 30
0.0
 40
1.0000000000000111
 50
282.4747539362852
 51
0.0
  0
ARC
  5
7A1F
  8
0
 10
122.2949673200288
 20
107.20000028312199
 30
0.0
 40
1.0
 50
0.0
 51
77.552538945390623
  0
ARC
  5
7A20
  8
0
 10
117.7050326799712
 20
107.20000028312199
 30
0.0
 40
1.00000000000001
 50
102.3686345083653
 51
257.46385607690991
  0
POLYLINE
  5
7A21
  8
0
 66
     1
 10
0.0
 20
0.0
 30
0.0
 70
   128
  0
VERTEX
  5
88A9
  8
0
 10
117.1926264647974
 20
108.05874347561399
 30
0.0
  0
VERTEX
  5
88AA
  8
0
 10
117.28940171189601
 20
108.1702833622693
 30
0.0
  0
VERTEX
  5
88AB
  8
0
 10
117.44797660969191
 20
108.1959617882966
 30
0.0
  0
VERTEX
  5
88AC
  8
0
 10
117.62435653246941
 20
108.11705641448491
 30
0.0
  0
VERTEX
  5
88AD
  8
0
 10
117.80144612304861
 20
107.9437801241874
 30
0.0
  0
VERTEX
  5
88AE
  8
0
 10
117.9535557795316
 20
107.68135204911221
 30
0.0
  0
VERTEX
  5
88AF
  8
0
 10
118.0404579546302
 20
107.3576336354016
 30
0.0
  0
VERTEX
  5
88B0
  8
0
 10
118.0386879760772
 20
107.0291058719157
 30
0.0
  0
VERTEX
  5
88B1
  8
0
 10
117.95847153291101
 20
106.730530373752
 30
0.0
  0
VERTEX
  5
88B2
  8
0
 10
117.8145072236657
 20
106.4734005928039
 30
0.0
  0
VERTEX
  5
88B3
  8
0
 10
117.627962147817
 20
106.2855081260204
 30
0.0
  0
VERTEX
  5
88B4
  8
0
 10
117.4402608349919
 20
106.2028206512331
 30
0.0
  0
VERTEX
  5
88B5
  8
0
 10
117.28666362352671
 20
106.2313321605324
 30
0.0
  0
VERTEX
  5
88B6
  8
0
 10
117.18560770564859
 20
106.34548422355969
 30
0.0
  0
SEQEND
  5
88B7
  8
0
  0
POLYLINE
  5
7A22
  8
0
 66
     1
 10
0.0
 20
0.0
 30
0.0
 70
   128
  0
VERTEX
  5
88B8
  8
0
 10
121.9494896987453
 20
107.1999998390674
 30
0.0
  0
VERTEX
  5
88B9
  8
0
 10
121.9915190059691
 20
107.5204176455735
 30
0.0
  0
VERTEX
  5
88BA
  8
0
 10
122.10649147629729
 20
107.80447475612161
 30
0.0
  0
VERTEX
  5
88BB
  8
0
 10
122.2756669204682
 20
108.03178731352079
 30
0.0
  0
VERTEX
  5
88BC
  8
0
 10
122.46862415224309
 20
108.1702833622693
 30
0.0
  0
VERTEX
  5
88BD
  8
0
 10
122.64180172234769
 20
108.1959617882966
 30
0.0
  0
VERTEX
  5
88BE
  8
0
 10
122.7744024991989
 20
108.11705641448491
 30
0.0
  0
VERTEX
  5
88BF
  8
0
 10
122.8047115649038
 20
108.06032627065041
 30
0.0
  0
SEQEND
  5
88C0
  8
0
  0
POLYLINE
  5
7A23
  8
0
 66
     1
 10
0.0
 20
0.0
 30
0.0
 70
   128
  0
VERTEX
  5
88C1
  8
0
 10
122.8041084360862
 20
106.33931722650961
 30
0.0
  0
VERTEX
  5
88C2
  8
0
 10
122.7766404673457
 20
106.2855081260204
 30
0.0
  0
VERTEX
  5
88C3
  8
0
 10
122.63478723354631
 20
106.2028206512331
 30
0.0
  0
VERTEX
  5
88C4
  8
0
 10
122.46497942134729
 20
106.2313321605324
 30
0.0
  0
VERTEX
  5
88C5
  8
0
 10
122.2860129829496
 20
106.357972472906
 30
0.0
  0
VERTEX
  5
88C6
  8
0
 10
122.1170419640839
 20
106.5770912542938
 30
0.0
  0
VERTEX
  5
88C7
  8
0
 10
121.9924419466406
 20
106.876140795648
 30
0.0
  0
VERTEX
  5
88C8
  8
0
 10
121.9494896987453
 20
107.1999998390674
 30
0.0
  0
SEQEND
  5
88C9
  8
0
  0
ARC
  5
7A6A
  8
0
 10
247.29496731658909
 20
107.20000028312199
 30
0.0
 40
1.0
 50
0.0
 51
45.167815724183917
  0
ARC
  5
7A6B
  8
0
 10
242.7050326765316
 20
107.20000028312199
 30
0.0
 40
1.00000000000001
 50
134.8321842758298
 51
225.16781572417011
  0
ARC
  5
7A6C
  8
0
 10
247.29496731658909
 20
107.20000028312209
 30
0.0
 40
1.0000000000000111
 50
314.83218427582182
 51
0.0
  0
ARC
  5
8194
  8
0
 10
181.17499999827879
 20
107.1999993890518
 30
0.0
 40
1.000000000000006
 50
95.41445749604955
 51
264.3518076308975
  0
ARC
  5
8195
  8
0
 10
185.14999999827879
 20
107.1999993890521
 30
0.0
 40
1.0
 50
289.44207937526221
 51
0.0
  0
ARC
  5
8196
  8
0
 10
185.14999999827879
 20
107.1999993890521
 30
0.0
 40
1.0000000000000011
 50
0.0
 51
70.551724171878888
  0
POLYLINE
  5
8197
  8
0
 66
     1
 10
0.0
 20
0.0
 30
0.0
 70
   128
  0
VERTEX
  5
88CA
  8
0
 10
180.33687828017861
 20
107.7454826478681
 30
0.0
  0
VERTEX
  5
88CB
  8
0
 10
180.363953698568
 20
107.8044738620514
 30
0.0
  0
VERTEX
  5
88CC
  8
0
 10
180.44486677102
 20
107.92661402374451
 30
0.0
  0
VERTEX
  5
88CD
  8
0
 10
180.54517533458019
 20
108.0317864194507
 30
0.0
  0
VERTEX
  5
88CE
  8
0
 10
180.66116713746629
 20
108.1132994964713
 30
0.0
  0
VERTEX
  5
88CF
  8
0
 10
180.79533137208961
 20
108.1702824681991
 30
0.0
  0
VERTEX
  5
88D0
  8
0
 10
180.93135895035411
 20
108.196804672479
 30
0.0
  0
VERTEX
  5
88D1
  8
0
 10
181.07842235188181
 20
108.1959608942264
 30
0.0
  0
VERTEX
  5
88D2
  8
0
 10
181.21768255080281
 20
108.1693837419146
 30
0.0
  0
VERTEX
  5
88D3
  8
0
 10
181.35864509097479
 20
108.1170555204147
 30
0.0
  0
VERTEX
  5
88D4
  8
0
 10
181.4912377187535
 20
108.0422777682537
 30
0.0
  0
VERTEX
  5
88D5
  8
0
 10
181.61657976745809
 20
107.9437792301172
 30
0.0
  0
VERTEX
  5
88D6
  8
0
 10
181.72907829578219
 20
107.8232903033489
 30
0.0
  0
VERTEX
  5
88D7
  8
0
 10
181.824548347529
 20
107.68135115504219
 30
0.0
  0
VERTEX
  5
88D8
  8
0
 10
181.8947058083973
 20
107.5272116810079
 30
0.0
  0
VERTEX
  5
88D9
  8
0
 10
181.93878996246681
 20
107.3576327413316
 30
0.0
  0
VERTEX
  5
88DA
  8
0
 10
181.95180269251759
 20
107.1958051994438
 30
0.0
  0
VERTEX
  5
88DB
  8
0
 10
181.9364930881672
 20
107.02910497784571
 30
0.0
  0
VERTEX
  5
88DC
  8
0
 10
181.89635698511449
 20
106.87744468450499
 30
0.0
  0
VERTEX
  5
88DD
  8
0
 10
181.83109350796039
 20
106.730529479682
 30
0.0
  0
VERTEX
  5
88DE
  8
0
 10
181.74376531099159
 20
106.59554731100739
 30
0.0
  0
VERTEX
  5
88DF
  8
0
 10
181.63488025604931
 20
106.4733996987337
 30
0.0
  0
VERTEX
  5
88E0
  8
0
 10
181.5076487866715
 20
106.3689230009907
 30
0.0
  0
VERTEX
  5
88E1
  8
0
 10
181.36410066220171
 20
106.28550723195021
 30
0.0
  0
VERTEX
  5
88E2
  8
0
 10
181.21835450004039
 20
106.2308022752398
 30
0.0
  0
VERTEX
  5
88E3
  8
0
 10
181.06546299825609
 20
106.2028197571629
 30
0.0
  0
VERTEX
  5
88E4
  8
0
 10
180.9265342337564
 20
106.2036644667381
 30
0.0
  0
VERTEX
  5
88E5
  8
0
 10
180.79006555783749
 20
106.23133126646221
 30
0.0
  0
VERTEX
  5
88E6
  8
0
 10
180.66912354263661
 20
106.2823193147772
 30
0.0
  0
VERTEX
  5
88E7
  8
0
 10
180.55728427428011
 20
106.3579715788358
 30
0.0
  0
VERTEX
  5
88E8
  8
0
 10
180.4589004052356
 20
106.4561394974583
 30
0.0
  0
VERTEX
  5
88E9
  8
0
 10
180.37440988994391
 20
106.57709036022359
 30
0.0
  0
VERTEX
  5
88EA
  8
0
 10
180.33776518201159
 20
106.6531558443063
 30
0.0
  0
SEQEND
  5
88EB
  8
0
  0
LINE
  5
8400
  8
3
 10
188.5
 20
-91.17126485530045
 30
0.0
 11
188.5
 21
-86.818264855300725
 31
0.0
  0
LINE
  5
8401
  8
0
 10
189.17649999999989
 20
-90.494764855300502
 30
0.0
 11
189.17649999999989
 21
-87.494764855300687
 31
0.0
  0
LINE
  5
8402
  8
0
 10
195.82350000000011
 20
-90.494764855300502
 30
0.0
 11
195.82350000000011
 21
-87.494764855300573
 31
0.0
  0
LINE
  5
8403
  8
3
 10
196.5
 20
-91.17126485530045
 30
0.0
 11
196.50000000000011
 21
-86.818264855300654
 31
0.0
  0
LINE
  5
840A
  8
0
 10
195.82350000000011
 20
-90.494764855300474
 30
0.0
 11
189.17649999999989
 21
-90.494764855300502
 31
0.0
  0
LINE
  5
840B
  8
0
 10
195.82350000000011
 20
-90.494764855300474
 30
0.0
 11
197.32350000000011
 21
-91.994764855300616
 31
0.0
  0
LINE
  5
840C
  8
0
 10
189.1765
 20
-90.494764855300474
 30
0.0
 11
187.6765
 21
-91.994764855300545
 31
0.0
  0
LINE
  5
8411
  8
0
 10
195.82350000000011
 20
-87.494764855300701
 30
0.0
 11
189.17649999999989
 21
-87.494764855300673
 31
0.0
  0
LINE
  5
8412
  8
0
 10
195.82350000000011
 20
-87.494764855300701
 30
0.0
 11
197.32350000000011
 21
-85.994764855300559
 31
0.0
  0
LINE
  5
8413
  8
0
 10
189.1765
 20
-87.494764855300701
 30
0.0
 11
187.6765
 21
-85.994764855300616
 31
0.0
  0
LINE
  5
8414
  8
0
 10
125.0
 20
-85.994764855300517
 30
0.0
 11
160.0
 21
-85.994764855300517
 31
0.0
  0
LINE
  5
8416
  8
0
 10
125.0
 20
-91.994764855300545
 30
0.0
 11
139.50000000000011
 21
-91.994764855300545
 31
0.0
  0
LINE
  5
8417
  8
3
 10
138.5
 20
-91.171264855300393
 30
0.0
 11
138.50000000000011
 21
-90.494764855300531
 31
0.0
  0
LINE
  5
841A
  8
3
 10
146.5
 20
-91.171264855300393
 30
0.0
 11
146.50000000000011
 21
-90.494764855300531
 31
0.0
  0
LINE
  5
841C
  8
0
 10
146.1617500000001
 20
-90.833014855300505
 30
0.0
 11
147.32350000000011
 21
-91.994764855300545
 31
0.0
  0
LINE
  5
841D
  8
0
 10
138.83824999999999
 20
-90.833014855300462
 30
0.0
 11
137.6765
 21
-91.994764855300502
 31
0.0
  0
LINE
  5
841F
  8
0
 10
146.50000000000011
 20
-86.818264855300569
 30
0.0
 11
147.32350000000011
 21
-85.994764855300502
 31
0.0
  0
LINE
  5
8420
  8
0
 10
138.50000000000011
 20
-86.818264855300697
 30
0.0
 11
137.6765
 21
-85.994764855300559
 31
0.0
  0
LINE
  5
8422
  8
0
 10
136.50000000000011
 20
-85.794764855300485
 30
0.0
 11
136.69999999999999
 21
-85.994764855300517
 31
0.0
  0
LINE
  5
8423
  8
0
 10
148.30000000000001
 20
-85.994764855300517
 30
0.0
 11
148.50000000000011
 21
-85.794764855300485
 31
0.0
  0
LINE
  5
8424
  8
0
 10
148.50000000000011
 20
-85.794764855300485
 30
0.0
 11
148.50000000000011
 21
-80.194764855300519
 31
0.0
  0
LINE
  5
8425
  8
0
 10
136.50000000000011
 20
-80.194764855300519
 30
0.0
 11
136.50000000000011
 21
-85.794764855300485
 31
0.0
  0
LINE
  5
8426
  8
0
 10
148.50000000000011
 20
-80.194764855300519
 30
0.0
 11
148.30000000000001
 21
-79.994764855300531
 31
0.0
  0
LINE
  5
8427
  8
0
 10
136.69999999999999
 20
-79.994764855300531
 30
0.0
 11
136.50000000000011
 21
-80.194764855300519
 31
0.0
  0
ARC
  5
8428
  8
0
 10
130.50000000000011
 20
-65.494764855300531
 30
0.0
 40
0.5
 50
90.0
 51
180.0
  0
ARC
  5
8429
  8
0
 10
154.50000000000011
 20
-65.494764855300531
 30
0.0
 40
0.5
 50
0.0
 51
90.0
  0
ARC
  5
842A
  8
0
 10
154.50000000000011
 20
-67.494764855300474
 30
0.0
 40
0.5
 50
270.0
 51
0.0
  0
ARC
  5
842B
  8
0
 10
130.50000000000011
 20
-67.494764855300474
 30
0.0
 40
0.5
 50
180.0
 51
270.0
  0
LINE
  5
842C
  8
0
 10
155.00000000000011
 20
-67.494764855300474
 30
0.0
 11
155.00000000000011
 21
-65.494764855300531
 31
0.0
  0
LINE
  5
842D
  8
0
 10
130.00000000000011
 20
-65.494764855300531
 30
0.0
 11
130.00000000000011
 21
-67.494764855300474
 31
0.0
  0
ARC
  5
842E
  8
0
 10
152.50000000000011
 20
-71.994764855300531
 30
0.0
 40
4.0000000000000142
 50
90.0
 51
180.0
  0
ARC
  5
842F
  8
0
 10
132.50000000000011
 20
-71.994764855300531
 30
0.0
 40
4.0000000000000142
 50
0.0
 51
90.0
  0
LINE
  5
8430
  8
0
 10
148.50000000000011
 20
-73.494764855300531
 30
0.0
 11
148.50000000000011
 21
-71.994764855300531
 31
0.0
  0
LINE
  5
8431
  8
0
 10
136.50000000000011
 20
-71.994764855300531
 30
0.0
 11
136.50000000000011
 21
-73.494764855300531
 31
0.0
  0
LINE
  5
8432
  8
0
 10
138.50000000000011
 20
-85.994764855300517
 30
0.0
 11
138.50000000000011
 21
-90.494764855300531
 31
0.0
  0
LINE
  5
8433
  8
0
 10
146.50000000000011
 20
-90.494764855300531
 30
0.0
 11
146.50000000000011
 21
-85.994764855300517
 31
0.0
  0
LINE
  5
8434
  8
0
 10
138.50000000000011
 20
-90.494764855300531
 30
0.0
 11
139.50000000000011
 21
-91.494764855300531
 31
0.0
  0
LINE
  5
8435
  8
0
 10
145.50000000000011
 20
-91.494764855300531
 30
0.0
 11
146.50000000000011
 21
-90.494764855300531
 31
0.0
  0
LINE
  5
8436
  8
0
 10
139.50000000000011
 20
-91.494764855300531
 30
0.0
 11
139.50000000000011
 21
-103.4947648553004
 31
0.0
  0
LINE
  5
8437
  8
0
 10
145.50000000000011
 20
-96.805745217898306
 30
0.0
 11
145.50000000000011
 21
-91.494764855300531
 31
0.0
  0
LINE
  5
8438
  8
0
 10
145.50000000000011
 20
-103.4947648553004
 30
0.0
 11
145.50000000000011
 21
-98.78533647346049
 31
0.0
  0
LINE
  5
8439
  8
0
 10
139.50000000000011
 20
-103.4947648553004
 30
0.0
 11
139.90192378864671
 21
-104.9947648553005
 31
0.0
  0
LINE
  5
843A
  8
0
 10
145.09807621135329
 20
-104.9947648553005
 30
0.0
 11
145.50000000000011
 21
-103.4947648553004
 31
0.0
  0
LINE
  5
843C
  8
0
 10
136.69999999999999
 20
-79.994764855300531
 30
0.0
 11
148.30000000000001
 21
-79.994764855300531
 31
0.0
  0
LINE
  5
843D
  8
0
 10
130.50000000000011
 20
-64.994764855300531
 30
0.0
 11
154.50000000000011
 21
-64.994764855300531
 31
0.0
  0
LINE
  5
843E
  8
0
 10
154.50000000000011
 20
-67.994764855300474
 30
0.0
 11
130.50000000000011
 21
-67.994764855300474
 31
0.0
  0
LINE
  5
843F
  8
0
 10
137.50000000000011
 20
-74.494764855300531
 30
0.0
 11
136.50000000000011
 21
-73.494764855300531
 31
0.0
  0
LINE
  5
8440
  8
0
 10
148.50000000000011
 20
-73.494764855300531
 30
0.0
 11
147.5
 21
-74.494764855300531
 31
0.0
  0
LINE
  5
8441
  8
0
 10
147.50000000000011
 20
-74.494764855300531
 30
0.0
 11
147.50000000000011
 21
-79.994764855300531
 31
0.0
  0
LINE
  5
8442
  8
0
 10
137.50000000000011
 20
-79.494764855300474
 30
0.0
 11
147.50000000000011
 21
-79.494764855300474
 31
0.0
  0
LINE
  5
8443
  8
0
 10
137.50000000000011
 20
-79.994764855300531
 30
0.0
 11
137.50000000000011
 21
-74.494764855300531
 31
0.0
  0
LINE
  5
8444
  8
0
 10
138.50000000000011
 20
-90.494764855300531
 30
0.0
 11
146.50000000000011
 21
-90.494764855300531
 31
0.0
  0
LINE
  5
8445
  8
0
 10
139.50000000000011
 20
-91.494764855300531
 30
0.0
 11
145.50000000000011
 21
-91.494764855300531
 31
0.0
  0
POLYLINE
  5
8446
  8
0
 66
     1
 10
0.0
 20
0.0
 30
0.0
 70
   128
  0
VERTEX
  5
88EC
  8
0
 10
145.50000000000011
 20
-96.805745217898306
 30
0.0
  0
VERTEX
  5
88ED
  8
0
 10
145.50000000000011
 20
-96.805745217898306
 30
0.0
  0
VERTEX
  5
88EE
  8
0
 10
145.4733804559888
 20
-96.877709057621914
 30
0.0
  0
VERTEX
  5
88EF
  8
0
 10
145.42458678113289
 20
-97.050985425377036
 30
0.0
  0
VERTEX
  5
88F0
  8
0
 10
145.36909378902371
 20
-97.313413455371034
 30
0.0
  0
VERTEX
  5
88F1
  8
0
 10
145.33281631624621
 20
-97.63713147815568
 30
0.0
  0
VERTEX
  5
88F2
  8
0
 10
145.33358514002501
 20
-97.965658815901534
 30
0.0
  0
VERTEX
  5
88F3
  8
0
 10
145.3671243838869
 20
-98.264235016949314
 30
0.0
  0
VERTEX
  5
88F4
  8
0
 10
145.42026481689049
 20
-98.521364195217842
 30
0.0
  0
VERTEX
  5
88F5
  8
0
 10
145.47259091281811
 20
-98.70925746596933
 30
0.0
  0
VERTEX
  5
88F6
  8
0
 10
145.50000000000011
 20
-98.78533647346049
 30
0.0
  0
VERTEX
  5
88F7
  8
0
 10
145.50000000000011
 20
-98.78533647346049
 30
0.0
  0
SEQEND
  5
88F8
  8
0
  0
LINE
  5
8447
  8
0
 10
139.50000000000011
 20
-103.4947648553004
 30
0.0
 11
145.50000000000011
 21
-103.4947648553004
 31
0.0
  0
LINE
  5
8448
  8
0
 10
145.09807621135329
 20
-104.9947648553005
 30
0.0
 11
139.90192378864671
 21
-104.9947648553005
 31
0.0
  0
LINE
  5
8449
  8
0
 10
148.50000000000011
 20
-71.994764855300531
 30
0.0
 11
136.50000000000011
 21
-71.994764855300531
 31
0.0
  0
LINE
  5
844A
  8
3
 10
145.82350000000019
 20
-91.17126485530045
 30
0.0
 11
145.82350000000019
 21
-85.994764855300588
 31
0.0
  0
LINE
  5
844B
  8
3
 10
139.1765
 20
-91.17126485530045
 30
0.0
 11
139.17649999999989
 21
-85.994764855300588
 31
0.0
  0
LINE
  5
844C
  8
1
 10
142.5
 20
-109.9947648553005
 30
0.0
 11
142.5
 21
-58.794765031134233
 31
0.0
  0
ARC
  5
844D
  8
0
 10
139.00000000000011
 20
-64.294764572178423
 30
0.0
 40
0.5
 50
90.0
 51
180.0
  0
ARC
  5
844E
  8
0
 10
146.00000000000011
 20
-64.294764572178423
 30
0.0
 40
0.5
 50
0.0
 51
90.0
  0
LINE
  5
844F
  8
0
 10
146.50000018999
 20
-64.294764181768045
 30
0.0
 11
146.50000018999
 21
-64.994764855300531
 31
0.0
  0
LINE
  5
8450
  8
0
 10
138.49999981001031
 20
-64.994764855300531
 30
0.0
 11
138.49999981001031
 21
-64.294764181768045
 31
0.0
  0
LINE
  5
8451
  8
0
 10
146.00000010803359
 20
-63.794765031134233
 30
0.0
 11
138.9999998919667
 21
-63.794765031134233
 31
0.0
  0
ARC
  5
8452
  8
0
 10
141.17499999999879
 20
-97.794765466248663
 30
0.0
 40
1.000000000000006
 50
95.414457496049735
 51
264.35180763089733
  0
ARC
  5
8453
  8
0
 10
145.14999999999881
 20
-97.794765466248435
 30
0.0
 40
1.0
 50
289.4420793752609
 51
0.0
  0
ARC
  5
8454
  8
0
 10
145.14999999999881
 20
-97.794765466248435
 30
0.0
 40
1.0000000000000011
 50
0.0
 51
70.551724171879101
  0
POLYLINE
  5
8455
  8
0
 66
     1
 10
0.0
 20
0.0
 30
0.0
 70
   128
  0
VERTEX
  5
88F9
  8
0
 10
140.33687828189861
 20
-97.249282207432401
 30
0.0
  0
VERTEX
  5
88FA
  8
0
 10
140.36395370028799
 20
-97.190290993249135
 30
0.0
  0
VERTEX
  5
88FB
  8
0
 10
140.44486677273991
 20
-97.068150831556025
 30
0.0
  0
VERTEX
  5
88FC
  8
0
 10
140.54517533630019
 20
-96.962978435849863
 30
0.0
  0
VERTEX
  5
88FD
  8
0
 10
140.66116713918629
 20
-96.881465358829203
 30
0.0
  0
VERTEX
  5
88FE
  8
0
 10
140.7953313738096
 20
-96.824482387101355
 30
0.0
  0
VERTEX
  5
88FF
  8
0
 10
140.93135895207411
 20
-96.797960182821456
 30
0.0
  0
VERTEX
  5
8900
  8
0
 10
141.07842235360181
 20
-96.798803961074071
 30
0.0
  0
VERTEX
  5
8901
  8
0
 10
141.2176825525228
 20
-96.825381113385873
 30
0.0
  0
VERTEX
  5
8902
  8
0
 10
141.35864509269479
 20
-96.877709334885793
 30
0.0
  0
VERTEX
  5
8903
  8
0
 10
141.49123772047341
 20
-96.952487087046805
 30
0.0
  0
VERTEX
  5
8904
  8
0
 10
141.61657976917809
 20
-97.050985625183301
 30
0.0
  0
VERTEX
  5
8905
  8
0
 10
141.7290782975021
 20
-97.171474551951604
 30
0.0
  0
VERTEX
  5
8906
  8
0
 10
141.824548349249
 20
-97.313413700258337
 30
0.0
  0
VERTEX
  5
8907
  8
0
 10
141.8947058101173
 20
-97.467553174292647
 30
0.0
  0
VERTEX
  5
8908
  8
0
 10
141.9387899641867
 20
-97.637132113968931
 30
0.0
  0
VERTEX
  5
8909
  8
0
 10
141.95180269423761
 20
-97.798959655856692
 30
0.0
  0
VERTEX
  5
890A
  8
0
 10
141.93649308988711
 20
-97.96565987745484
 30
0.0
  0
VERTEX
  5
890B
  8
0
 10
141.89635698683449
 20
-98.117320170795523
 30
0.0
  0
VERTEX
  5
890C
  8
0
 10
141.83109350968039
 20
-98.26423537561854
 30
0.0
  0
VERTEX
  5
890D
  8
0
 10
141.7437653127115
 20
-98.399217544293123
 30
0.0
  0
VERTEX
  5
890E
  8
0
 10
141.63488025776931
 20
-98.521365156566816
 30
0.0
  0
VERTEX
  5
890F
  8
0
 10
141.50764878839141
 20
-98.625841854309755
 30
0.0
  0
VERTEX
  5
8910
  8
0
 10
141.36410066392159
 20
-98.709257623350325
 30
0.0
  0
VERTEX
  5
8911
  8
0
 10
141.21835450176039
 20
-98.763962580060664
 30
0.0
  0
VERTEX
  5
8912
  8
0
 10
141.06546299997609
 20
-98.791945098137575
 30
0.0
  0
VERTEX
  5
8913
  8
0
 10
140.92653423547631
 20
-98.791100388562384
 30
0.0
  0
VERTEX
  5
8914
  8
0
 10
140.79006555955749
 20
-98.763433588838296
 30
0.0
  0
VERTEX
  5
8915
  8
0
 10
140.66912354435661
 20
-98.712445540523234
 30
0.0
  0
VERTEX
  5
8916
  8
0
 10
140.55728427599999
 20
-98.636793276464644
 30
0.0
  0
VERTEX
  5
8917
  8
0
 10
140.45890040695559
 20
-98.538625357842164
 30
0.0
  0
VERTEX
  5
8918
  8
0
 10
140.3744098916639
 20
-98.417674495076852
 30
0.0
  0
VERTEX
  5
8919
  8
0
 10
140.33776518373159
 20
-98.341609010994233
 30
0.0
  0
SEQEND
  5
891A
  8
0
  0
LINE
  5
8456
  8
0
 10
145.50000000000011
 20
-91.994764855300517
 30
0.0
 11
160.0
 21
-91.994764855300545
 31
0.0
  0
LINE
  5
84DD
  8
3
 10
313.5
 20
-91.171264855300393
 30
0.0
 11
313.5
 21
-86.818264855300654
 31
0.0
  0
LINE
  5
84DE
  8
0
 10
314.17649999999992
 20
-90.494764855300446
 30
0.0
 11
314.17649999999992
 21
-87.49476485530063
 31
0.0
  0
LINE
  5
84DF
  8
0
 10
320.82350000000008
 20
-90.494764855300446
 30
0.0
 11
320.82350000000002
 21
-87.494764855300531
 31
0.0
  0
LINE
  5
84E0
  8
3
 10
321.5
 20
-91.171264855300393
 30
0.0
 11
321.5
 21
-86.818264855300569
 31
0.0
  0
LINE
  5
84E1
  8
0
 10
320.82350000000002
 20
-90.494764855300403
 30
0.0
 11
314.17649999999992
 21
-90.494764855300446
 31
0.0
  0
LINE
  5
84E2
  8
0
 10
320.82350000000002
 20
-90.494764855300403
 30
0.0
 11
322.32350000000008
 21
-91.994764855300545
 31
0.0
  0
LINE
  5
84E3
  8
0
 10
314.17649999999998
 20
-90.494764855300403
 30
0.0
 11
312.67649999999998
 21
-91.994764855300502
 31
0.0
  0
LINE
  5
84E4
  8
0
 10
320.82350000000002
 20
-87.494764855300645
 30
0.0
 11
314.17649999999992
 21
-87.494764855300616
 31
0.0
  0
LINE
  5
84E5
  8
0
 10
320.82350000000002
 20
-87.494764855300645
 30
0.0
 11
322.32350000000008
 21
-85.994764855300502
 31
0.0
  0
LINE
  5
84E6
  8
0
 10
314.17649999999998
 20
-87.494764855300645
 30
0.0
 11
312.67649999999998
 21
-85.994764855300559
 31
0.0
  0
LINE
  5
84E8
  8
0
 10
261.0
 20
-85.994764855300517
 30
0.0
 11
274.0
 21
-85.994764855300517
 31
0.0
  0
LINE
  5
84EA
  8
0
 10
250.0
 20
-91.994764855300545
 30
0.0
 11
264.5
 21
-91.994764855300545
 31
0.0
  0
LINE
  5
84EB
  8
0
 10
261.0
 20
-82.494764855300531
 30
0.0
 11
261.0
 21
-85.994764855300517
 31
0.0
  0
LINE
  5
84EC
  8
0
 10
260.5
 20
-81.994764855300545
 30
0.0
 11
261.0
 21
-82.494764855300531
 31
0.0
  0
LINE
  5
84ED
  8
0
 10
274.0
 20
-82.494764855301156
 30
0.0
 11
274.0
 21
-85.994764855300517
 31
0.0
  0
LINE
  5
84EE
  8
0
 10
250.0
 20
-81.994764855300545
 30
0.0
 11
261.5
 21
-81.994764855300545
 31
0.0
  0
LINE
  5
84EF
  8
0
 10
274.50000000000023
 20
-81.994764855300872
 30
0.0
 11
274.00000000000023
 21
-82.494764855300843
 31
0.0
  0
LINE
  5
84F0
  8
0
 10
274.0
 20
-82.494764855301156
 30
0.0
 11
273.5
 21
-82.494764855301156
 31
0.0
  0
LINE
  5
84F1
  8
3
 10
263.5
 20
-91.171264855300393
 30
0.0
 11
263.5
 21
-90.494764855300531
 31
0.0
  0
LINE
  5
84F4
  8
3
 10
271.5
 20
-91.171264855300393
 30
0.0
 11
271.5
 21
-90.494764855300531
 31
0.0
  0
LINE
  5
84F6
  8
0
 10
271.16174999999998
 20
-90.833014855300476
 30
0.0
 11
272.32350000000008
 21
-91.994764855300545
 31
0.0
  0
LINE
  5
84F7
  8
0
 10
263.83825000000002
 20
-90.833014855300533
 30
0.0
 11
262.67649999999998
 21
-91.994764855300502
 31
0.0
  0
LINE
  5
84F9
  8
0
 10
271.5
 20
-86.818264855300569
 30
0.0
 11
272.32350000000008
 21
-85.994764855300502
 31
0.0
  0
LINE
  5
84FA
  8
0
 10
263.5
 20
-86.818264855300555
 30
0.0
 11
262.67649999999998
 21
-85.994764855300559
 31
0.0
  0
LINE
  5
84FD
  8
0
 10
261.5
 20
-85.794764855300485
 30
0.0
 11
261.69999999999999
 21
-85.994764855300517
 31
0.0
  0
LINE
  5
84FE
  8
0
 10
273.30000000000001
 20
-85.994764855300517
 30
0.0
 11
273.5
 21
-85.794764855300485
 31
0.0
  0
LINE
  5
84FF
  8
0
 10
273.5
 20
-85.794764855300485
 30
0.0
 11
273.5
 21
-80.194764855300519
 31
0.0
  0
LINE
  5
8500
  8
0
 10
261.5
 20
-80.194764855300519
 30
0.0
 11
261.5
 21
-85.794764855300485
 31
0.0
  0
LINE
  5
8501
  8
0
 10
273.5
 20
-80.194764855300519
 30
0.0
 11
273.30000000000001
 21
-79.994764855300531
 31
0.0
  0
LINE
  5
8502
  8
0
 10
261.69999999999999
 20
-79.994764855300531
 30
0.0
 11
261.5
 21
-80.194764855300519
 31
0.0
  0
ARC
  5
8503
  8
0
 10
255.50000000000011
 20
-65.494764855300531
 30
0.0
 40
0.5
 50
90.0
 51
180.0
  0
ARC
  5
8504
  8
0
 10
279.5
 20
-65.494764855300531
 30
0.0
 40
0.5
 50
0.0
 51
90.0
  0
ARC
  5
8505
  8
0
 10
279.5
 20
-67.494764855300474
 30
0.0
 40
0.5
 50
270.0
 51
0.0
  0
ARC
  5
8506
  8
0
 10
255.50000000000011
 20
-67.494764855300474
 30
0.0
 40
0.5
 50
180.0
 51
270.0
  0
LINE
  5
8507
  8
0
 10
280.0
 20
-67.494764855300474
 30
0.0
 11
280.0
 21
-65.494764855300531
 31
0.0
  0
LINE
  5
8508
  8
0
 10
255.00000000000011
 20
-65.494764855300531
 30
0.0
 11
255.00000000000011
 21
-67.494764855300474
 31
0.0
  0
ARC
  5
8509
  8
0
 10
277.5
 20
-71.994764855300531
 30
0.0
 40
4.0000000000000142
 50
90.0
 51
180.0
  0
ARC
  5
850A
  8
0
 10
257.50000000000011
 20
-71.994764855300531
 30
0.0
 40
4.0000000000000142
 50
0.0
 51
90.0
  0
LINE
  5
850B
  8
0
 10
273.5
 20
-73.494764855300531
 30
0.0
 11
273.5
 21
-71.994764855300531
 31
0.0
  0
LINE
  5
850C
  8
0
 10
261.5
 20
-71.994764855300531
 30
0.0
 11
261.5
 21
-73.494764855300531
 31
0.0
  0
LINE
  5
850D
  8
0
 10
263.5
 20
-85.994764855300517
 30
0.0
 11
263.5
 21
-90.494764855300531
 31
0.0
  0
LINE
  5
850E
  8
0
 10
271.5
 20
-90.494764855300531
 30
0.0
 11
271.5
 21
-85.994764855300517
 31
0.0
  0
LINE
  5
850F
  8
0
 10
263.5
 20
-90.494764855300531
 30
0.0
 11
264.5
 21
-91.494764855300531
 31
0.0
  0
LINE
  5
8510
  8
0
 10
270.5
 20
-91.494764855300531
 30
0.0
 11
271.5
 21
-90.494764855300531
 31
0.0
  0
LINE
  5
8511
  8
0
 10
264.5
 20
-91.494764855300531
 30
0.0
 11
264.5
 21
-103.4947648553004
 31
0.0
  0
LINE
  5
8512
  8
0
 10
270.5
 20
-96.805745217898306
 30
0.0
 11
270.5
 21
-91.494764855300531
 31
0.0
  0
LINE
  5
8513
  8
0
 10
270.5
 20
-103.4947648553004
 30
0.0
 11
270.5
 21
-98.78533647346049
 31
0.0
  0
LINE
  5
8514
  8
0
 10
264.5
 20
-103.4947648553004
 30
0.0
 11
264.90192378864663
 21
-104.9947648553005
 31
0.0
  0
LINE
  5
8515
  8
0
 10
270.09807621135337
 20
-104.9947648553005
 30
0.0
 11
270.5
 21
-103.4947648553004
 31
0.0
  0
LINE
  5
8517
  8
0
 10
261.69999999999999
 20
-79.994764855300531
 30
0.0
 11
273.30000000000001
 21
-79.994764855300531
 31
0.0
  0
LINE
  5
8518
  8
0
 10
255.50000000000011
 20
-64.994764855300531
 30
0.0
 11
279.5
 21
-64.994764855300531
 31
0.0
  0
LINE
  5
8519
  8
0
 10
279.5
 20
-67.994764855300474
 30
0.0
 11
255.50000000000011
 21
-67.994764855300474
 31
0.0
  0
LINE
  5
851A
  8
0
 10
262.5
 20
-74.494764855300531
 30
0.0
 11
261.5
 21
-73.494764855300531
 31
0.0
  0
LINE
  5
851B
  8
0
 10
273.5
 20
-73.494764855300531
 30
0.0
 11
272.5
 21
-74.494764855300531
 31
0.0
  0
LINE
  5
851C
  8
0
 10
272.5
 20
-74.494764855300531
 30
0.0
 11
272.5
 21
-79.994764855300531
 31
0.0
  0
LINE
  5
851D
  8
0
 10
262.5
 20
-79.494764855300474
 30
0.0
 11
272.5
 21
-79.494764855300474
 31
0.0
  0
LINE
  5
851E
  8
0
 10
262.5
 20
-79.994764855300531
 30
0.0
 11
262.5
 21
-74.494764855300531
 31
0.0
  0
LINE
  5
851F
  8
0
 10
263.5
 20
-90.494764855300531
 30
0.0
 11
271.5
 21
-90.494764855300531
 31
0.0
  0
LINE
  5
8520
  8
0
 10
264.5
 20
-91.494764855300531
 30
0.0
 11
270.5
 21
-91.494764855300531
 31
0.0
  0
POLYLINE
  5
8521
  8
0
 66
     1
 10
0.0
 20
0.0
 30
0.0
 70
   128
  0
VERTEX
  5
891B
  8
0
 10
270.5
 20
-96.805745217898306
 30
0.0
  0
VERTEX
  5
891C
  8
0
 10
270.5
 20
-96.805745217898306
 30
0.0
  0
VERTEX
  5
891D
  8
0
 10
270.47338045598872
 20
-96.877709057621914
 30
0.0
  0
VERTEX
  5
891E
  8
0
 10
270.4245867811328
 20
-97.050985425377036
 30
0.0
  0
VERTEX
  5
891F
  8
0
 10
270.36909378902368
 20
-97.313413455371034
 30
0.0
  0
VERTEX
  5
8920
  8
0
 10
270.33281631624618
 20
-97.63713147815568
 30
0.0
  0
VERTEX
  5
8921
  8
0
 10
270.33358514002498
 20
-97.965658815901534
 30
0.0
  0
VERTEX
  5
8922
  8
0
 10
270.3671243838869
 20
-98.264235016949314
 30
0.0
  0
VERTEX
  5
8923
  8
0
 10
270.42026481689049
 20
-98.521364195217842
 30
0.0
  0
VERTEX
  5
8924
  8
0
 10
270.47259091281808
 20
-98.70925746596933
 30
0.0
  0
VERTEX
  5
8925
  8
0
 10
270.5
 20
-98.78533647346049
 30
0.0
  0
VERTEX
  5
8926
  8
0
 10
270.5
 20
-98.78533647346049
 30
0.0
  0
SEQEND
  5
8927
  8
0
  0
LINE
  5
8522
  8
0
 10
264.5
 20
-103.4947648553004
 30
0.0
 11
270.5
 21
-103.4947648553004
 31
0.0
  0
LINE
  5
8523
  8
0
 10
270.09807621135337
 20
-104.9947648553005
 30
0.0
 11
264.90192378864663
 21
-104.9947648553005
 31
0.0
  0
LINE
  5
8524
  8
0
 10
273.5
 20
-71.994764855300531
 30
0.0
 11
261.5
 21
-71.994764855300531
 31
0.0
  0
LINE
  5
8525
  8
3
 10
270.82350000000019
 20
-91.17126485530045
 30
0.0
 11
270.82350000000019
 21
-85.994764855300588
 31
0.0
  0
LINE
  5
8526
  8
3
 10
264.17649999999998
 20
-91.17126485530045
 30
0.0
 11
264.17649999999981
 21
-85.994764855300588
 31
0.0
  0
LINE
  5
8527
  8
1
 10
267.5
 20
-109.9947648553005
 30
0.0
 11
267.5
 21
-58.794765031134233
 31
0.0
  0
ARC
  5
8528
  8
0
 10
264.0
 20
-64.294764572178423
 30
0.0
 40
0.5
 50
90.0
 51
180.0
  0
ARC
  5
8529
  8
0
 10
271.0
 20
-64.294764572178423
 30
0.0
 40
0.5
 50
0.0
 51
90.0
  0
LINE
  5
852A
  8
0
 10
271.50000018998981
 20
-64.294764181768045
 30
0.0
 11
271.50000018998981
 21
-64.994764855300531
 31
0.0
  0
LINE
  5
852B
  8
0
 10
263.49999981001019
 20
-64.994764855300531
 30
0.0
 11
263.49999981001019
 21
-64.294764181768045
 31
0.0
  0
LINE
  5
852C
  8
0
 10
271.00000010803342
 20
-63.794765031134233
 30
0.0
 11
263.99999989196658
 21
-63.794765031134233
 31
0.0
  0
ARC
  5
852D
  8
0
 10
266.17499999999882
 20
-97.794765466248663
 30
0.0
 40
1.000000000000006
 50
95.414457496049735
 51
264.35180763089733
  0
ARC
  5
852E
  8
0
 10
270.14999999999873
 20
-97.794765466248435
 30
0.0
 40
1.0
 50
289.4420793752609
 51
0.0
  0
ARC
  5
852F
  8
0
 10
270.14999999999873
 20
-97.794765466248435
 30
0.0
 40
1.0000000000000011
 50
0.0
 51
70.551724171879101
  0
POLYLINE
  5
8530
  8
0
 66
     1
 10
0.0
 20
0.0
 30
0.0
 70
   128
  0
VERTEX
  5
8928
  8
0
 10
265.33687828189858
 20
-97.249282207432401
 30
0.0
  0
VERTEX
  5
8929
  8
0
 10
265.36395370028799
 20
-97.190290993249135
 30
0.0
  0
VERTEX
  5
892A
  8
0
 10
265.44486677273989
 20
-97.068150831556025
 30
0.0
  0
VERTEX
  5
892B
  8
0
 10
265.54517533630019
 20
-96.962978435849863
 30
0.0
  0
VERTEX
  5
892C
  8
0
 10
265.66116713918632
 20
-96.881465358829203
 30
0.0
  0
VERTEX
  5
892D
  8
0
 10
265.79533137380957
 20
-96.824482387101355
 30
0.0
  0
VERTEX
  5
892E
  8
0
 10
265.93135895207411
 20
-96.797960182821456
 30
0.0
  0
VERTEX
  5
892F
  8
0
 10
266.07842235360181
 20
-96.798803961074071
 30
0.0
  0
VERTEX
  5
8930
  8
0
 10
266.21768255252277
 20
-96.825381113385873
 30
0.0
  0
VERTEX
  5
8931
  8
0
 10
266.35864509269481
 20
-96.877709334885793
 30
0.0
  0
VERTEX
  5
8932
  8
0
 10
266.49123772047352
 20
-96.952487087046805
 30
0.0
  0
VERTEX
  5
8933
  8
0
 10
266.61657976917809
 20
-97.050985625183301
 30
0.0
  0
VERTEX
  5
8934
  8
0
 10
266.72907829750221
 20
-97.171474551951604
 30
0.0
  0
VERTEX
  5
8935
  8
0
 10
266.82454834924903
 20
-97.313413700258337
 30
0.0
  0
VERTEX
  5
8936
  8
0
 10
266.89470581011727
 20
-97.467553174292647
 30
0.0
  0
VERTEX
  5
8937
  8
0
 10
266.93878996418681
 20
-97.637132113968931
 30
0.0
  0
VERTEX
  5
8938
  8
0
 10
266.95180269423759
 20
-97.798959655856692
 30
0.0
  0
VERTEX
  5
8939
  8
0
 10
266.93649308988711
 20
-97.96565987745484
 30
0.0
  0
VERTEX
  5
893A
  8
0
 10
266.89635698683452
 20
-98.117320170795523
 30
0.0
  0
VERTEX
  5
893B
  8
0
 10
266.83109350968039
 20
-98.26423537561854
 30
0.0
  0
VERTEX
  5
893C
  8
0
 10
266.7437653127115
 20
-98.399217544293123
 30
0.0
  0
VERTEX
  5
893D
  8
0
 10
266.63488025776928
 20
-98.521365156566816
 30
0.0
  0
VERTEX
  5
893E
  8
0
 10
266.50764878839141
 20
-98.625841854309755
 30
0.0
  0
VERTEX
  5
893F
  8
0
 10
266.36410066392159
 20
-98.709257623350325
 30
0.0
  0
VERTEX
  5
8940
  8
0
 10
266.21835450176042
 20
-98.763962580060664
 30
0.0
  0
VERTEX
  5
8941
  8
0
 10
266.06546299997598
 20
-98.791945098137575
 30
0.0
  0
VERTEX
  5
8942
  8
0
 10
265.92653423547631
 20
-98.791100388562384
 30
0.0
  0
VERTEX
  5
8943
  8
0
 10
265.79006555955738
 20
-98.763433588838296
 30
0.0
  0
VERTEX
  5
8944
  8
0
 10
265.66912354435658
 20
-98.712445540523234
 30
0.0
  0
VERTEX
  5
8945
  8
0
 10
265.55728427600002
 20
-98.636793276464644
 30
0.0
  0
VERTEX
  5
8946
  8
0
 10
265.45890040695548
 20
-98.538625357842164
 30
0.0
  0
VERTEX
  5
8947
  8
0
 10
265.37440989166379
 20
-98.417674495076852
 30
0.0
  0
VERTEX
  5
8948
  8
0
 10
265.33776518373151
 20
-98.341609010994233
 30
0.0
  0
SEQEND
  5
8949
  8
0
  0
LINE
  5
8531
  8
0
 10
270.5
 20
-91.994764855300517
 30
0.0
 11
285.0
 21
-91.994764855300545
 31
0.0
  0
LINE
  5
8532
  8
0
 10
261.50000000000011
 20
-82.494764855300573
 30
0.0
 11
261.0
 21
-82.494764855300531
 31
0.0
  0
LINE
  5
8533
  8
0
 10
273.5
 20
-81.994764855300545
 30
0.0
 11
285.0
 21
-81.994764855300545
 31
0.0
  0
LINE
  5
8534
  8
0
 10
125.0
 20
-211.0
 30
0.0
 11
160.0
 21
-211.0
 31
0.0
  0
LINE
  5
8535
  8
0
 10
125.0
 20
-217.0
 30
0.0
 11
139.50000000000011
 21
-217.0
 31
0.0
  0
LINE
  5
8537
  8
0
 10
146.5
 20
-211.0
 30
0.0
 11
146.5
 21
-216.5
 31
0.0
  0
LINE
  5
8538
  8
0
 10
138.5
 20
-211.0
 30
0.0
 11
138.5
 21
-216.5
 31
0.0
  0
LINE
  5
8539
  8
0
 10
138.5
 20
-211.5
 30
0.0
 11
138.0
 21
-211.0
 31
0.0
  0
LINE
  5
853B
  8
0
 10
146.5
 20
-211.50000000000011
 30
0.0
 11
146.99999999999989
 21
-211.00000000000011
 31
0.0
  0
LINE
  5
853C
  8
0
 10
138.5
 20
-216.5
 30
0.0
 11
138.0
 21
-217.0
 31
0.0
  0
LINE
  5
853D
  8
0
 10
138.5
 20
-216.5
 30
0.0
 11
146.5
 21
-216.5
 31
0.0
  0
LINE
  5
853E
  8
0
 10
146.5
 20
-216.5
 30
0.0
 11
146.99999999999989
 21
-216.99999999999989
 31
0.0
  0
LINE
  5
8541
  8
0
 10
261.50000000000023
 20
-210.80000000000001
 30
0.0
 11
261.70000000000027
 21
-211.0
 31
0.0
  0
LINE
  5
8542
  8
0
 10
273.30000000000018
 20
-211.0
 30
0.0
 11
273.50000000000023
 21
-210.80000000000001
 31
0.0
  0
LINE
  5
8543
  8
0
 10
273.50000000000023
 20
-210.80000000000001
 30
0.0
 11
273.50000000000023
 21
-205.19999999999999
 31
0.0
  0
LINE
  5
8544
  8
0
 10
261.50000000000023
 20
-205.19999999999999
 30
0.0
 11
261.50000000000023
 21
-210.80000000000001
 31
0.0
  0
LINE
  5
8545
  8
0
 10
273.50000000000023
 20
-205.19999999999999
 30
0.0
 11
273.30000000000018
 21
-205.0
 31
0.0
  0
LINE
  5
8546
  8
0
 10
261.70000000000027
 20
-205.0
 30
0.0
 11
261.50000000000023
 21
-205.19999999999999
 31
0.0
  0
ARC
  5
8547
  8
0
 10
255.50000000000031
 20
-190.5
 30
0.0
 40
0.5
 50
90.0
 51
180.0
  0
ARC
  5
8548
  8
0
 10
279.50000000000023
 20
-190.5
 30
0.0
 40
0.5
 50
0.0
 51
90.0
  0
ARC
  5
8549
  8
0
 10
279.50000000000023
 20
-192.5
 30
0.0
 40
0.5
 50
270.0
 51
0.0
  0
ARC
  5
854A
  8
0
 10
255.50000000000031
 20
-192.5
 30
0.0
 40
0.5
 50
180.0
 51
270.0
  0
LINE
  5
854B
  8
0
 10
280.00000000000023
 20
-192.5
 30
0.0
 11
280.00000000000023
 21
-190.5
 31
0.0
  0
LINE
  5
854C
  8
0
 10
255.00000000000031
 20
-190.5
 30
0.0
 11
255.00000000000031
 21
-192.5
 31
0.0
  0
ARC
  5
854D
  8
0
 10
277.50000000000023
 20
-197.0
 30
0.0
 40
4.0000000000000142
 50
90.0
 51
180.0
  0
ARC
  5
854E
  8
0
 10
257.50000000000028
 20
-197.0
 30
0.0
 40
4.0000000000000142
 50
0.0
 51
90.0
  0
LINE
  5
854F
  8
0
 10
273.50000000000023
 20
-198.5
 30
0.0
 11
273.50000000000023
 21
-197.0
 31
0.0
  0
LINE
  5
8550
  8
0
 10
261.50000000000023
 20
-197.0
 30
0.0
 11
261.50000000000023
 21
-198.5
 31
0.0
  0
LINE
  5
8553
  8
0
 10
263.50000000000023
 20
-215.5
 30
0.0
 11
264.50000000000023
 21
-216.5
 31
0.0
  0
LINE
  5
8554
  8
0
 10
270.50000000000023
 20
-216.5
 30
0.0
 11
271.50000000000023
 21
-215.5
 31
0.0
  0
LINE
  5
8555
  8
0
 10
264.50000000000023
 20
-216.5
 30
0.0
 11
264.50000000000023
 21
-228.5
 31
0.0
  0
LINE
  5
8556
  8
0
 10
270.50000000000023
 20
-221.8109803625978
 30
0.0
 11
270.50000000000023
 21
-216.5
 31
0.0
  0
LINE
  5
8557
  8
0
 10
270.50000000000023
 20
-228.5
 30
0.0
 11
270.50000000000023
 21
-223.79057161815999
 31
0.0
  0
LINE
  5
8558
  8
0
 10
264.50000000000023
 20
-228.5
 30
0.0
 11
264.90192378864691
 21
-230.0
 31
0.0
  0
LINE
  5
8559
  8
0
 10
270.0980762113536
 20
-230.0
 30
0.0
 11
270.50000000000023
 21
-228.5
 31
0.0
  0
LINE
  5
855B
  8
0
 10
261.70000000000027
 20
-205.0
 30
0.0
 11
273.30000000000018
 21
-205.0
 31
0.0
  0
LINE
  5
855C
  8
0
 10
255.50000000000031
 20
-190.0
 30
0.0
 11
279.50000000000023
 21
-190.0
 31
0.0
  0
LINE
  5
855D
  8
0
 10
279.50000000000023
 20
-192.99999999999989
 30
0.0
 11
255.50000000000031
 21
-192.99999999999989
 31
0.0
  0
LINE
  5
855E
  8
0
 10
262.50000000000023
 20
-199.5
 30
0.0
 11
261.50000000000023
 21
-198.5
 31
0.0
  0
LINE
  5
855F
  8
0
 10
273.50000000000023
 20
-198.5
 30
0.0
 11
272.50000000000023
 21
-199.5
 31
0.0
  0
LINE
  5
8560
  8
0
 10
272.50000000000023
 20
-199.5
 30
0.0
 11
272.5000000000004
 21
-205.0
 31
0.0
  0
LINE
  5
8561
  8
0
 10
262.50000000000023
 20
-204.5
 30
0.0
 11
272.50000000000023
 21
-204.5
 31
0.0
  0
LINE
  5
8562
  8
0
 10
262.50000000000023
 20
-205.0
 30
0.0
 11
262.50000000000023
 21
-199.5
 31
0.0
  0
LINE
  5
8563
  8
0
 10
263.50000000000023
 20
-215.5
 30
0.0
 11
271.50000000000023
 21
-215.5
 31
0.0
  0
POLYLINE
  5
8565
  8
0
 66
     1
 10
0.0
 20
0.0
 30
0.0
 70
   128
  0
VERTEX
  5
894A
  8
0
 10
270.50000000000023
 20
-221.8109803625978
 30
0.0
  0
VERTEX
  5
894B
  8
0
 10
270.50000000000023
 20
-221.8109803625978
 30
0.0
  0
VERTEX
  5
894C
  8
0
 10
270.47338045598889
 20
-221.8829442023214
 30
0.0
  0
VERTEX
  5
894D
  8
0
 10
270.42458678113297
 20
-222.0562205700765
 30
0.0
  0
VERTEX
  5
894E
  8
0
 10
270.36909378902402
 20
-222.31864860007059
 30
0.0
  0
VERTEX
  5
894F
  8
0
 10
270.33281631624641
 20
-222.64236662285521
 30
0.0
  0
VERTEX
  5
8950
  8
0
 10
270.33358514002521
 20
-222.97089396060099
 30
0.0
  0
VERTEX
  5
8951
  8
0
 10
270.36712438388707
 20
-223.2694701616488
 30
0.0
  0
VERTEX
  5
8952
  8
0
 10
270.42026481689072
 20
-223.5265993399174
 30
0.0
  0
VERTEX
  5
8953
  8
0
 10
270.4725909128183
 20
-223.7144926106688
 30
0.0
  0
VERTEX
  5
8954
  8
0
 10
270.50000000000023
 20
-223.79057161815999
 30
0.0
  0
VERTEX
  5
8955
  8
0
 10
270.50000000000023
 20
-223.79057161815999
 30
0.0
  0
SEQEND
  5
8956
  8
0
  0
LINE
  5
8566
  8
0
 10
264.50000000000023
 20
-228.5
 30
0.0
 11
270.50000000000023
 21
-228.5
 31
0.0
  0
LINE
  5
8567
  8
0
 10
270.0980762113536
 20
-230.0
 30
0.0
 11
264.90192378864691
 21
-230.0
 31
0.0
  0
LINE
  5
8568
  8
0
 10
273.50000000000023
 20
-197.0
 30
0.0
 11
261.50000000000023
 21
-197.0
 31
0.0
  0
LINE
  5
8569
  8
3
 10
270.82350000000042
 20
-216.17649999999989
 30
0.0
 11
270.82350000000042
 21
-211.00000000000011
 31
0.0
  0
LINE
  5
856A
  8
3
 10
264.17650000000032
 20
-216.17649999999989
 30
0.0
 11
264.1765000000002
 21
-211.00000000000011
 31
0.0
  0
LINE
  5
856B
  8
1
 10
267.50000000000023
 20
-235.0
 30
0.0
 11
267.50000000000023
 21
-183.8000001758337
 31
0.0
  0
ARC
  5
856C
  8
0
 10
264.0000000000004
 20
-189.29999971687789
 30
0.0
 40
0.5
 50
90.0
 51
180.0
  0
ARC
  5
856D
  8
0
 10
271.00000000000028
 20
-189.29999971687789
 30
0.0
 40
0.5
 50
0.0
 51
90.0
  0
LINE
  5
856E
  8
0
 10
271.50000018999009
 20
-189.29999932646751
 30
0.0
 11
271.50000018999009
 21
-190.0
 31
0.0
  0
LINE
  5
856F
  8
0
 10
263.49999981001048
 20
-190.0
 30
0.0
 11
263.49999981001048
 21
-189.29999932646751
 31
0.0
  0
LINE
  5
8570
  8
0
 10
271.00000010803382
 20
-188.8000001758337
 30
0.0
 11
263.99999989196692
 21
-188.8000001758337
 31
0.0
  0
ARC
  5
8571
  8
0
 10
266.17499999999899
 20
-222.80000061094819
 30
0.0
 40
1.000000000000006
 50
95.414457496049735
 51
264.35180763089733
  0
ARC
  5
8572
  8
0
 10
270.14999999999901
 20
-222.8000006109479
 30
0.0
 40
1.0
 50
289.4420793752609
 51
0.0
  0
ARC
  5
8573
  8
0
 10
270.14999999999901
 20
-222.8000006109479
 30
0.0
 40
1.0000000000000011
 50
0.0
 51
70.551724171879101
  0
POLYLINE
  5
8574
  8
0
 66
     1
 10
0.0
 20
0.0
 30
0.0
 70
   128
  0
VERTEX
  5
8957
  8
0
 10
265.33687828189892
 20
-222.2545173521319
 30
0.0
  0
VERTEX
  5
8958
  8
0
 10
265.36395370028822
 20
-222.1955261379486
 30
0.0
  0
VERTEX
  5
8959
  8
0
 10
265.44486677274023
 20
-222.07338597625551
 30
0.0
  0
VERTEX
  5
895A
  8
0
 10
265.54517533630042
 20
-221.96821358054939
 30
0.0
  0
VERTEX
  5
895B
  8
0
 10
265.66116713918649
 20
-221.88670050352869
 30
0.0
  0
VERTEX
  5
895C
  8
0
 10
265.79533137380992
 20
-221.8297175318009
 30
0.0
  0
VERTEX
  5
895D
  8
0
 10
265.93135895207428
 20
-221.803195327521
 30
0.0
  0
VERTEX
  5
895E
  8
0
 10
266.07842235360198
 20
-221.8040391057736
 30
0.0
  0
VERTEX
  5
895F
  8
0
 10
266.217682552523
 20
-221.8306162580854
 30
0.0
  0
VERTEX
  5
8960
  8
0
 10
266.35864509269499
 20
-221.88294447958529
 30
0.0
  0
VERTEX
  5
8961
  8
0
 10
266.49123772047369
 20
-221.95772223174629
 30
0.0
  0
VERTEX
  5
8962
  8
0
 10
266.61657976917832
 20
-222.0562207698828
 30
0.0
  0
VERTEX
  5
8963
  8
0
 10
266.72907829750238
 20
-222.1767096966511
 30
0.0
  0
VERTEX
  5
8964
  8
0
 10
266.8245483492492
 20
-222.31864884495781
 30
0.0
  0
VERTEX
  5
8965
  8
0
 10
266.89470581011761
 20
-222.47278831899209
 30
0.0
  0
VERTEX
  5
8966
  8
0
 10
266.93878996418698
 20
-222.6423672586684
 30
0.0
  0
VERTEX
  5
8967
  8
0
 10
266.95180269423781
 20
-222.80419480055619
 30
0.0
  0
VERTEX
  5
8968
  8
0
 10
266.93649308988728
 20
-222.97089502215431
 30
0.0
  0
VERTEX
  5
8969
  8
0
 10
266.89635698683469
 20
-223.12255531549499
 30
0.0
  0
VERTEX
  5
896A
  8
0
 10
266.83109350968061
 20
-223.26947052031801
 30
0.0
  0
VERTEX
  5
896B
  8
0
 10
266.74376531271167
 20
-223.40445268899259
 30
0.0
  0
VERTEX
  5
896C
  8
0
 10
266.63488025776951
 20
-223.52660030126631
 30
0.0
  0
VERTEX
  5
896D
  8
0
 10
266.50764878839158
 20
-223.63107699900931
 30
0.0
  0
VERTEX
  5
896E
  8
0
 10
266.36410066392182
 20
-223.71449276804981
 30
0.0
  0
VERTEX
  5
896F
  8
0
 10
266.21835450176059
 20
-223.7691977247602
 30
0.0
  0
VERTEX
  5
8970
  8
0
 10
266.06546299997632
 20
-223.7971802428371
 30
0.0
  0
VERTEX
  5
8971
  8
0
 10
265.92653423547648
 20
-223.7963355332619
 30
0.0
  0
VERTEX
  5
8972
  8
0
 10
265.79006555955772
 20
-223.76866873353779
 30
0.0
  0
VERTEX
  5
8973
  8
0
 10
265.66912354435681
 20
-223.71768068522269
 30
0.0
  0
VERTEX
  5
8974
  8
0
 10
265.55728427600019
 20
-223.64202842116421
 30
0.0
  0
VERTEX
  5
8975
  8
0
 10
265.45890040695582
 20
-223.54386050254169
 30
0.0
  0
VERTEX
  5
8976
  8
0
 10
265.37440989166407
 20
-223.42290963977641
 30
0.0
  0
VERTEX
  5
8977
  8
0
 10
265.33776518373179
 20
-223.3468441556937
 30
0.0
  0
SEQEND
  5
8978
  8
0
  0
LINE
  5
8575
  8
0
 10
136.50000000000011
 20
-210.80000000000001
 30
0.0
 11
136.69999999999999
 21
-211.0
 31
0.0
  0
LINE
  5
8576
  8
0
 10
148.30000000000001
 20
-211.0
 30
0.0
 11
148.50000000000011
 21
-210.80000000000001
 31
0.0
  0
LINE
  5
8577
  8
0
 10
148.50000000000011
 20
-210.80000000000001
 30
0.0
 11
148.50000000000011
 21
-205.19999999999999
 31
0.0
  0
LINE
  5
8578
  8
0
 10
136.50000000000011
 20
-205.19999999999999
 30
0.0
 11
136.50000000000011
 21
-210.80000000000001
 31
0.0
  0
LINE
  5
8579
  8
0
 10
148.50000000000011
 20
-205.19999999999999
 30
0.0
 11
148.30000000000001
 21
-205.0
 31
0.0
  0
LINE
  5
857A
  8
0
 10
136.69999999999999
 20
-205.0
 30
0.0
 11
136.50000000000011
 21
-205.19999999999999
 31
0.0
  0
ARC
  5
857B
  8
0
 10
130.50000000000011
 20
-190.5
 30
0.0
 40
0.5
 50
90.0
 51
180.0
  0
ARC
  5
857C
  8
0
 10
154.50000000000011
 20
-190.5
 30
0.0
 40
0.5
 50
0.0
 51
90.0
  0
ARC
  5
857D
  8
0
 10
154.50000000000011
 20
-192.5
 30
0.0
 40
0.5
 50
270.0
 51
0.0
  0
ARC
  5
857E
  8
0
 10
130.50000000000011
 20
-192.5
 30
0.0
 40
0.5
 50
180.0
 51
270.0
  0
LINE
  5
857F
  8
0
 10
155.00000000000011
 20
-192.5
 30
0.0
 11
155.00000000000011
 21
-190.5
 31
0.0
  0
LINE
  5
8580
  8
0
 10
130.00000000000011
 20
-190.5
 30
0.0
 11
130.00000000000011
 21
-192.5
 31
0.0
  0
ARC
  5
8581
  8
0
 10
152.50000000000011
 20
-197.0
 30
0.0
 40
4.0000000000000142
 50
90.0
 51
180.0
  0
ARC
  5
8582
  8
0
 10
132.50000000000011
 20
-197.0
 30
0.0
 40
4.0000000000000142
 50
0.0
 51
90.0
  0
LINE
  5
8583
  8
0
 10
148.50000000000011
 20
-198.5
 30
0.0
 11
148.50000000000011
 21
-197.0
 31
0.0
  0
LINE
  5
8584
  8
0
 10
136.50000000000011
 20
-197.0
 30
0.0
 11
136.50000000000011
 21
-198.5
 31
0.0
  0
LINE
  5
8587
  8
0
 10
138.50000000000011
 20
-215.5
 30
0.0
 11
139.50000000000011
 21
-216.5
 31
0.0
  0
LINE
  5
8588
  8
0
 10
145.50000000000011
 20
-216.5
 30
0.0
 11
146.50000000000011
 21
-215.5
 31
0.0
  0
LINE
  5
8589
  8
0
 10
139.50000000000011
 20
-216.5
 30
0.0
 11
139.50000000000011
 21
-228.5
 31
0.0
  0
LINE
  5
858A
  8
0
 10
145.50000000000011
 20
-221.8109803625978
 30
0.0
 11
145.50000000000011
 21
-216.5
 31
0.0
  0
LINE
  5
858B
  8
0
 10
145.50000000000011
 20
-228.5
 30
0.0
 11
145.50000000000011
 21
-223.79057161815999
 31
0.0
  0
LINE
  5
858C
  8
0
 10
139.50000000000011
 20
-228.5
 30
0.0
 11
139.90192378864671
 21
-230.0
 31
0.0
  0
LINE
  5
858D
  8
0
 10
145.09807621135329
 20
-230.0
 30
0.0
 11
145.50000000000011
 21
-228.5
 31
0.0
  0
LINE
  5
858E
  8
0
 10
148.30000000000001
 20
-211.0
 30
0.0
 11
136.69999999999999
 21
-211.0
 31
0.0
  0
LINE
  5
858F
  8
0
 10
136.69999999999999
 20
-205.0
 30
0.0
 11
148.30000000000001
 21
-205.0
 31
0.0
  0
LINE
  5
8590
  8
0
 10
130.50000000000011
 20
-190.0
 30
0.0
 11
154.50000000000011
 21
-190.0
 31
0.0
  0
LINE
  5
8591
  8
0
 10
154.50000000000011
 20
-192.99999999999989
 30
0.0
 11
130.50000000000011
 21
-192.99999999999989
 31
0.0
  0
LINE
  5
8592
  8
0
 10
137.50000000000011
 20
-199.5
 30
0.0
 11
136.50000000000011
 21
-198.5
 31
0.0
  0
LINE
  5
8593
  8
0
 10
148.50000000000011
 20
-198.5
 30
0.0
 11
147.5
 21
-199.5
 31
0.0
  0
LINE
  5
8594
  8
0
 10
147.50000000000011
 20
-199.5
 30
0.0
 11
147.50000000000011
 21
-205.0
 31
0.0
  0
LINE
  5
8595
  8
0
 10
137.50000000000011
 20
-204.5
 30
0.0
 11
147.50000000000011
 21
-204.5
 31
0.0
  0
LINE
  5
8596
  8
0
 10
137.50000000000011
 20
-205.0
 30
0.0
 11
137.50000000000011
 21
-199.5
 31
0.0
  0
LINE
  5
8597
  8
0
 10
138.50000000000011
 20
-215.5
 30
0.0
 11
146.50000000000011
 21
-215.5
 31
0.0
  0
POLYLINE
  5
8599
  8
0
 66
     1
 10
0.0
 20
0.0
 30
0.0
 70
   128
  0
VERTEX
  5
8979
  8
0
 10
145.50000000000011
 20
-221.8109803625978
 30
0.0
  0
VERTEX
  5
897A
  8
0
 10
145.50000000000011
 20
-221.8109803625978
 30
0.0
  0
VERTEX
  5
897B
  8
0
 10
145.4733804559888
 20
-221.8829442023214
 30
0.0
  0
VERTEX
  5
897C
  8
0
 10
145.42458678113289
 20
-222.0562205700765
 30
0.0
  0
VERTEX
  5
897D
  8
0
 10
145.36909378902371
 20
-222.31864860007059
 30
0.0
  0
VERTEX
  5
897E
  8
0
 10
145.33281631624621
 20
-222.64236662285521
 30
0.0
  0
VERTEX
  5
897F
  8
0
 10
145.33358514002501
 20
-222.97089396060099
 30
0.0
  0
VERTEX
  5
8980
  8
0
 10
145.3671243838869
 20
-223.2694701616488
 30
0.0
  0
VERTEX
  5
8981
  8
0
 10
145.42026481689049
 20
-223.5265993399174
 30
0.0
  0
VERTEX
  5
8982
  8
0
 10
145.47259091281811
 20
-223.7144926106688
 30
0.0
  0
VERTEX
  5
8983
  8
0
 10
145.50000000000011
 20
-223.79057161815999
 30
0.0
  0
VERTEX
  5
8984
  8
0
 10
145.50000000000011
 20
-223.79057161815999
 30
0.0
  0
SEQEND
  5
8985
  8
0
  0
LINE
  5
859A
  8
0
 10
139.50000000000011
 20
-228.5
 30
0.0
 11
145.50000000000011
 21
-228.5
 31
0.0
  0
LINE
  5
859B
  8
0
 10
145.09807621135329
 20
-230.0
 30
0.0
 11
139.90192378864671
 21
-230.0
 31
0.0
  0
LINE
  5
859C
  8
0
 10
148.50000000000011
 20
-197.0
 30
0.0
 11
136.50000000000011
 21
-197.0
 31
0.0
  0
LINE
  5
859D
  8
3
 10
145.82350000000019
 20
-216.17649999999989
 30
0.0
 11
145.82350000000019
 21
-211.00000000000011
 31
0.0
  0
LINE
  5
859E
  8
3
 10
139.1765
 20
-216.17649999999989
 30
0.0
 11
139.17649999999989
 21
-211.00000000000011
 31
0.0
  0
LINE
  5
859F
  8
1
 10
142.5
 20
-235.0
 30
0.0
 11
142.5
 21
-183.8000001758337
 31
0.0
  0
ARC
  5
85A0
  8
0
 10
139.00000000000011
 20
-189.29999971687789
 30
0.0
 40
0.5
 50
90.0
 51
180.0
  0
ARC
  5
85A1
  8
0
 10
146.00000000000011
 20
-189.29999971687789
 30
0.0
 40
0.5
 50
0.0
 51
90.0
  0
LINE
  5
85A2
  8
0
 10
146.50000018999
 20
-189.29999932646751
 30
0.0
 11
146.50000018999
 21
-190.0
 31
0.0
  0
LINE
  5
85A3
  8
0
 10
138.49999981001031
 20
-190.0
 30
0.0
 11
138.49999981001031
 21
-189.29999932646751
 31
0.0
  0
LINE
  5
85A4
  8
0
 10
146.00000010803359
 20
-188.8000001758337
 30
0.0
 11
138.9999998919667
 21
-188.8000001758337
 31
0.0
  0
ARC
  5
85A5
  8
0
 10
141.17499999999879
 20
-222.80000061094819
 30
0.0
 40
1.000000000000006
 50
95.414457496049735
 51
264.35180763089733
  0
ARC
  5
85A6
  8
0
 10
145.14999999999881
 20
-222.8000006109479
 30
0.0
 40
1.0
 50
289.44207937526102
 51
0.0
  0
ARC
  5
85A7
  8
0
 10
145.14999999999881
 20
-222.8000006109479
 30
0.0
 40
1.0000000000000011
 50
0.0
 51
70.551724171879101
  0
POLYLINE
  5
85A8
  8
0
 66
     1
 10
0.0
 20
0.0
 30
0.0
 70
   128
  0
VERTEX
  5
8986
  8
0
 10
140.33687828189861
 20
-222.2545173521319
 30
0.0
  0
VERTEX
  5
8987
  8
0
 10
140.36395370028799
 20
-222.1955261379486
 30
0.0
  0
VERTEX
  5
8988
  8
0
 10
140.44486677273991
 20
-222.07338597625551
 30
0.0
  0
VERTEX
  5
8989
  8
0
 10
140.54517533630019
 20
-221.96821358054939
 30
0.0
  0
VERTEX
  5
898A
  8
0
 10
140.66116713918629
 20
-221.88670050352869
 30
0.0
  0
VERTEX
  5
898B
  8
0
 10
140.7953313738096
 20
-221.8297175318009
 30
0.0
  0
VERTEX
  5
898C
  8
0
 10
140.93135895207411
 20
-221.803195327521
 30
0.0
  0
VERTEX
  5
898D
  8
0
 10
141.07842235360181
 20
-221.8040391057736
 30
0.0
  0
VERTEX
  5
898E
  8
0
 10
141.2176825525228
 20
-221.8306162580854
 30
0.0
  0
VERTEX
  5
898F
  8
0
 10
141.35864509269479
 20
-221.88294447958529
 30
0.0
  0
VERTEX
  5
8990
  8
0
 10
141.49123772047341
 20
-221.95772223174629
 30
0.0
  0
VERTEX
  5
8991
  8
0
 10
141.61657976917809
 20
-222.0562207698828
 30
0.0
  0
VERTEX
  5
8992
  8
0
 10
141.7290782975021
 20
-222.1767096966511
 30
0.0
  0
VERTEX
  5
8993
  8
0
 10
141.824548349249
 20
-222.31864884495781
 30
0.0
  0
VERTEX
  5
8994
  8
0
 10
141.8947058101173
 20
-222.47278831899209
 30
0.0
  0
VERTEX
  5
8995
  8
0
 10
141.9387899641867
 20
-222.6423672586684
 30
0.0
  0
VERTEX
  5
8996
  8
0
 10
141.95180269423761
 20
-222.80419480055619
 30
0.0
  0
VERTEX
  5
8997
  8
0
 10
141.93649308988711
 20
-222.97089502215431
 30
0.0
  0
VERTEX
  5
8998
  8
0
 10
141.89635698683449
 20
-223.12255531549499
 30
0.0
  0
VERTEX
  5
8999
  8
0
 10
141.83109350968039
 20
-223.26947052031801
 30
0.0
  0
VERTEX
  5
899A
  8
0
 10
141.7437653127115
 20
-223.40445268899259
 30
0.0
  0
VERTEX
  5
899B
  8
0
 10
141.63488025776931
 20
-223.52660030126631
 30
0.0
  0
VERTEX
  5
899C
  8
0
 10
141.50764878839141
 20
-223.63107699900931
 30
0.0
  0
VERTEX
  5
899D
  8
0
 10
141.36410066392159
 20
-223.71449276804981
 30
0.0
  0
VERTEX
  5
899E
  8
0
 10
141.21835450176039
 20
-223.7691977247602
 30
0.0
  0
VERTEX
  5
899F
  8
0
 10
141.06546299997609
 20
-223.7971802428371
 30
0.0
  0
VERTEX
  5
89A0
  8
0
 10
140.92653423547631
 20
-223.7963355332619
 30
0.0
  0
VERTEX
  5
89A1
  8
0
 10
140.79006555955749
 20
-223.76866873353779
 30
0.0
  0
VERTEX
  5
89A2
  8
0
 10
140.66912354435661
 20
-223.71768068522269
 30
0.0
  0
VERTEX
  5
89A3
  8
0
 10
140.55728427599999
 20
-223.64202842116421
 30
0.0
  0
VERTEX
  5
89A4
  8
0
 10
140.45890040695559
 20
-223.54386050254169
 30
0.0
  0
VERTEX
  5
89A5
  8
0
 10
140.3744098916639
 20
-223.42290963977641
 30
0.0
  0
VERTEX
  5
89A6
  8
0
 10
140.33776518373159
 20
-223.3468441556937
 30
0.0
  0
SEQEND
  5
89A7
  8
0
  0
LINE
  5
85A9
  8
0
 10
145.50000000000011
 20
-217.0
 30
0.0
 11
160.0
 21
-217.0
 31
0.0
  0
LINE
  5
8673
  8
0
 10
321.50000000000023
 20
-211.00000000000011
 30
0.0
 11
321.50000000000023
 21
-216.5
 31
0.0
  0
LINE
  5
8674
  8
0
 10
313.50000000000023
 20
-211.00000000000011
 30
0.0
 11
313.50000000000023
 21
-216.5
 31
0.0
  0
LINE
  5
8678
  8
0
 10
313.50000000000023
 20
-216.5
 30
0.0
 11
313.00000000000028
 21
-217.0
 31
0.0
  0
LINE
  5
8679
  8
0
 10
313.50000000000023
 20
-216.5
 30
0.0
 11
321.50000000000023
 21
-216.5
 31
0.0
  0
LINE
  5
867A
  8
0
 10
321.50000000000023
 20
-216.5
 30
0.0
 11
322.00000000000011
 21
-216.99999999999989
 31
0.0
  0
LINE
  5
867B
  8
0
 10
261.00000000000023
 20
-211.0
 30
0.0
 11
274.00000000000023
 21
-211.0
 31
0.0
  0
LINE
  5
867C
  8
0
 10
250.0000000000002
 20
-207.0
 30
0.0
 11
261.50000000000011
 21
-207.0
 31
0.0
  0
LINE
  5
867D
  8
0
 10
261.00000000000023
 20
-207.5
 30
0.0
 11
260.50000000000023
 21
-207.0
 31
0.0
  0
LINE
  5
867E
  8
0
 10
250.0000000000002
 20
-217.0
 30
0.0
 11
264.50000000000023
 21
-217.0
 31
0.0
  0
LINE
  5
8680
  8
0
 10
261.00000000000023
 20
-211.0
 30
0.0
 11
261.00000000000023
 21
-207.5
 31
0.0
  0
LINE
  5
8681
  8
0
 10
274.0
 20
-207.4999999999998
 30
0.0
 11
274.5
 21
-206.9999999999998
 31
0.0
  0
LINE
  5
8682
  8
0
 10
274.00000000000028
 20
-210.9999999999998
 30
0.0
 11
274.0
 21
-207.4999999999998
 31
0.0
  0
LINE
  5
8683
  8
0
 10
273.99999999999977
 20
-207.5
 30
0.0
 11
273.50000000000023
 21
-207.5
 31
0.0
  0
LINE
  5
8684
  8
0
 10
271.50000000000023
 20
-211.00000000000011
 30
0.0
 11
271.50000000000023
 21
-216.5
 31
0.0
  0
LINE
  5
8685
  8
0
 10
263.50000000000023
 20
-211.00000000000011
 30
0.0
 11
263.50000000000023
 21
-216.5
 31
0.0
  0
LINE
  5
8686
  8
0
 10
263.50000000000023
 20
-216.5
 30
0.0
 11
263.00000000000023
 21
-217.0
 31
0.0
  0
LINE
  5
8687
  8
0
 10
263.50000000000023
 20
-216.5
 30
0.0
 11
271.50000000000023
 21
-216.5
 31
0.0
  0
LINE
  5
8688
  8
0
 10
271.50000000000023
 20
-216.5
 30
0.0
 11
272.00000000000011
 21
-216.99999999999989
 31
0.0
  0
LINE
  5
868A
  8
0
 10
270.50000000000023
 20
-217.0
 30
0.0
 11
285.00000000000023
 21
-217.0
 31
0.0
  0
LINE
  5
868B
  8
0
 10
261.50000000000011
 20
-207.5
 30
0.0
 11
261.00000000000023
 21
-207.5
 31
0.0
  0
LINE
  5
868C
  8
0
 10
273.50000000000023
 20
-207.0
 30
0.0
 11
285.00000000000023
 21
-207.0
 31
0.0
  0
ARC
  5
875C
  8
0
 10
185.14999999828009
 20
50.0
 30
0.0
 40
1.0000000000000111
 50
280.62813296156861
 51
79.371867038431375
  0
ARC
  5
875D
  8
0
 10
181.1749999982801
 20
47.705032679971218
 30
0.0
 40
1.0000000000000231
 50
160.6281329615681
 51
319.37186703843003
  0
ARC
  5
875E
  8
0
 10
181.1749999982801
 20
52.294967320028782
 30
0.0
 40
1.000000000000006
 50
40.628132961566173
 51
199.3718670384319
  0
ENDSEC
  0
EOF
