  0
SECTION
  2
HEADER
  9
$ACADVER
  1
AC1009
  9
$INSBASE
 10
0.0
 20
0.0
 30
0.0
  9
$EXTMIN
 10
0.0
 20
-2.960436562073669
 30
0.0
  9
$EXTMAX
 10
268.9999987930061138
 20
195.999998033046694
 30
0.0
  9
$LIMMIN
 10
0.0
 20
0.0
  9
$LIMMAX
 10
375.0
 20
270.0
  9
$ORTHOMODE
 70
     0
  9
$REGENMODE
 70
     1
  9
$FILLMODE
 70
     1
  9
$QTEXTMODE
 70
     0
  9
$MIRRTEXT
 70
     0
  9
$DRAGMODE
 70
     2
  9
$LTSCALE
 40
10.0
  9
$OSMODE
 70
    37
  9
$ATTMODE
 70
     1
  9
$TEXTSIZE
 40
0.2
  9
$TRACEWID
 40
0.05
  9
$TEXTSTYLE
  7
STANDARD
  9
$CLAYER
  8
0
  9
$CELTYPE
  6
BYLAYER
  9
$CECOLOR
 62
   256
  9
$DIMSCALE
 40
1.0
  9
$DIMASZ
 40
3.0
  9
$DIMEXO
 40
2.0
  9
$DIMDLI
 40
0.38
  9
$DIMRND
 40
0.0
  9
$DIMDLE
 40
0.0
  9
$DIMEXE
 40
2.0
  9
$DIMTP
 40
0.0
  9
$DIMTM
 40
0.0
  9
$DIMTXT
 40
3.2000000000000002
  9
$DIMCEN
 40
0.0
  9
$DIMTSZ
 40
0.0
  9
$DIMTOL
 70
     0
  9
$DIMLIM
 70
     0
  9
$DIMTIH
 70
     0
  9
$DIMTOH
 70
     0
  9
$DIMSE1
 70
     0
  9
$DIMSE2
 70
     0
  9
$DIMTAD
 70
     1
  9
$DIMZIN
 70
     8
  9
$DIMBLK
  1

  9
$DIMASO
 70
     0
  9
$DIMSHO
 70
     0
  9
$DIMPOST
  1

  9
$DIMAPOST
  1

  9
$DIMALT
 70
     0
  9
$DIMALTD
 70
     2
  9
$DIMALTF
 40
25.3999999999999986
  9
$DIMLFAC
 40
1.0
  9
$DIMTOFL
 70
     1
  9
$DIMTVP
 40
1.6000000000000001
  9
$DIMTIX
 70
     1
  9
$DIMSOXD
 70
     0
  9
$DIMSAH
 70
     0
  9
$DIMBLK1
  1

  9
$DIMBLK2
  1

  9
$DIMSTYLE
  2
STANDARD
  9
$DIMCLRD
 70
     0
  9
$DIMCLRE
 70
     0
  9
$DIMCLRT
 70
     0
  9
$DIMTFAC
 40
1.0
  9
$DIMGAP
 40
0.09
  9
$LUNITS
 70
     2
  9
$LUPREC
 70
     1
  9
$SKETCHINC
 40
0.1
  9
$FILLETRAD
 40
0.0
  9
$AUNITS
 70
     0
  9
$AUPREC
 70
     1
  9
$MENU
  1
E:\r13\win\SUPPORT\ACAD
  9
$ELEVATION
 40
0.0
  9
$PELEVATION
 40
0.0
  9
$THICKNESS
 40
0.0
  9
$LIMCHECK
 70
     0
  9
$BLIPMODE
 70
     0
  9
$CHAMFERA
 40
0.0
  9
$CHAMFERB
 40
0.0
  9
$SKPOLY
 70
     0
  9
$TDCREATE
 40
2449840.6513888891786337
  9
$TDUPDATE
 40
2460794.5655439808033407
  9
$TDINDWG
 40
0.1116050116
  9
$TDUSRTIMER
 40
0.1116050116
  9
$USRTIMER
 70
     1
  9
$ANGBASE
 50
0.0
  9
$ANGDIR
 70
     0
  9
$PDMODE
 70
     0
  9
$PDSIZE
 40
0.0
  9
$PLINEWID
 40
0.0
  9
$COORDS
 70
     1
  9
$SPLFRAME
 70
     0
  9
$SPLINETYPE
 70
     6
  9
$SPLINESEGS
 70
     8
  9
$ATTDIA
 70
     1
  9
$ATTREQ
 70
     1
  9
$HANDLING
 70
     1
  9
$HANDSEED
  5
21D3
  9
$SURFTAB1
 70
     6
  9
$SURFTAB2
 70
     6
  9
$SURFTYPE
 70
     6
  9
$SURFU
 70
     6
  9
$SURFV
 70
     6
  9
$UCSNAME
  2

  9
$UCSORG
 10
0.0
 20
0.0
 30
0.0
  9
$UCSXDIR
 10
1.0
 20
0.0
 30
0.0
  9
$UCSYDIR
 10
0.0
 20
1.0
 30
0.0
  9
$PUCSNAME
  2

  9
$PUCSORG
 10
0.0
 20
0.0
 30
0.0
  9
$PUCSXDIR
 10
1.0
 20
0.0
 30
0.0
  9
$PUCSYDIR
 10
0.0
 20
1.0
 30
0.0
  9
$USERI1
 70
     0
  9
$USERI2
 70
     1
  9
$USERI3
 70
     0
  9
$USERI4
 70
     0
  9
$USERI5
 70
     0
  9
$USERR1
 40
0.0
  9
$USERR2
 40
0.0
  9
$USERR3
 40
0.0
  9
$USERR4
 40
0.0
  9
$USERR5
 40
0.0
  9
$WORLDVIEW
 70
     1
  9
$SHADEDGE
 70
     3
  9
$SHADEDIF
 70
    70
  9
$TILEMODE
 70
     1
  9
$MAXACTVP
 70
    16
  9
$PLIMCHECK
 70
     0
  9
$PEXTMIN
 10
1.0000000000000000E+20
 20
1.0000000000000000E+20
 30
1.0000000000000000E+20
  9
$PEXTMAX
 10
-1.0000000000000000E+20
 20
-1.0000000000000000E+20
 30
-1.0000000000000000E+20
  9
$PLIMMIN
 10
0.0
 20
0.0
  9
$PLIMMAX
 10
12.0
 20
9.0
  9
$UNITMODE
 70
     0
  9
$VISRETAIN
 70
     0
  9
$PLINEGEN
 70
     0
  9
$PSLTSCALE
 70
     0
  0
ENDSEC
  0
SECTION
  2
TABLES
  0
TABLE
  2
VPORT
 70
     1
  0
VPORT
  2
*ACTIVE
 70
     0
 10
0.0
 20
0.0
 11
1.0
 21
1.0
 12
352.2783251231526833
 22
150.0
 13
0.0
 23
0.0
 14
5.0
 24
5.0
 15
10.0
 25
10.0
 16
0.0
 26
0.0
 36
1.0
 17
0.0
 27
0.0
 37
0.0
 40
300.0
 41
2.3485221674876842
 42
50.0
 43
0.0
 44
0.0
 50
0.0
 51
0.0
 71
     0
 72
   500
 73
     1
 74
     0
 75
     0
 76
     0
 77
     0
 78
     2
  0
ENDTAB
  0
TABLE
  2
LTYPE
 70
     4
  0
LTYPE
  2
CONTINUOUS
 70
     0
  3
Solid Line
 72
    65
 73
     0
 40
0.0
  0
LTYPE
  2
CENTER
 70
     0
  3
____ _ ____ _ ____ _ ____ _ ____ _ ____ _ ____
 72
    65
 73
     4
 40
2.0
 49
1.25
 49
-0.25
 49
0.25
 49
-0.25
  0
LTYPE
  2
HIDDEN
 70
     0
  3
_ _ _ _ _ _ _ _ _ _ _ _ _ _ _ _ _ _ _ _ _ _ _
 72
    65
 73
     2
 40
0.375
 49
0.25
 49
-0.125
  0
LTYPE
  2
PHANTOM2
 70
     0
  3
___ _ _ ___ _ _ ___ _ _ ___ _ _
 72
    65
 73
     6
 40
1.25
 49
0.625
 49
-0.125
 49
0.125
 49
-0.125
 49
0.125
 49
-0.125
  0
ENDTAB
  0
TABLE
  2
LAYER
 70
     5
  0
LAYER
  2
0
 70
     0
 62
     7
  6
CONTINUOUS
  0
LAYER
  2
1
 70
     0
 62
     1
  6
CENTER
  0
LAYER
  2
3
 70
     0
 62
     3
  6
CONTINUOUS
  0
LAYER
  2
2
 70
     0
 62
     2
  6
HIDDEN
  0
LAYER
  2
DEFPOINTS
 70
     0
 62
     7
  6
CONTINUOUS
  0
ENDTAB
  0
TABLE
  2
STYLE
 70
     3
  0
STYLE
  2
STANDARD
 70
     0
 40
0.0
 41
1.0
 50
0.0
 71
     0
 42
0.2
  3
TXT
  4
BIGFONT
  0
STYLE
  2
STANDARD1
 70
     0
 40
0.0
 41
1.0
 50
0.0
 71
     0
 42
3.0
  3
txt
  4

  0
STYLE
  2
SLDTEXTSTYLE0
 70
     0
 40
0.0
 41
0.7
 50
0.0
 71
     0
 42
4.2333333333333316
  3
TXT
  4
bigfont
  0
ENDTAB
  0
TABLE
  2
VIEW
 70
     1
  0
VIEW
  2
ALL
 70
     0
 40
270.0
 10
220.9915966386554942
 20
135.0
 41
0.0
 11
0.0
 21
0.0
 31
1.0
 12
0.0
 22
0.0
 32
0.0
 42
0.0
 43
0.0
 44
0.0
 50
0.0
 71
     0
  0
ENDTAB
  0
TABLE
  2
UCS
 70
     0
  0
ENDTAB
  0
TABLE
  2
APPID
 70
    13
  0
APPID
  2
ACAD
 70
     0
  0
APPID
  2
_CALL_MAC$
 70
     0
  0
APPID
  2
ACAD_MLEADERVER
 70
     0
  0
APPID
  2
ACAD_EXEMPT_FROM_CAD_STANDARDS
 70
     0
  0
APPID
  2
ACAD_NAV_VCDISPLAY
 70
     0
  0
APPID
  2
ACAD_PSEXT
 70
     0
  0
APPID
  2
ACAD_DSTYLE_DIMJAG
 70
     0
  0
APPID
  2
ACAD_DSTYLE_DIMTALN
 70
     0
  0
APPID
  2
ACAD_DSTYLE_DIMBREAK
 70
     0
  0
APPID
  2
ACAECLAYERSTANDARD
 70
     0
  0
APPID
  2
ACCMTRANSPARENCY
 70
     0
  0
APPID
  2
GRADIENTCOLOR1ACI
 70
     0
  0
APPID
  2
GRADIENTCOLOR2ACI
 70
     0
  0
ENDTAB
  0
TABLE
  2
DIMSTYLE
 70
     1
  0
DIMSTYLE
  2
STANDARD
 70
     0
  3

  4

  5

  6

  7

 40
1.0
 41
0.18
 42
0.0625
 43
0.38
 44
0.18
 45
0.0
 46
0.0
 47
0.0
 48
0.0
140
0.18
141
0.09
142
0.0
143
25.3999999999999986
144
1.0
145
0.0
146
1.0
147
0.09
 71
     0
 72
     0
 73
     1
 74
     1
 75
     0
 76
     0
 77
     0
 78
     0
170
     0
171
     2
172
     0
173
     0
174
     0
175
     0
176
     0
177
     0
178
     0
  0
ENDTAB
  0
ENDSEC
  0
SECTION
  2
BLOCKS
  0
BLOCK
  8
0
  2
$MODEL_SPACE
 70
     0
 10
0.0
 20
0.0
 30
0.0
  3
$MODEL_SPACE
  1

  0
ENDBLK
  5
6E2
  8
0
  0
BLOCK
 67
     1
  8
0
  2
$PAPER_SPACE
 70
     0
 10
0.0
 20
0.0
 30
0.0
  3
$PAPER_SPACE
  1

  0
ENDBLK
  5
6E0
 67
     1
  8
0
  0
BLOCK
  8
0
  2
STDGX5
 70
     0
 10
0.0
 20
0.0
 30
0.0
  3
STDGX5
  1

  0
ENDBLK
  5
2C7
  8
0
  0
ENDSEC
  0
SECTION
  2
ENTITIES
  0
INSERT
  5
364
  8
0
  2
STDGX5
 10
0.0
 20
0.0
 30
0.0
  0
INSERT
  5
365
  8
0
  2
STDGX5
 10
0.0
 20
0.0
 30
0.0
  0
INSERT
  5
366
  8
0
  2
STDGX5
 10
275.0
 20
0.0
 30
0.0
  0
INSERT
  5
367
  8
0
  2
STDGX5
 10
275.0
 20
0.0
 30
0.0
  0
INSERT
  5
4ED
  8
0
  2
STDGX5
 10
0.0
 20
0.0
 30
0.0
  0
INSERT
  5
4EE
  8
0
  2
STDGX5
 10
0.0
 20
0.0
 30
0.0
  0
INSERT
  5
4EF
  8
0
  2
STDGX5
 10
275.0
 20
0.0
 30
0.0
  0
INSERT
  5
4F0
  8
0
  2
STDGX5
 10
275.0
 20
0.0
 30
0.0
  0
INSERT
  5
500
  8
0
  2
STDGX5
 10
471.7923326998039215
 20
233.9519585625760953
 30
0.0
  0
INSERT
  5
501
  8
0
  2
STDGX5
 10
471.7923326998039215
 20
233.9519585625760953
 30
0.0
  0
INSERT
  5
502
  8
0
  2
STDGX5
 10
471.7923326998039215
 20
233.9519585625760953
 30
0.0
  0
INSERT
  5
503
  8
0
  2
STDGX5
 10
471.7923326998039215
 20
233.9519585625760953
 30
0.0
  0
INSERT
  5
67F
  8
0
  2
STDGX5
 10
0.0
 20
0.0
 30
0.0
  0
INSERT
  5
680
  8
0
  2
STDGX5
 10
0.0
 20
0.0
 30
0.0
  0
INSERT
  5
681
  8
0
  2
STDGX5
 10
275.0
 20
0.0
 30
0.0
  0
INSERT
  5
682
  8
0
  2
STDGX5
 10
275.0
 20
0.0
 30
0.0
  0
INSERT
  5
692
  8
0
  2
STDGX5
 10
471.7923326998039215
 20
233.9519585625760953
 30
0.0
  0
INSERT
  5
693
  8
0
  2
STDGX5
 10
471.7923326998039215
 20
233.9519585625760953
 30
0.0
  0
INSERT
  5
694
  8
0
  2
STDGX5
 10
471.7923326998039215
 20
233.9519585625760953
 30
0.0
  0
INSERT
  5
695
  8
0
  2
STDGX5
 10
471.7923326998039215
 20
233.9519585625760953
 30
0.0
  0
INSERT
  5
698
  8
0
  2
STDGX5
 10
625.1717249047754876
 20
209.6005738063095123
 30
0.0
  0
INSERT
  5
699
  8
0
  2
STDGX5
 10
625.1717249047754876
 20
209.6005738063095123
 30
0.0
  0
INSERT
  5
69A
  8
0
  2
STDGX5
 10
625.1717249047754876
 20
209.6005738063095123
 30
0.0
  0
INSERT
  5
69B
  8
0
  2
STDGX5
 10
625.1717249047754876
 20
209.6005738063095123
 30
0.0
  0
INSERT
  5
69C
  8
0
  2
STDGX5
 10
611.4870139047756084
 20
209.627922806309499
 30
0.0
 41
0.1
 42
0.1
 43
0.1
  0
INSERT
  5
69D
  8
0
  2
STDGX5
 10
611.4870139047756084
 20
209.627922806309499
 30
0.0
 41
0.1
 42
0.1
 43
0.1
  0
INSERT
  5
69E
  8
0
  2
STDGX5
 10
611.4870139047756084
 20
209.627922806309499
 30
0.0
 41
0.1
 42
0.1
 43
0.1
  0
TEXT
  5
D82
  8
0
 62
     3
 10
0.0
 20
0.0
 30
0.0
 40
10.0
  1
PTRC1-30
  7
STANDARD1
  0
CIRCLE
  5
101A
  8
0
 10
241.4999987930061138
 20
89.9999999999999432
 30
0.0
 40
9.2978982574651354
  0
CIRCLE
  5
101B
  8
0
 10
241.4999987930061138
 20
89.9999999999999432
 30
0.0
 40
7.8490095180314929
  0
LINE
  5
101C
  8
0
 10
241.4999987930061138
 20
79.0303448853970849
 30
0.0
 11
231.9999987930061138
 21
84.5151724426984856
 31
0.0
  0
LINE
  5
101D
  8
0
 10
231.9999987930061138
 20
84.5151724426984856
 30
0.0
 11
231.9999987930061138
 21
95.4848275573013865
 31
0.0
  0
LINE
  5
101E
  8
0
 10
231.9999987930061138
 20
95.4848275573013865
 30
0.0
 11
241.4999987930061138
 21
100.9696551146028014
 31
0.0
  0
LINE
  5
101F
  8
0
 10
241.4999987930061138
 20
100.9696551146028014
 30
0.0
 11
250.9999987930060001
 21
95.4848275573013865
 31
0.0
  0
LINE
  5
1020
  8
0
 10
250.9999987930060001
 20
95.4848275573013865
 30
0.0
 11
250.9999987930060001
 21
84.5151724426984856
 31
0.0
  0
LINE
  5
1021
  8
0
 10
250.9999987930060001
 20
84.5151724426984856
 30
0.0
 11
241.4999987930061138
 21
79.0303448853970849
 31
0.0
  0
CIRCLE
  5
1023
  8
0
 10
241.4999987930061138
 20
89.9999999999999432
 30
0.0
 40
13.0
  0
LINE
  5
1027
  8
0
 10
268.4999987930061138
 20
60.0
 30
0.0
 11
268.9999987930061138
 21
60.4999999999999432
 31
0.0
  0
LINE
  5
1029
  8
0
 10
268.4999987930061138
 20
107.0
 30
0.0
 11
268.9999987930061138
 21
106.5
 31
0.0
  0
LINE
  5
102C
  8
0
 10
268.9999987930061138
 20
106.5
 30
0.0
 11
268.9999987930061138
 21
60.4999999999999432
 31
0.0
  0
LINE
  5
102D
  8
0
 10
266.9999987930061138
 20
60.0
 30
0.0
 11
266.9999987930061138
 21
107.0
 31
0.0
  0
LINE
  5
1030
  8
0
 10
214.4999987930060001
 20
107.0
 30
0.0
 11
268.4999987930060001
 21
107.0
 31
0.0
  0
LINE
  5
1032
  8
0
 10
268.4999987930061138
 20
60.0
 30
0.0
 11
214.4999987930058865
 21
60.0
 31
0.0
  0
LINE
  5
1034
  8
0
 10
215.9999987930058012
 20
107.0
 30
0.0
 11
215.9999987930058865
 21
60.0
 31
0.0
  0
LINE
  5
1037
  8
0
 10
213.9999987930060001
 20
60.4999999999999432
 30
0.0
 11
213.9999987930060001
 21
106.5
 31
0.0
  0
LINE
  5
1038
  8
0
 10
213.9999987930060001
 20
106.5
 30
0.0
 11
214.4999987930058865
 21
107.0
 31
0.0
  0
LINE
  5
103B
  8
0
 10
213.9999987930060001
 20
60.4999999999999432
 30
0.0
 11
214.4999987930058865
 21
60.0
 31
0.0
  0
ARC
  5
1123
  8
0
 10
53.4000000000003823
 20
99.7885104301331012
 30
0.0
 40
1.89999999999966
 50
302.3041144813233814
 51
0.0000000000048853
  0
LINE
  5
1124
  8
0
 10
55.3000000000000114
 20
99.7885104301332859
 30
0.0
 11
55.3000000000000114
 21
100.4000000000000057
 31
0.0
  0
ARC
  5
1125
  8
0
 10
57.2000000000008413
 20
100.3999999999991957
 30
0.0
 40
1.9000000000009429
 50
90.0000000000260485
 51
179.9999999999739089
  0
LINE
  5
1126
  8
0
 10
57.1999999999999815
 20
102.3000000000000966
 30
0.0
 11
59.4499999999999886
 21
102.3000000000000966
 31
0.0
  0
LINE
  5
1127
  8
0
 10
59.4499999999999886
 20
102.3000000000000966
 30
0.0
 11
59.4499999999999886
 21
98.9831787247053541
 31
0.0
  0
LINE
  5
1128
  8
0
 10
60.5500000000000114
 20
98.9831787247053967
 30
0.0
 11
60.5500000000000114
 21
102.3000000000000966
 31
0.0
  0
LINE
  5
1129
  8
0
 10
60.5500000000000114
 20
102.3000000000000966
 30
0.0
 11
62.8000000000000114
 21
102.3000000000000966
 31
0.0
  0
ARC
  5
112A
  8
0
 10
62.7999999999992227
 20
100.3999999999991957
 30
0.0
 40
1.9000000000009429
 50
0.0
 51
89.9999999999739515
  0
LINE
  5
112B
  8
0
 10
64.7000000000000455
 20
100.3999999999991957
 30
0.0
 11
64.7000000000000455
 21
99.7885104301332859
 31
0.0
  0
ARC
  5
112C
  8
0
 10
66.5999999999996248
 20
99.7885104301331012
 30
0.0
 40
1.8999999999996771
 50
179.9999999999951115
 51
237.6958904741530034
  0
CIRCLE
  5
112D
  8
0
 10
62.3500000000000227
 20
100.4000000000000057
 30
0.0
 40
0.8500000000000227
  0
CIRCLE
  5
112E
  8
0
 10
57.6500000000000412
 20
100.4000000000000057
 30
0.0
 40
0.8500000000000227
  0
ARC
  5
112F
  8
0
 10
60.0000000000000568
 20
89.3499999999999659
 30
0.0
 40
10.4500000000001094
 50
122.3041071228107057
 51
57.6958919761947016
  0
CIRCLE
  5
1130
  8
0
 10
60.0
 20
89.9999999999999432
 30
0.0
 40
13.0000000000000409
  0
ARC
  5
1131
  8
0
 10
60.0
 20
89.9999999999999432
 30
0.0
 40
7.4500000000000091
 50
134.1004521970561996
 51
135.8995478029416972
  0
LINE
  5
1132
  8
0
 10
53.650000000000027
 20
95.5749439459064547
 30
0.0
 11
54.650000000000027
 21
95.1845925587262656
 31
0.0
  0
ARC
  5
1133
  8
0
 10
60.0
 20
89.9999999999999432
 30
0.0
 40
8.4500000000000135
 50
131.2813184653049063
 51
138.7186815346979927
  0
LINE
  5
1134
  8
0
 10
54.8154074412737486
 20
95.3499999999999659
 30
0.0
 11
54.4250560540934885
 21
96.3499999999999801
 31
0.0
  0
ARC
  5
1135
  8
0
 10
60.0
 20
89.9999999999999432
 30
0.0
 40
8.4500000000000135
 50
221.2813184653068106
 51
228.7186815346994138
  0
LINE
  5
1136
  8
0
 10
53.650000000000027
 20
84.4250560540933748
 30
0.0
 11
54.650000000000027
 21
84.815407441273706
 31
0.0
  0
ARC
  5
1137
  8
0
 10
60.0
 20
89.9999999999999432
 30
0.0
 40
7.4500000000000091
 50
224.1004521970583028
 51
225.8995478029482911
  0
LINE
  5
1138
  8
0
 10
54.4250560540934885
 20
83.6499999999999346
 30
0.0
 11
54.8154074412737486
 21
84.6499999999999204
 31
0.0
  0
LINE
  5
1139
  8
0
 10
65.5749439459065684
 20
83.6499999999999346
 30
0.0
 11
54.4250560540934885
 21
83.6499999999999346
 31
0.0
  0
LINE
  5
113A
  8
0
 10
54.8154074412737486
 20
84.6499999999999204
 30
0.0
 11
65.1845925587263082
 21
84.6499999999999204
 31
0.0
  0
LINE
  5
113B
  8
0
 10
65.5749439459065684
 20
83.6499999999999346
 30
0.0
 11
65.1845925587263082
 21
84.6499999999999204
 31
0.0
  0
LINE
  5
113C
  8
0
 10
53.650000000000027
 20
84.4250560540933748
 30
0.0
 11
53.650000000000027
 21
95.5749439459065115
 31
0.0
  0
LINE
  5
113D
  8
0
 10
54.650000000000027
 20
95.1845925587262656
 30
0.0
 11
54.650000000000027
 21
84.815407441273706
 31
0.0
  0
LINE
  5
113E
  8
0
 10
65.1845925587263082
 20
95.3499999999999659
 30
0.0
 11
54.8154074412737486
 21
95.3499999999999659
 31
0.0
  0
LINE
  5
113F
  8
0
 10
54.4250560540934885
 20
96.3499999999999801
 30
0.0
 11
65.5749439459065684
 21
96.3499999999999801
 31
0.0
  0
LINE
  5
1140
  8
0
 10
65.1845925587263082
 20
95.3499999999999659
 30
0.0
 11
65.5749439459065684
 21
96.3499999999999801
 31
0.0
  0
ARC
  5
1141
  8
0
 10
60.0
 20
89.9999999999999432
 30
0.0
 40
7.4500000000000304
 50
44.1004521970582815
 51
45.8995478029437507
  0
LINE
  5
1142
  8
0
 10
65.3500000000000227
 20
84.815407441273706
 30
0.0
 11
65.3500000000000227
 21
95.1845925587262656
 31
0.0
  0
ARC
  5
1143
  8
0
 10
60.0
 20
89.9999999999999432
 30
0.0
 40
7.4500000000000304
 50
314.1004521970561996
 51
315.8995478029463015
  0
ARC
  5
1144
  8
0
 10
60.0
 20
89.9999999999999432
 30
0.0
 40
8.4500000000000171
 50
41.2813184653020073
 51
48.7186815346950723
  0
LINE
  5
1145
  8
0
 10
65.3500000000000227
 20
95.1845925587262656
 30
0.0
 11
66.3500000000000227
 21
95.5749439459064547
 31
0.0
  0
LINE
  5
1146
  8
0
 10
66.3500000000000227
 20
95.5749439459064547
 30
0.0
 11
66.3500000000000227
 21
84.4250560540934174
 31
0.0
  0
LINE
  5
1147
  8
0
 10
65.3500000000000227
 20
84.815407441273706
 30
0.0
 11
66.3500000000000227
 21
84.4250560540934174
 31
0.0
  0
ARC
  5
1148
  8
0
 10
60.0
 20
89.9999999999999432
 30
0.0
 40
8.4500000000000171
 50
311.2813184653048779
 51
318.7186815346980211
  0
POLYLINE
  5
1149
  8
0
 66
     1
 10
0.0
 20
0.0
 30
0.0
 70
   128
  0
VERTEX
  5
213C
  8
0
 10
53.5298436114085803
 20
84.5649676811555651
 30
0.0
  0
VERTEX
  5
213D
  8
0
 10
53.3123098422997828
 20
84.7902008265829181
 30
0.0
  0
VERTEX
  5
213E
  8
0
 10
53.0500000000000114
 20
85.1063817067530977
 30
0.0
  0
SEQEND
  5
213F
  8
0
  0
ARC
  5
114B
  8
0
 10
56.6741363581782593
 20
92.1649687031743952
 30
0.0
 40
4.5365066877579441
 50
133.876704647700592
 51
143.0235327148008935
  0
ARC
  5
114C
  8
0
 10
60.0000000003531682
 20
90.0000000003007017
 30
0.0
 40
8.4500000004638185
 50
220.0307834080603016
 51
221.2813184652574137
  0
ARC
  5
114D
  8
0
 10
60.0000000281247026
 20
89.9999999758761078
 30
0.0
 40
8.4500000370514563
 50
138.7186815375858941
 51
139.9692165893723939
  0
POLYLINE
  5
114E
  8
0
 66
     1
 10
0.0
 20
0.0
 30
0.0
 70
   128
  0
VERTEX
  5
2140
  8
0
 10
65.4350323188444349
 20
83.5298436114085234
 30
0.0
  0
VERTEX
  5
2141
  8
0
 10
65.209799173417025
 20
83.3123098422997259
 30
0.0
  0
VERTEX
  5
2142
  8
0
 10
64.8936182932468455
 20
83.0499999999999545
 30
0.0
  0
SEQEND
  5
2143
  8
0
  0
ARC
  5
1150
  8
0
 10
57.8350312968253206
 20
86.6741363581780746
 30
0.0
 40
4.5365066877576261
 50
223.8767046477049121
 51
233.023532714804503
  0
ARC
  5
1151
  8
0
 10
60.0000000004174012
 20
89.9999999995171578
 30
0.0
 40
8.4499999993618395
 50
310.0307834079753775
 51
311.2813184653351755
  0
ARC
  5
1152
  8
0
 10
60.0000000234358026
 20
90.0000000273236083
 30
0.0
 40
8.4500000359955418
 50
228.7186815375077913
 51
229.9692165894554137
  0
POLYLINE
  5
1153
  8
0
 66
     1
 10
0.0
 20
0.0
 30
0.0
 70
   128
  0
VERTEX
  5
2144
  8
0
 10
55.1063817067531474
 20
96.9500000000000028
 30
0.0
  0
VERTEX
  5
2145
  8
0
 10
54.7902008265829821
 20
96.6876901577001746
 30
0.0
  0
VERTEX
  5
2146
  8
0
 10
54.564967681155558
 20
96.4701563885914339
 30
0.0
  0
SEQEND
  5
2147
  8
0
  0
ARC
  5
1155
  8
0
 10
62.1649687031691087
 20
93.3258636418154168
 30
0.0
 40
4.5365066877661118
 50
43.8767046477142131
 51
53.0235327147963673
  0
ARC
  5
1156
  8
0
 10
59.99999997957201
 20
89.9999999761828917
 30
0.0
 40
8.4500000313759696
 50
48.7186815371481003
 51
49.9692165897787035
  0
ARC
  5
1157
  8
0
 10
59.9999999997901909
 20
90.0000000002439862
 30
0.0
 40
8.4499999996781927
 50
130.0307834080093983
 51
131.2813184653265921
  0
POLYLINE
  5
1158
  8
0
 66
     1
 10
0.0
 20
0.0
 30
0.0
 70
   128
  0
VERTEX
  5
2148
  8
0
 10
66.9499999999999886
 20
94.8936182932468455
 30
0.0
  0
VERTEX
  5
2149
  8
0
 10
66.6876901577002741
 20
95.209799173416954
 30
0.0
  0
VERTEX
  5
214A
  8
0
 10
66.4701563885914766
 20
95.4350323188443781
 30
0.0
  0
SEQEND
  5
214B
  8
0
  0
ARC
  5
115A
  8
0
 10
63.3258636418173566
 20
87.8350312968291149
 30
0.0
 40
4.536506687763584
 50
313.8767046477096869
 51
323.0235327148009219
  0
ARC
  5
115B
  8
0
 10
60.0000000005907808
 20
90.000000000507498
 30
0.0
 40
8.4499999992211805
 50
40.0307834079793068
 51
41.2813184653611032
  0
ARC
  5
115C
  8
0
 10
59.9999999738408789
 20
90.0000000224380301
 30
0.0
 40
8.4500000344621586
 50
318.7186815373834747
 51
319.9692165895547191
  0
ARC
  5
1161
  8
0
 10
60.0
 20
89.9999999999999432
 30
0.0
 40
8.5000000000000462
 50
54.8499442294435582
 51
125.1500557705564063
  0
ARC
  5
1162
  8
0
 10
60.0
 20
89.9999999999999432
 30
0.0
 40
8.5000000000000338
 50
144.8499442294425137
 51
215.1500557705574863
  0
ARC
  5
1163
  8
0
 10
60.0
 20
89.9999999999999432
 30
0.0
 40
8.5
 50
234.8499442294435937
 51
305.1500557705563779
  0
ARC
  5
1164
  8
0
 10
60.0
 20
89.9999999999999432
 30
0.0
 40
8.5000000000000568
 50
324.8499442294424853
 51
35.1500557705574721
  0
CIRCLE
  5
1165
  8
0
 10
60.0
 20
89.9999999999999432
 30
0.0
 40
9.0
  0
LINE
  5
1167
  8
0
 10
32.9999999999998934
 20
60.0
 30
0.0
 11
32.4999999999998934
 21
60.4999999999999432
 31
0.0
  0
LINE
  5
116C
  8
0
 10
32.4999999999998934
 20
60.4999999999999432
 30
0.0
 11
32.4999999999998934
 21
106.500000000000199
 31
0.0
  0
LINE
  5
116F
  8
0
 10
32.9999999999998934
 20
107.000000000000199
 30
0.0
 11
32.4999999999998934
 21
106.500000000000199
 31
0.0
  0
LINE
  5
1170
  8
0
 10
32.9999999999999005
 20
107.000000000000199
 30
0.0
 11
87.0000000000000853
 21
107.000000000000199
 31
0.0
  0
LINE
  5
1175
  8
0
 10
87.0000000000000853
 20
60.0
 30
0.0
 11
32.9999999999998792
 21
60.0
 31
0.0
  0
LINE
  5
1178
  8
0
 10
87.5000000000001137
 20
106.500000000000199
 30
0.0
 11
87.0000000000001137
 21
107.000000000000199
 31
0.0
  0
LINE
  5
117C
  8
0
 10
87.5000000000001137
 20
60.4999999999999432
 30
0.0
 11
87.0000000000001137
 21
60.0
 31
0.0
  0
LINE
  5
117D
  8
0
 10
87.5000000000001137
 20
106.500000000000199
 30
0.0
 11
87.5000000000001137
 21
60.4999999999999432
 31
0.0
  0
LINE
  5
127C
  8
0
 10
158.4999992698431868
 20
151.4999979138374044
 30
0.0
 11
159.4999994337559883
 21
151.4999979138374044
 31
0.0
  0
LINE
  5
127D
  8
0
 10
159.4999994337559883
 20
177.4999984502792074
 30
0.0
 11
158.4999992698431868
 21
177.4999984502792074
 31
0.0
  0
LINE
  5
127E
  8
0
 10
132.4999996647239868
 20
154.04999823868269
 30
0.0
 11
133.6999994888903132
 21
154.04999823868269
 31
0.0
  0
LINE
  5
127F
  8
0
 10
133.6999994888903132
 20
174.9499981254338934
 30
0.0
 11
132.4999996647239868
 21
174.9499981254338934
 31
0.0
  0
LINE
  5
1280
  8
0
 10
133.6999994888903132
 20
151.4999979138374044
 30
0.0
 11
135.6999988853931995
 21
151.4999979138374044
 31
0.0
  0
LINE
  5
1281
  8
0
 10
135.6999988853931995
 20
177.4999984502792074
 30
0.0
 11
133.6999994888903132
 21
177.4999984502792074
 31
0.0
  0
LINE
  5
1282
  8
0
 10
159.9999995157124033
 20
177.4999984502792074
 30
0.0
 11
159.4999994337559883
 21
176.9999983683227924
 31
0.0
  0
LINE
  5
1283
  8
0
 10
159.4999994337559883
 20
151.999997995793791
 30
0.0
 11
159.9999995157124033
 21
151.4999979138374044
 31
0.0
  0
LINE
  5
1284
  8
0
 10
159.9999995157124033
 20
151.4999979138374044
 30
0.0
 11
163.5000000894071093
 21
151.4999979138374044
 31
0.0
  0
LINE
  5
1285
  8
0
 10
163.5000000894071093
 20
177.4999984502792074
 30
0.0
 11
159.9999995157124033
 21
177.4999984502792074
 31
0.0
  0
LINE
  5
1286
  8
0
 10
163.5000000894071093
 20
151.4999979138374044
 30
0.0
 11
163.9999992400408928
 21
151.999997995793791
 31
0.0
  0
LINE
  5
1287
  8
0
 10
163.9999992400408928
 20
176.9999983683227924
 30
0.0
 11
163.5000000894071093
 21
177.4999984502792074
 31
0.0
  0
LINE
  5
1288
  8
0
 10
182.1140631288290876
 20
154.9946629405021099
 30
0.0
 11
182.8882268816234102
 21
155.2021001428365139
 31
0.0
  0
LINE
  5
1289
  8
0
 10
182.8882268816234102
 20
173.797896221280098
 30
0.0
 11
182.119755372405109
 21
174.0038088485597996
 31
0.0
  0
ARC
  5
128A
  8
0
 10
182.4999993294478031
 20
156.6509886640266984
 30
0.0
 40
1.5000000000000031
 50
284.9999999999977831
 51
0.0
  0
ARC
  5
128B
  8
0
 10
182.4999993294478031
 20
172.3490077000899134
 30
0.0
 40
1.5
 50
0.0
 51
74.9999999999987921
  0
LINE
  5
128C
  8
0
 10
127.9999989271164935
 20
173.4999977946280865
 30
0.0
 11
127.4999997764826958
 21
172.9999986439943029
 31
0.0
  0
LINE
  5
128D
  8
0
 10
127.4999997764826958
 20
155.9999977201223089
 30
0.0
 11
127.9999989271164935
 21
155.499998569488497
 31
0.0
  0
LINE
  5
128E
  8
0
 10
135.6999988853931995
 20
155.499998569488497
 30
0.0
 11
136.4999993890525047
 21
155.499998569488497
 31
0.0
  0
LINE
  5
128F
  8
0
 10
136.4999993890525047
 20
173.4999977946280865
 30
0.0
 11
135.6999988853931995
 21
173.4999977946280865
 31
0.0
  0
LINE
  5
1290
  8
0
 10
127.9999989271164935
 20
155.499998569488497
 30
0.0
 11
132.4999996647239868
 21
155.499998569488497
 31
0.0
  0
LINE
  5
1291
  8
0
 10
132.4999996647239868
 20
173.4999977946280865
 30
0.0
 11
127.9999989271164935
 21
173.4999977946280865
 31
0.0
  0
LINE
  5
1292
  8
0
 10
158.4999992698431868
 20
162.8301251642405987
 30
0.0
 11
159.4999994337559883
 21
162.8301251642405987
 31
0.0
  0
LINE
  5
1293
  8
0
 10
159.4999994337559883
 20
151.4999979138374044
 30
0.0
 11
159.4999994337559883
 21
177.4999984502792074
 31
0.0
  0
LINE
  5
1294
  8
0
 10
159.4999994337559883
 20
166.1698711998760132
 30
0.0
 11
158.4999992698431868
 21
166.1698711998760132
 31
0.0
  0
LINE
  5
1295
  8
0
 10
158.4999992698431868
 20
164.6999981770059094
 30
0.0
 11
159.4999994337559883
 21
164.6999981770059094
 31
0.0
  0
LINE
  5
1296
  8
0
 10
158.4999992698431868
 20
164.2999981871107025
 30
0.0
 11
159.4999994337559883
 21
164.2999981871107025
 31
0.0
  0
LINE
  5
1297
  8
0
 10
133.6999994888903132
 20
165.0499981790781021
 30
0.0
 11
132.4999996647239868
 21
165.0499981790781021
 31
0.0
  0
LINE
  5
1298
  8
0
 10
133.6999994888903132
 20
163.9499981850385097
 30
0.0
 11
132.4999996647239868
 21
163.9499981850385097
 31
0.0
  0
LINE
  5
1299
  8
0
 10
132.4999996647239868
 20
174.9499981254338934
 30
0.0
 11
132.4999996647239868
 21
154.04999823868269
 31
0.0
  0
LINE
  5
129A
  8
0
 10
133.6999994888903132
 20
177.4999984502792074
 30
0.0
 11
133.6999994888903132
 21
151.4999979138374044
 31
0.0
  0
LINE
  5
129C
  8
0
 10
135.6999988853931995
 20
177.4999984502792074
 30
0.0
 11
135.6999988853933132
 21
151.4999979138374044
 31
0.0
  0
LINE
  5
129E
  8
0
 10
163.9999992400408928
 20
176.9999983683227924
 30
0.0
 11
163.9999992400408928
 21
151.999997995793791
 31
0.0
  0
LINE
  5
129F
  8
0
 10
182.1126326173545067
 20
154.9999984875321104
 30
0.0
 11
163.9999992400408928
 21
154.9999984875321104
 31
0.0
  0
POLYLINE
  5
12A0
  8
0
 66
     1
 10
0.0
 20
0.0
 30
0.0
 70
   128
  0
VERTEX
  5
214C
  8
0
 10
176.6491460800172035
 20
154.9999984875321104
 30
0.0
  0
VERTEX
  5
214D
  8
0
 10
177.4663089960814091
 20
155.3916028663516045
 30
0.0
  0
VERTEX
  5
214E
  8
0
 10
178.2696771621704954
 20
155.80550217628479
 30
0.0
  0
VERTEX
  5
214F
  8
0
 10
179.0567248314619917
 20
156.2486133500933079
 30
0.0
  0
VERTEX
  5
2150
  8
0
 10
179.8178202658893099
 20
156.7279827743768124
 30
0.0
  0
VERTEX
  5
2151
  8
0
 10
180.4965681582690138
 20
157.2208787277340889
 30
0.0
  0
VERTEX
  5
2152
  8
0
 10
181.1233631521463963
 20
157.7716670893132118
 30
0.0
  0
VERTEX
  5
2153
  8
0
 10
181.544566825032291
 20
158.2436022311449051
 30
0.0
  0
VERTEX
  5
2154
  8
0
 10
181.7284173518420118
 20
158.5020451769231897
 30
0.0
  0
VERTEX
  5
2155
  8
0
 10
181.8862094730139916
 20
158.7756570391356945
 30
0.0
  0
VERTEX
  5
2156
  8
0
 10
182.0397473126650993
 20
159.1497776992619038
 30
0.0
  0
VERTEX
  5
2157
  8
0
 10
182.1235439926387016
 20
159.5504084564745142
 30
0.0
  0
VERTEX
  5
2158
  8
0
 10
182.1237041801215071
 20
159.9480301104485989
 30
0.0
  0
VERTEX
  5
2159
  8
0
 10
182.0390953868628117
 20
160.3522967509925081
 30
0.0
  0
VERTEX
  5
215A
  8
0
 10
181.8436145037414065
 20
160.8050887901335955
 30
0.0
  0
VERTEX
  5
215B
  8
0
 10
181.5595424920321079
 20
161.2369751986115887
 30
0.0
  0
VERTEX
  5
215C
  8
0
 10
181.2638177722693058
 20
161.5839217286556959
 30
0.0
  0
VERTEX
  5
215D
  8
0
 10
180.9321738034487907
 20
161.9102236311881882
 30
0.0
  0
VERTEX
  5
215E
  8
0
 10
180.5692485719920057
 20
162.2211093511432125
 30
0.0
  0
VERTEX
  5
215F
  8
0
 10
180.185446813702697
 20
162.5148596670478014
 30
0.0
  0
VERTEX
  5
2160
  8
0
 10
179.3576016277075951
 20
163.0690378099679947
 30
0.0
  0
VERTEX
  5
2161
  8
0
 10
178.4852317720653048
 20
163.5773729379289136
 30
0.0
  0
VERTEX
  5
2162
  8
0
 10
177.5776374340057941
 20
164.0529312447179109
 30
0.0
  0
VERTEX
  5
2163
  8
0
 10
176.6491460800172035
 20
164.4999981820583059
 30
0.0
  0
SEQEND
  5
2164
  8
0
  0
POLYLINE
  5
12A1
  8
0
 66
     1
 10
0.0
 20
0.0
 30
0.0
 70
   128
  0
VERTEX
  5
2165
  8
0
 10
176.6491460800172035
 20
164.4999981820583059
 30
0.0
  0
VERTEX
  5
2166
  8
0
 10
177.4663089960814091
 20
164.8916025608778
 30
0.0
  0
VERTEX
  5
2167
  8
0
 10
178.2696771621704954
 20
165.3055022200568942
 30
0.0
  0
VERTEX
  5
2168
  8
0
 10
179.0567248314619917
 20
165.7486130446195034
 30
0.0
  0
VERTEX
  5
2169
  8
0
 10
179.8178202658893099
 20
166.2279827017337084
 30
0.0
  0
VERTEX
  5
216A
  8
0
 10
180.4965681582690138
 20
166.7208788879214865
 30
0.0
  0
VERTEX
  5
216B
  8
0
 10
181.1233631521463963
 20
167.2716670166701078
 30
0.0
  0
VERTEX
  5
216C
  8
0
 10
181.544566825032291
 20
167.7436021585016874
 30
0.0
  0
VERTEX
  5
216D
  8
0
 10
181.7284173518420118
 20
168.0020451042801142
 30
0.0
  0
VERTEX
  5
216E
  8
0
 10
181.8862094730139916
 20
168.2756569664925053
 30
0.0
  0
VERTEX
  5
216F
  8
0
 10
182.0397473126650993
 20
168.6497778594493866
 30
0.0
  0
VERTEX
  5
2170
  8
0
 10
182.1235439926387016
 20
169.0504081510007097
 30
0.0
  0
VERTEX
  5
2171
  8
0
 10
182.1237041801215071
 20
169.4480302706361101
 30
0.0
  0
VERTEX
  5
2172
  8
0
 10
182.0390953868628117
 20
169.852296911179991
 30
0.0
  0
VERTEX
  5
2173
  8
0
 10
181.8436145037414065
 20
170.3050887174904062
 30
0.0
  0
VERTEX
  5
2174
  8
0
 10
181.5595424920321079
 20
170.7369751259683994
 30
0.0
  0
VERTEX
  5
2175
  8
0
 10
181.2638177722693058
 20
171.0839216560125067
 30
0.0
  0
VERTEX
  5
2176
  8
0
 10
180.9321738034487907
 20
171.4102235585451126
 30
0.0
  0
VERTEX
  5
2177
  8
0
 10
180.5692485719920057
 20
171.7211092785001085
 30
0.0
  0
VERTEX
  5
2178
  8
0
 10
180.185446813702697
 20
172.0148595944046974
 30
0.0
  0
VERTEX
  5
2179
  8
0
 10
179.3576016277075951
 20
172.5690375044941902
 30
0.0
  0
VERTEX
  5
217A
  8
0
 10
178.4852317720653048
 20
173.0773729234934137
 30
0.0
  0
VERTEX
  5
217B
  8
0
 10
177.5776374340057941
 20
173.5529313758015064
 30
0.0
  0
VERTEX
  5
217C
  8
0
 10
176.6491460800172035
 20
173.9999978765845015
 30
0.0
  0
SEQEND
  5
217D
  8
0
  0
LINE
  5
12A2
  8
0
 10
163.9999992400408928
 20
173.9999978765845015
 30
0.0
 11
182.1187346428633873
 21
173.9999978765845015
 31
0.0
  0
LINE
  5
12A4
  8
0
 10
163.9999992400408928
 20
164.4999981820583059
 30
0.0
 11
176.6491460800172035
 21
164.4999981820583059
 31
0.0
  0
LINE
  5
12A6
  8
0
 10
183.9999987930060001
 20
172.3490078896284103
 30
0.0
 11
183.9999987930060001
 21
156.6509884744882015
 31
0.0
  0
LINE
  5
12A7
  8
0
 10
127.4999997764826958
 20
155.9999977201223089
 30
0.0
 11
127.4999997764826958
 21
172.9999986439943029
 31
0.0
  0
ARC
  5
12A9
  8
0
 10
126.8999923230986013
 20
171.4500017151441114
 30
0.0
 40
0.6000074533954038
 50
306.895163311998374
 51
359.9996468958801756
  0
ARC
  5
12AA
  8
0
 10
126.8999927515376953
 20
157.5499948630755966
 30
0.0
 40
0.6000070249550979
 50
0.0003326592724903
 51
53.1048571328501424
  0
ARC
  5
12AB
  8
0
 10
126.9000001938255053
 20
157.5499990513160071
 30
0.0
 40
0.5999992074846036
 50
53.1051853848012101
 51
90.0001203927764664
  0
LINE
  5
12AC
  8
0
 10
126.8999989330769012
 20
158.1499982587992861
 30
0.0
 11
118.500000163912901
 21
158.1499982587992861
 31
0.0
  0
LINE
  5
12AD
  8
0
 10
118.500000163912901
 20
158.925054218620005
 30
0.0
 11
127.4999997764826958
 21
158.9250542186200903
 31
0.0
  0
ARC
  5
12AE
  8
0
 10
126.8999984555309055
 20
171.4500025239252068
 30
0.0
 40
0.6000044186080539
 50
270.0000456019524222
 51
306.8946486204746975
  0
LINE
  5
12AF
  8
0
 10
127.4999997764826958
 20
170.0749421454966068
 30
0.0
 11
118.500000163912901
 21
170.0749421454966068
 31
0.0
  0
LINE
  5
12B0
  8
0
 10
118.500000163912901
 20
170.8499981053172974
 30
0.0
 11
126.8999989330769012
 21
170.8499981053172974
 31
0.0
  0
LINE
  5
12B1
  8
0
 10
118.500000163912901
 20
170.8499981053172974
 30
0.0
 11
118.500000163912901
 21
158.1499982587993998
 31
0.0
  0
LINE
  5
12B3
  8
0
 10
118.500000163912901
 20
170.8499981053172974
 30
0.0
 11
117.5000000000000995
 21
169.8499984070658115
 31
0.0
  0
LINE
  5
12B4
  8
0
 10
117.5000000000000995
 20
169.6845908612012863
 30
0.0
 11
118.500000163912901
 21
170.0749421454966068
 31
0.0
  0
LINE
  5
12B5
  8
0
 10
117.5000000000000995
 20
159.1499979570508003
 30
0.0
 11
117.5000000000000995
 21
169.8499984070658115
 31
0.0
  0
LINE
  5
12B6
  8
0
 10
117.5000000000000995
 20
159.3154055029154108
 30
0.0
 11
118.500000163912901
 21
158.925054218620005
 31
0.0
  0
LINE
  5
12B8
  8
0
 10
117.5000000000000995
 20
159.1499979570508003
 30
0.0
 11
118.500000163912901
 21
158.1499982587992861
 31
0.0
  0
LINE
  5
12B9
  8
0
 10
156.4999989420176121
 20
191.999998033046694
 30
0.0
 11
158.4999992698431868
 21
189.9999977052210909
 31
0.0
  0
LINE
  5
12BA
  8
0
 10
138.4999997168779942
 20
191.999998033046694
 30
0.0
 11
156.4999989420176121
 21
191.999998033046694
 31
0.0
  0
LINE
  5
12BB
  8
0
 10
136.4999993890525047
 20
189.9999977052210909
 30
0.0
 11
138.4999997168779942
 21
191.999998033046694
 31
0.0
  0
LINE
  5
12BC
  8
0
 10
136.4999993890525047
 20
138.9999986588954926
 30
0.0
 11
136.4999993890525047
 21
189.9999977052210909
 31
0.0
  0
LINE
  5
12BD
  8
0
 10
158.4999992698431868
 20
189.9999977052210909
 30
0.0
 11
158.4999992698431868
 21
138.9999986588954926
 31
0.0
  0
CIRCLE
  5
12BE
  8
0
 10
147.4999993294478031
 20
182.4999981820583912
 30
0.0
 40
7.0
  0
CIRCLE
  5
12BF
  8
0
 10
147.4999993294478031
 20
146.4999981820581922
 30
0.0
 40
7.0
  0
LINE
  5
12C0
  8
0
 10
158.4999992698431868
 20
138.9999986588954926
 30
0.0
 11
156.4999989420176121
 21
136.9999983310698894
 31
0.0
  0
LINE
  5
12C1
  8
0
 10
138.4999997168779942
 20
136.9999983310698894
 30
0.0
 11
136.4999993890525047
 21
138.9999986588954926
 31
0.0
  0
LINE
  5
12C2
  8
0
 10
156.4999989420176121
 20
136.9999983310698894
 30
0.0
 11
138.4999997168779942
 21
136.9999983310698894
 31
0.0
  0
CIRCLE
  5
12C3
  8
0
 10
147.4999993294478031
 20
182.4999981820583912
 30
0.0
 40
4.5
  0
CIRCLE
  5
12C4
  8
0
 10
147.4999993294478031
 20
146.4999981820581922
 30
0.0
 40
4.5
  0
LINE
  5
12C5
  8
1
 10
147.4999993294478031
 20
132.9999983310698894
 30
0.0
 11
147.4999993294478031
 21
195.999998033046694
 31
0.0
  0
LINE
  5
12C6
  8
1
 10
156.4999993294478031
 20
182.4999981820581922
 30
0.0
 11
138.4999993294478031
 21
182.4999981820581922
 31
0.0
  0
LINE
  5
12C7
  8
1
 10
156.4999993294478031
 20
146.499998182058107
 30
0.0
 11
138.4999993294478031
 21
146.499998182058107
 31
0.0
  0
LINE
  5
12C8
  8
1
 10
187.9999987930060001
 20
164.499998182058107
 30
0.0
 11
113.5000000000000995
 21
164.499998182058107
 31
0.0
  0
LINE
  5
1313
  8
0
 10
158.4999992698431868
 20
77.0000008642673492
 30
0.0
 11
159.4999994337559883
 21
77.0000008642673492
 31
0.0
  0
LINE
  5
1314
  8
0
 10
132.4999996647239868
 20
78.8999994993209839
 30
0.0
 11
133.6999994888903132
 21
78.8999994993209839
 31
0.0
  0
LINE
  5
1315
  8
0
 10
133.6999994888903132
 20
77.0000008642673492
 30
0.0
 11
135.6999988853931995
 21
77.0000008642673492
 31
0.0
  0
LINE
  5
1316
  8
0
 10
135.6999988853931995
 20
103.0000014007090954
 30
0.0
 11
133.6999994888903132
 21
103.0000014007090954
 31
0.0
  0
LINE
  5
1317
  8
0
 10
159.9999995157124033
 20
103.0000014007090954
 30
0.0
 11
159.4999994337559883
 21
102.5000003874302053
 31
0.0
  0
LINE
  5
1318
  8
0
 10
159.4999994337559883
 20
77.5000000149011612
 30
0.0
 11
159.9999995157124033
 21
77.0000008642673492
 31
0.0
  0
LINE
  5
1319
  8
0
 10
159.9999995157124033
 20
77.0000008642673492
 30
0.0
 11
163.5000000894071093
 21
77.0000008642673492
 31
0.0
  0
LINE
  5
131A
  8
0
 10
163.5000000894071093
 20
103.0000014007090954
 30
0.0
 11
159.9999995157124033
 21
103.0000014007090954
 31
0.0
  0
LINE
  5
131B
  8
0
 10
163.5000000894071093
 20
77.0000008642673492
 30
0.0
 11
163.9999992400408928
 21
77.5000000149011612
 31
0.0
  0
LINE
  5
131C
  8
0
 10
163.9999992400408928
 20
102.5000003874302053
 30
0.0
 11
163.5000000894071093
 21
103.0000014007090954
 31
0.0
  0
LINE
  5
131D
  8
0
 10
176.6491460800172035
 20
79.030345544219017
 30
0.0
 11
182.8882268816234102
 21
80.7021012306213379
 31
0.0
  0
LINE
  5
131E
  8
0
 10
182.8882268816234102
 20
99.2978973090648651
 30
0.0
 11
176.6491460800172035
 21
100.9696548581123068
 31
0.0
  0
ARC
  5
131F
  8
0
 10
182.4999993294478031
 20
82.1509904819684635
 30
0.0
 40
1.5000000000000031
 50
284.9999999999977831
 51
0.0
  0
ARC
  5
1320
  8
0
 10
182.4999993294478031
 20
97.8490095180316075
 30
0.0
 40
1.5
 50
0.0
 51
74.9999999999987921
  0
LINE
  5
1321
  8
0
 10
135.6999988853931995
 20
81.0000015199184418
 30
0.0
 11
136.4999993890525047
 21
81.0000015199184418
 31
0.0
  0
LINE
  5
1322
  8
0
 10
136.4999993890525047
 20
99.0000007450580597
 30
0.0
 11
135.6999988853931995
 21
99.0000007450580597
 31
0.0
  0
LINE
  5
1323
  8
0
 10
127.9999989271164935
 20
81.0000015199184418
 30
0.0
 11
132.4999996647239868
 21
81.0000015199184418
 31
0.0
  0
LINE
  5
1324
  8
0
 10
132.4999996647239868
 20
99.0000007450580597
 30
0.0
 11
127.9999989271164935
 21
99.0000007450580597
 31
0.0
  0
LINE
  5
1325
  8
0
 10
127.9999989271164935
 20
99.0000007450580597
 30
0.0
 11
127.4999997764826958
 21
98.4999997317790985
 31
0.0
  0
LINE
  5
1326
  8
0
 10
127.4999997764826958
 20
81.4999988079071045
 30
0.0
 11
127.9999989271164935
 21
81.0000015199184418
 31
0.0
  0
LINE
  5
1327
  8
0
 10
158.4999992698431868
 20
102.8923032581806041
 30
0.0
 11
159.4999994337559883
 21
102.8923032581806041
 31
0.0
  0
LINE
  5
1328
  8
0
 10
159.4999994337559883
 20
77.0000008642673492
 30
0.0
 11
159.4999994337559883
 21
102.8923032581806041
 31
0.0
  0
LINE
  5
1329
  8
0
 10
132.4999996647239868
 20
102.3000007271765952
 30
0.0
 11
132.4999996647239868
 21
78.8999994993209839
 31
0.0
  0
LINE
  5
132A
  8
0
 10
133.6999994888903132
 20
102.3000007271765952
 30
0.0
 11
132.4999996647239868
 21
102.3000007271765952
 31
0.0
  0
LINE
  5
132B
  8
0
 10
133.6999994888903132
 20
103.0000014007090954
 30
0.0
 11
133.6999994888903132
 21
77.0000008642673492
 31
0.0
  0
LINE
  5
132C
  8
0
 10
135.6999988853931995
 20
103.0000014007090954
 30
0.0
 11
135.6999988853931995
 21
77.0000008642673492
 31
0.0
  0
LINE
  5
132E
  8
0
 10
163.9999992400408928
 20
102.5000003874302053
 30
0.0
 11
163.9999992400408928
 21
77.5000000149011612
 31
0.0
  0
LINE
  5
132F
  8
0
 10
163.9999992400408928
 20
84.5151742696762085
 30
0.0
 11
176.6491460800172035
 21
84.5151742696762085
 31
0.0
  0
POLYLINE
  5
1330
  8
0
 66
     1
 10
0.0
 20
0.0
 30
0.0
 70
   128
  0
VERTEX
  5
217E
  8
0
 10
176.6491460800172035
 20
79.030345544219017
 30
0.0
  0
VERTEX
  5
217F
  8
0
 10
177.4663089960814091
 20
79.2564371377229691
 30
0.0
  0
VERTEX
  5
2180
  8
0
 10
178.2696771621704954
 20
79.4954033344984055
 30
0.0
  0
VERTEX
  5
2181
  8
0
 10
179.0567248314619917
 20
79.7512320578098297
 30
0.0
  0
VERTEX
  5
2182
  8
0
 10
179.8178202658893099
 20
80.0279969125986099
 30
0.0
  0
VERTEX
  5
2183
  8
0
 10
180.4965681582690138
 20
80.3125699758529663
 30
0.0
  0
VERTEX
  5
2184
  8
0
 10
181.1233631521463963
 20
80.6305682063102722
 30
0.0
  0
VERTEX
  5
2185
  8
0
 10
181.544566825032291
 20
80.9030396640300751
 30
0.0
  0
VERTEX
  5
2186
  8
0
 10
181.7284173518420118
 20
81.0522524416446686
 30
0.0
  0
VERTEX
  5
2187
  8
0
 10
181.8862094730139916
 20
81.210223376750946
 30
0.0
  0
VERTEX
  5
2188
  8
0
 10
182.0397473126650993
 20
81.4262231588363647
 30
0.0
  0
VERTEX
  5
2189
  8
0
 10
182.1235439926387016
 20
81.657526433467865
 30
0.0
  0
VERTEX
  5
218A
  8
0
 10
182.1237041801215071
 20
81.887093722820282
 30
0.0
  0
VERTEX
  5
218B
  8
0
 10
182.0390953868628117
 20
82.1204943358898163
 30
0.0
  0
VERTEX
  5
218C
  8
0
 10
181.8436145037414065
 20
82.3819165825843811
 30
0.0
  0
VERTEX
  5
218D
  8
0
 10
181.5595424920321079
 20
82.6312651634216309
 30
0.0
  0
VERTEX
  5
218E
  8
0
 10
181.2638177722693058
 20
82.831574022769928
 30
0.0
  0
VERTEX
  5
218F
  8
0
 10
180.9321738034487907
 20
83.0199656784534454
 30
0.0
  0
VERTEX
  5
2190
  8
0
 10
180.5692485719920057
 20
83.1994538903236389
 30
0.0
  0
VERTEX
  5
2191
  8
0
 10
180.185446813702697
 20
83.369051456451416
 30
0.0
  0
VERTEX
  5
2192
  8
0
 10
179.3576016277075951
 20
83.6890054643154144
 30
0.0
  0
VERTEX
  5
2193
  8
0
 10
178.4852317720653048
 20
83.9824950098991394
 30
0.0
  0
VERTEX
  5
2194
  8
0
 10
177.5776374340057941
 20
84.2570600807666779
 30
0.0
  0
VERTEX
  5
2195
  8
0
 10
176.6491460800172035
 20
84.5151742696762085
 30
0.0
  0
SEQEND
  5
2196
  8
0
  0
LINE
  5
1331
  8
0
 10
163.9999992400408928
 20
79.030345544219017
 30
0.0
 11
176.6491460800172035
 21
79.030345544219017
 31
0.0
  0
POLYLINE
  5
1332
  8
0
 66
     1
 10
0.0
 20
0.0
 30
0.0
 70
   128
  0
VERTEX
  5
2197
  8
0
 10
176.6491460800172035
 20
84.5151742696762085
 30
0.0
  0
VERTEX
  5
2198
  8
0
 10
176.9654567539693062
 20
84.6867089867591858
 30
0.0
  0
VERTEX
  5
2199
  8
0
 10
177.4780771881343071
 20
84.9740965068340302
 30
0.0
  0
VERTEX
  5
219A
  8
0
 10
178.486019670963401
 20
85.5810282528400421
 30
0.0
  0
VERTEX
  5
219B
  8
0
 10
179.6253009885550114
 20
86.3635739088058472
 30
0.0
  0
VERTEX
  5
219C
  8
0
 10
180.172099098563308
 20
86.7962030470371246
 30
0.0
  0
VERTEX
  5
219D
  8
0
 10
180.6209295243025963
 20
87.1951220333576202
 30
0.0
  0
VERTEX
  5
219E
  8
0
 10
180.835863873362598
 20
87.405831903219223
 30
0.0
  0
VERTEX
  5
219F
  8
0
 10
181.0161790996791069
 20
87.5957434773445129
 30
0.0
  0
VERTEX
  5
21A0
  8
0
 10
181.189218834042606
 20
87.7923195958137512
 30
0.0
  0
VERTEX
  5
21A1
  8
0
 10
181.4736372977496046
 20
88.1579605638980865
 30
0.0
  0
VERTEX
  5
21A2
  8
0
 10
181.7891172319652071
 20
88.6717637777328491
 30
0.0
  0
VERTEX
  5
21A3
  8
0
 10
181.8830541521311943
 20
88.8677624762058258
 30
0.0
  0
VERTEX
  5
21A4
  8
0
 10
182.0325277000667086
 20
89.2808301150798798
 30
0.0
  0
VERTEX
  5
21A5
  8
0
 10
182.0843800157308863
 20
89.4973365366458893
 30
0.0
  0
VERTEX
  5
21A6
  8
0
 10
182.1176617592574019
 20
89.7117828726768494
 30
0.0
  0
VERTEX
  5
21A7
  8
0
 10
182.1060537546873945
 20
90.377093642950058
 30
0.0
  0
VERTEX
  5
21A8
  8
0
 10
182.0049307495357027
 20
90.8112687766551971
 30
0.0
  0
VERTEX
  5
21A9
  8
0
 10
181.6878452152014916
 20
91.5118058919906616
 30
0.0
  0
VERTEX
  5
21AA
  8
0
 10
181.4723334461450861
 20
91.8438708186149597
 30
0.0
  0
VERTEX
  5
21AB
  8
0
 10
181.1635068804027071
 20
92.2379245758056641
 30
0.0
  0
VERTEX
  5
21AC
  8
0
 10
180.9619239717723076
 20
92.4628352522850037
 30
0.0
  0
VERTEX
  5
21AD
  8
0
 10
180.7029753178358931
 20
92.7262207269668579
 30
0.0
  0
VERTEX
  5
21AE
  8
0
 10
180.1507941633464043
 20
93.2216172814369202
 30
0.0
  0
VERTEX
  5
21AF
  8
0
 10
179.5617363601924126
 20
93.683799147605896
 30
0.0
  0
VERTEX
  5
21B0
  8
0
 10
178.9455249160529036
 20
94.1185442507266998
 30
0.0
  0
VERTEX
  5
21B1
  8
0
 10
178.6303728073835941
 20
94.3264638781547546
 30
0.0
  0
VERTEX
  5
21B2
  8
0
 10
178.1450177729130928
 20
94.6314496695995331
 30
0.0
  0
VERTEX
  5
21B3
  8
0
 10
177.1533212810755913
 20
95.209387481212616
 30
0.0
  0
VERTEX
  5
21B4
  8
0
 10
176.6491460800172035
 20
95.484827995300293
 30
0.0
  0
SEQEND
  5
21B5
  8
0
  0
POLYLINE
  5
1333
  8
0
 66
     1
 10
0.0
 20
0.0
 30
0.0
 70
   128
  0
VERTEX
  5
21B6
  8
0
 10
176.6491460800172035
 20
95.484827995300293
 30
0.0
  0
VERTEX
  5
21B7
  8
0
 10
177.4663089960814091
 20
95.710919588804245
 30
0.0
  0
VERTEX
  5
21B8
  8
0
 10
178.2696771621704954
 20
95.9498857855796814
 30
0.0
  0
VERTEX
  5
21B9
  8
0
 10
179.0567248314619917
 20
96.2057163715362549
 30
0.0
  0
VERTEX
  5
21BA
  8
0
 10
179.8178202658893099
 20
96.4824793636798859
 30
0.0
  0
VERTEX
  5
21BB
  8
0
 10
180.4965681582690138
 20
96.7670542895793915
 30
0.0
  0
VERTEX
  5
21BC
  8
0
 10
181.1233631521463963
 20
97.0850525200366974
 30
0.0
  0
VERTEX
  5
21BD
  8
0
 10
181.544566825032291
 20
97.3575239777565002
 30
0.0
  0
VERTEX
  5
21BE
  8
0
 10
181.7284173518420118
 20
97.5067367553710938
 30
0.0
  0
VERTEX
  5
21BF
  8
0
 10
181.8862094730139916
 20
97.6647039651870728
 30
0.0
  0
VERTEX
  5
21C0
  8
0
 10
182.0397473126650993
 20
97.8807037472724915
 30
0.0
  0
VERTEX
  5
21C1
  8
0
 10
182.1235439926387016
 20
98.1120070219039917
 30
0.0
  0
VERTEX
  5
21C2
  8
0
 10
182.1237041801215071
 20
98.3415743112564087
 30
0.0
  0
VERTEX
  5
21C3
  8
0
 10
182.0390953868628117
 20
98.5749786496162415
 30
0.0
  0
VERTEX
  5
21C4
  8
0
 10
181.8436145037414065
 20
98.8363971710205078
 30
0.0
  0
VERTEX
  5
21C5
  8
0
 10
181.5595424920321079
 20
99.085749477148056
 30
0.0
  0
VERTEX
  5
21C6
  8
0
 10
181.2638177722693058
 20
99.2860583364963531
 30
0.0
  0
VERTEX
  5
21C7
  8
0
 10
180.9321738034487907
 20
99.4744462668895721
 30
0.0
  0
VERTEX
  5
21C8
  8
0
 10
180.5692485719920057
 20
99.6539382040500641
 30
0.0
  0
VERTEX
  5
21C9
  8
0
 10
180.185446813702697
 20
99.8235357701778412
 30
0.0
  0
VERTEX
  5
21CA
  8
0
 10
179.3576016277075951
 20
100.143489778041797
 30
0.0
  0
VERTEX
  5
21CB
  8
0
 10
178.4852317720653048
 20
100.4369755983351951
 30
0.0
  0
VERTEX
  5
21CC
  8
0
 10
177.5776374340057941
 20
100.7115406692028046
 30
0.0
  0
VERTEX
  5
21CD
  8
0
 10
176.6491460800172035
 20
100.9696548581123068
 30
0.0
  0
SEQEND
  5
21CE
  8
0
  0
LINE
  5
1334
  8
0
 10
163.9999992400408928
 20
100.9696548581123068
 30
0.0
 11
176.6491460800172035
 21
100.9696548581123068
 31
0.0
  0
LINE
  5
1335
  8
0
 10
163.9999992400408928
 20
95.484827995300293
 30
0.0
 11
176.6491460800172035
 21
95.484827995300293
 31
0.0
  0
LINE
  5
1336
  8
0
 10
183.9999987930060001
 20
97.8490089774131775
 30
0.0
 11
183.9999987930060001
 21
82.1509895622730255
 31
0.0
  0
LINE
  5
1338
  8
0
 10
127.4999997764826958
 20
81.4999988079071045
 30
0.0
 11
127.4999997764826958
 21
98.4999997317790985
 31
0.0
  0
ARC
  5
1339
  8
0
 10
126.8999844033922955
 20
96.9500072262914045
 30
0.0
 40
0.6000153731392794
 50
306.8955412302847776
 51
359.9992689775958752
  0
ARC
  5
133A
  8
0
 10
126.8999952934192947
 20
83.0499967554492002
 30
0.0
 40
0.6000044830674957
 50
0.0002113616380697
 51
53.1049784304860566
  0
ARC
  5
133B
  8
0
 10
126.8999937441578965
 20
83.0499942901729042
 30
0.0
 40
0.60000738474004
 50
53.1050014467750415
 51
89.9995045008190715
  0
LINE
  5
133C
  8
0
 10
126.8999989330769012
 20
83.6500016748905182
 30
0.0
 11
118.500000163912901
 21
83.6500016748905182
 31
0.0
  0
LINE
  5
133D
  8
0
 10
118.500000163912901
 20
84.4250557720661163
 30
0.0
 11
127.4999997764826958
 21
84.4250557720661163
 31
0.0
  0
ARC
  5
133E
  8
0
 10
126.9000092516587017
 20
96.949976362700454
 30
0.0
 40
0.5999757727032334
 50
269.9990146082371893
 51
306.895413003362421
  0
LINE
  5
133F
  8
0
 10
127.4999997764826958
 20
95.5749427676200867
 30
0.0
 11
118.500000163912901
 21
95.5749427676200867
 31
0.0
  0
LINE
  5
1340
  8
0
 10
118.500000163912901
 20
96.3500005900859833
 30
0.0
 11
126.8999989330769012
 21
96.3500005900859833
 31
0.0
  0
LINE
  5
1341
  8
0
 10
118.500000163912901
 20
96.3500005900859833
 30
0.0
 11
118.500000163912901
 21
83.6500016748905182
 31
0.0
  0
LINE
  5
1342
  8
0
 10
117.5000000000000995
 20
95.3499985635280609
 30
0.0
 11
118.500000163912901
 21
96.3500005900859833
 31
0.0
  0
LINE
  5
1343
  8
0
 10
117.5000000000000995
 20
95.1845919489860535
 30
0.0
 11
118.500000163912901
 21
95.5749427676200867
 31
0.0
  0
LINE
  5
1344
  8
0
 10
117.5000000000000995
 20
84.8154065907001495
 30
0.0
 11
118.500000163912901
 21
84.4250557720661163
 31
0.0
  0
LINE
  5
1345
  8
0
 10
118.500000163912901
 20
83.6500016748905182
 30
0.0
 11
117.5000000000000995
 21
84.6499999761581421
 31
0.0
  0
LINE
  5
1346
  8
0
 10
117.5000000000000995
 20
84.6499999761581421
 30
0.0
 11
117.5000000000000995
 21
95.3499985635280609
 31
0.0
  0
LINE
  5
1347
  8
0
 10
158.4999992698431868
 20
60.5000000237487185
 30
0.0
 11
157.9999991878868002
 21
60.0
 31
0.0
  0
LINE
  5
1348
  8
0
 10
157.9999991878868002
 20
60.0
 30
0.0
 11
136.9999994710088913
 21
60.0
 31
0.0
  0
LINE
  5
1349
  8
0
 10
136.9999994710088913
 20
60.0
 30
0.0
 11
136.4999993890525047
 21
60.5000000237487185
 31
0.0
  0
LINE
  5
134A
  8
0
 10
158.4999992698431868
 20
106.5000010430812978
 30
0.0
 11
157.9999991878868002
 21
106.9999983310699037
 31
0.0
  0
LINE
  5
134B
  8
0
 10
158.4999992698431868
 20
106.5000010430811983
 30
0.0
 11
158.4999992698431868
 21
60.5000000237487185
 31
0.0
  0
LINE
  5
134C
  8
0
 10
156.4999989420176121
 20
60.0
 30
0.0
 11
156.4999989420176121
 21
106.9999983310699037
 31
0.0
  0
LINE
  5
134D
  8
0
 10
138.4999997168779942
 20
106.9999983310699037
 30
0.0
 11
138.4999997168779942
 21
60.0
 31
0.0
  0
LINE
  5
134E
  8
0
 10
136.4999993890525047
 20
60.5000000237487185
 30
0.0
 11
136.4999993890525047
 21
106.5000010430811983
 31
0.0
  0
LINE
  5
134F
  8
0
 10
136.9999994710088913
 20
106.9999983310699037
 30
0.0
 11
157.9999991878869139
 21
106.9999983310699037
 31
0.0
  0
LINE
  5
1350
  8
0
 10
136.9999994710088913
 20
106.9999983310699037
 30
0.0
 11
136.4999993890525047
 21
106.5000010430812978
 31
0.0
  0
LINE
  5
1351
  8
2
 10
154.4999995455146973
 20
97.9999987185001373
 30
0.0
 11
140.4999991133809942
 21
97.9999987185001373
 31
0.0
  0
LINE
  5
1352
  8
2
 10
140.4999991133809942
 20
106.9999983310699037
 30
0.0
 11
140.4999991133809942
 21
97.9999987185001373
 31
0.0
  0
LINE
  5
1353
  8
2
 10
154.4999995455146973
 20
97.9999987185001373
 30
0.0
 11
154.4999995455146973
 21
106.9999983310699037
 31
0.0
  0
LINE
  5
1354
  8
2
 10
151.9999991357327076
 20
60.0
 30
0.0
 11
151.9999991357327076
 21
97.9999987185001373
 31
0.0
  0
LINE
  5
1355
  8
2
 10
142.9999995231628986
 20
97.9999987185001515
 30
0.0
 11
142.9999995231628986
 21
60.0
 31
0.0
  0
LINE
  5
1356
  8
1
 10
113.5000000000000995
 20
90.0000000000000568
 30
0.0
 11
187.9999987930060001
 21
90.0000000000000568
 31
0.0
  0
LINE
  5
1357
  8
1
 10
147.4999993294474905
 20
49.999999269843272
 30
0.0
 11
147.4999993294478884
 21
110.9999983310699037
 31
0.0
  0
LINE
  5
1361
  8
1
 10
75.0
 20
89.9999992698431015
 30
0.0
 11
45.0
 21
89.9999992698431015
 31
0.0
  0
LINE
  5
1384
  8
0
 10
85.5000000000001137
 20
107.000000000000199
 30
0.0
 11
85.5000000000001137
 21
60.0
 31
0.0
  0
LINE
  5
1387
  8
0
 10
34.4999999999999432
 20
60.0
 30
0.0
 11
34.4999999999999432
 21
107.000000000000199
 31
0.0
  0
LINE
  5
1388
  8
1
 10
78.0000000000001705
 20
109.000000000000199
 30
0.0
 11
78.0000000000000568
 21
58.0
 31
0.0
  0
LINE
  5
1389
  8
1
 10
41.9999999999998792
 20
58.0
 30
0.0
 11
41.9999999999998792
 21
109.000000000000199
 31
0.0
  0
LINE
  5
138A
  8
1
 10
59.9999999999998295
 20
56.0
 30
0.0
 11
59.9999999999999432
 21
111.000000000000199
 31
0.0
  0
LINE
  5
13A7
  8
1
 10
226.4999987930060001
 20
89.9999992698431157
 30
0.0
 11
256.4999987930061138
 21
89.9999992698431015
 31
0.0
  0
LINE
  5
13A8
  8
1
 10
241.4999987930061138
 20
111.0
 30
0.0
 11
241.4999987930061138
 21
56.0
 31
0.0
  0
LINE
  5
13A9
  8
1
 10
223.4999987930061138
 20
58.0
 30
0.0
 11
223.4999987930061138
 21
109.0
 31
0.0
  0
LINE
  5
13AA
  8
1
 10
259.4999987930060001
 20
109.0
 30
0.0
 11
259.4999987930060001
 21
58.0
 31
0.0
  0
LINE
  5
2054
  8
1
 10
152.4999993294480021
 20
156.499998182058107
 30
0.0
 11
142.4999993294476894
 21
156.499998182058107
 31
0.0
  0
LINE
  5
2055
  8
1
 10
152.4999993294480021
 20
172.499998182058107
 30
0.0
 11
142.4999993294476894
 21
172.499998182058107
 31
0.0
  0
CIRCLE
  5
2064
  8
2
 10
147.4999993294478031
 20
172.499998182058107
 30
0.0
 40
3.0000000000001421
  0
CIRCLE
  5
2065
  8
2
 10
147.4999993294478031
 20
156.499998182058107
 30
0.0
 40
3.0000000000001421
  0
LINE
  5
20B0
  8
0
 10
49.0000000000001492
 20
51.9999992698431015
 30
0.0
 11
55.0000000000001492
 21
51.9999992698431015
 31
0.0
  0
LINE
  5
20B1
  8
1
 10
52.0000000000006892
 20
62.0000000000002274
 30
0.0
 11
52.0000000000002629
 21
49.9999992698431015
 31
0.0
  0
LINE
  5
20B2
  8
1
 10
68.0000000000000568
 20
62.0000000000005116
 30
0.0
 11
68.0000000000002132
 21
49.9999992698434426
 31
0.0
  0
LINE
  5
20B3
  8
0
 10
55.0000000000001208
 20
51.9999992698431015
 30
0.0
 11
55.0000000000000924
 21
60.0
 31
0.0
  0
LINE
  5
20B4
  8
0
 10
49.0000000000000924
 20
60.0
 30
0.0
 11
49.0000000000000497
 21
51.9999992698431015
 31
0.0
  0
LINE
  5
20B5
  8
0
 10
64.9999999999998863
 20
51.9999992698431015
 30
0.0
 11
70.9999999999998863
 21
51.9999992698431015
 31
0.0
  0
LINE
  5
20B6
  8
0
 10
70.9999999999998579
 20
51.9999992698431015
 30
0.0
 11
70.9999999999998295
 21
60.0
 31
0.0
  0
LINE
  5
20B7
  8
0
 10
64.9999999999998295
 20
60.0
 30
0.0
 11
64.999999999999801
 21
51.9999992698431015
 31
0.0
  0
LINE
  5
20C6
  8
0
 10
230.4999987930061991
 20
51.9999992698430873
 30
0.0
 11
236.4999987930061991
 21
51.9999992698430873
 31
0.0
  0
LINE
  5
20C7
  8
1
 10
233.4999987930067959
 20
62.0000000000002203
 30
0.0
 11
233.4999987930063128
 21
49.9999992698430873
 31
0.0
  0
LINE
  5
20C8
  8
1
 10
249.4999987930061138
 20
62.0000000000004974
 30
0.0
 11
249.4999987930063128
 21
49.9999992698434426
 31
0.0
  0
LINE
  5
20C9
  8
0
 10
236.4999987930061991
 20
51.9999992698430873
 30
0.0
 11
236.4999987930061991
 21
60.0
 31
0.0
  0
LINE
  5
20CA
  8
0
 10
230.4999987930061991
 20
60.0
 30
0.0
 11
230.4999987930061138
 21
51.9999992698430873
 31
0.0
  0
LINE
  5
20CB
  8
0
 10
246.4999987930060001
 20
51.9999992698430873
 30
0.0
 11
252.4999987930060001
 21
51.9999992698430873
 31
0.0
  0
LINE
  5
20CC
  8
0
 10
252.4999987930058865
 20
51.9999992698430873
 30
0.0
 11
252.4999987930058865
 21
60.0
 31
0.0
  0
LINE
  5
20CD
  8
0
 10
246.4999987930058865
 20
60.0
 30
0.0
 11
246.4999987930058865
 21
51.9999992698430873
 31
0.0
  0
LINE
  5
20CE
  8
0
 10
144.4999993294472915
 20
51.999999269843272
 30
0.0
 11
150.4999993294472915
 21
51.999999269843272
 31
0.0
  0
LINE
  5
20D0
  8
0
 10
150.4999993294472915
 20
51.999999269843272
 30
0.0
 11
150.4999993294472915
 21
60.0000000000001705
 31
0.0
  0
LINE
  5
20D1
  8
0
 10
144.4999993294472915
 20
60.0000000000001705
 30
0.0
 11
144.4999993294472063
 21
51.999999269843272
 31
0.0
  0
ENDSEC
  0
EOF
