  0
SECTION
  2
HEADER
  9
$ACADVER
  1
AC1009
  9
$INSBASE
 10
0.0
 20
0.0
 30
0.0
  9
$EXTMIN
 10
0.0
 20
-2.960436562073669
 30
0.0
  9
$EXTMAX
 10
285.0
 20
208.0
 30
0.0
  9
$LIMMIN
 10
0.0
 20
0.0
  9
$LIMMAX
 10
375.0
 20
270.0
  9
$ORTHOMODE
 70
     1
  9
$REGENMODE
 70
     1
  9
$FILLMODE
 70
     1
  9
$QTEXTMODE
 70
     0
  9
$MIRRTEXT
 70
     0
  9
$DRAGMODE
 70
     2
  9
$LTSCALE
 40
10.0
  9
$OSMODE
 70
    37
  9
$ATTMODE
 70
     1
  9
$TEXTSIZE
 40
4.000000000000048
  9
$TRACEWID
 40
0.05
  9
$TEXTSTYLE
  7
STANDARD
  9
$CLAYER
  8
0
  9
$CELTYPE
  6
BYLAYER
  9
$CECOLOR
 62
   256
  9
$DIMSCALE
 40
1.0
  9
$DIMASZ
 40
3.0
  9
$DIMEXO
 40
2.0
  9
$DIMDLI
 40
0.38
  9
$DIMRND
 40
0.0
  9
$DIMDLE
 40
0.0
  9
$DIMEXE
 40
2.0
  9
$DIMTP
 40
0.0
  9
$DIMTM
 40
0.0
  9
$DIMTXT
 40
3.2000000000000002
  9
$DIMCEN
 40
0.0
  9
$DIMTSZ
 40
0.0
  9
$DIMTOL
 70
     0
  9
$DIMLIM
 70
     0
  9
$DIMTIH
 70
     0
  9
$DIMTOH
 70
     0
  9
$DIMSE1
 70
     0
  9
$DIMSE2
 70
     0
  9
$DIMTAD
 70
     1
  9
$DIMZIN
 70
     0
  9
$DIMBLK
  1

  9
$DIMASO
 70
     1
  9
$DIMSHO
 70
     0
  9
$DIMPOST
  1

  9
$DIMAPOST
  1

  9
$DIMALT
 70
     0
  9
$DIMALTD
 70
     2
  9
$DIMALTF
 40
25.399999999999999
  9
$DIMLFAC
 40
1.0
  9
$DIMTOFL
 70
     1
  9
$DIMTVP
 40
1.6000000000000001
  9
$DIMTIX
 70
     1
  9
$DIMSOXD
 70
     0
  9
$DIMSAH
 70
     0
  9
$DIMBLK1
  1

  9
$DIMBLK2
  1

  9
$DIMSTYLE
  2
STANDARD
  9
$DIMCLRD
 70
     0
  9
$DIMCLRE
 70
     0
  9
$DIMCLRT
 70
     0
  9
$DIMTFAC
 40
1.0
  9
$DIMGAP
 40
0.09
  9
$LUNITS
 70
     2
  9
$LUPREC
 70
     4
  9
$SKETCHINC
 40
0.1
  9
$FILLETRAD
 40
0.5
  9
$AUNITS
 70
     0
  9
$AUPREC
 70
     4
  9
$MENU
  1
E:\r13\win\SUPPORT\ACAD
  9
$ELEVATION
 40
0.0
  9
$PELEVATION
 40
0.0
  9
$THICKNESS
 40
0.0
  9
$LIMCHECK
 70
     0
  9
$BLIPMODE
 70
     0
  9
$CHAMFERA
 40
0.0
  9
$CHAMFERB
 40
0.0
  9
$SKPOLY
 70
     0
  9
$TDCREATE
 40
2449839.7806944451
  9
$TDUPDATE
 40
2457637.5640593749
  9
$TDINDWG
 40
0.0210991898
  9
$TDUSRTIMER
 40
0.0210991898
  9
$USRTIMER
 70
     1
  9
$ANGBASE
 50
0.0
  9
$ANGDIR
 70
     0
  9
$PDMODE
 70
     0
  9
$PDSIZE
 40
0.0
  9
$PLINEWID
 40
0.0
  9
$COORDS
 70
     1
  9
$SPLFRAME
 70
     0
  9
$SPLINETYPE
 70
     6
  9
$SPLINESEGS
 70
     8
  9
$ATTDIA
 70
     0
  9
$ATTREQ
 70
     1
  9
$HANDLING
 70
     1
  9
$HANDSEED
  5
5D8
  9
$SURFTAB1
 70
     6
  9
$SURFTAB2
 70
     6
  9
$SURFTYPE
 70
     6
  9
$SURFU
 70
     6
  9
$SURFV
 70
     6
  9
$UCSNAME
  2

  9
$UCSORG
 10
0.0
 20
0.0
 30
0.0
  9
$UCSXDIR
 10
1.0
 20
0.0
 30
0.0
  9
$UCSYDIR
 10
0.0
 20
1.0
 30
0.0
  9
$PUCSNAME
  2

  9
$PUCSORG
 10
0.0
 20
0.0
 30
0.0
  9
$PUCSXDIR
 10
1.0
 20
0.0
 30
0.0
  9
$PUCSYDIR
 10
0.0
 20
1.0
 30
0.0
  9
$USERI1
 70
     0
  9
$USERI2
 70
     1
  9
$USERI3
 70
     1
  9
$USERI4
 70
     0
  9
$USERI5
 70
     0
  9
$USERR1
 40
0.0
  9
$USERR2
 40
0.0
  9
$USERR3
 40
0.0
  9
$USERR4
 40
0.0
  9
$USERR5
 40
0.0
  9
$WORLDVIEW
 70
     1
  9
$SHADEDGE
 70
     3
  9
$SHADEDIF
 70
    70
  9
$TILEMODE
 70
     1
  9
$MAXACTVP
 70
    16
  9
$PLIMCHECK
 70
     0
  9
$PEXTMIN
 10
1.049999952316284
 20
0.7999999523162842
 30
0.0
  9
$PEXTMAX
 10
9.4499995708465594
 20
7.1999995708465576
 30
0.0
  9
$PLIMMIN
 10
-0.2500002402958907
 20
-0.2499999962453767
  9
$PLIMMAX
 10
10.74999951940822
 20
8.2499997634587334
  9
$UNITMODE
 70
     0
  9
$VISRETAIN
 70
     0
  9
$PLINEGEN
 70
     0
  9
$PSLTSCALE
 70
     0
  0
ENDSEC
  0
SECTION
  2
TABLES
  0
TABLE
  2
VPORT
 70
     1
  0
VPORT
  2
*ACTIVE
 70
     0
 10
0.0
 20
0.0
 11
1.0
 21
1.0
 12
171.03350141475801
 22
102.5216213112412
 13
0.0
 23
0.0
 14
10.0
 24
10.0
 15
10.0
 25
10.0
 16
0.0
 26
0.0
 36
1.0
 17
0.0
 27
0.0
 37
0.0
 40
193.2140905765217
 41
1.368715083798882
 42
50.0
 43
0.0
 44
0.0
 50
0.0
 51
0.0
 71
     0
 72
   500
 73
     1
 74
     0
 75
     0
 76
     0
 77
     0
 78
     2
  0
ENDTAB
  0
TABLE
  2
LTYPE
 70
     3
  0
LTYPE
  2
CONTINUOUS
 70
     0
  3
Solid Line
 72
    65
 73
     0
 40
0.0
  0
LTYPE
  2
CENTER
 70
     0
  3
____ _ ____ _ ____ _ ____ _ ____ _ ____ _ ____
 72
    65
 73
     4
 40
2.0
 49
1.25
 49
-0.25
 49
0.25
 49
-0.25
  0
LTYPE
  2
PHANTOM2
 70
     0
  3
___ _ _ ___ _ _ ___ _ _ ___ _ _
 72
    65
 73
     6
 40
1.25
 49
0.625
 49
-0.125
 49
0.125
 49
-0.125
 49
0.125
 49
-0.125
  0
ENDTAB
  0
TABLE
  2
LAYER
 70
     2
  0
LAYER
  2
0
 70
     0
 62
     7
  6
CONTINUOUS
  0
LAYER
  2
1
 70
     0
 62
     1
  6
CENTER
  0
ENDTAB
  0
TABLE
  2
STYLE
 70
     2
  0
STYLE
  2
STANDARD
 70
     0
 40
0.0
 41
1.0
 50
0.0
 71
     0
 42
4.000000000000048
  3
TXT
  4
BIGFONT
  0
STYLE
  2
STANDARD1
 70
     0
 40
0.0
 41
1.0
 50
0.0
 71
     0
 42
3.0
  3
txt
  4

  0
ENDTAB
  0
TABLE
  2
VIEW
 70
     1
  0
VIEW
  2
ALL
 70
     0
 40
270.0
 10
220.99159663865549
 20
135.0
 41
0.0
 11
0.0
 21
0.0
 31
1.0
 12
0.0
 22
0.0
 32
0.0
 42
0.0
 43
0.0
 44
0.0
 50
0.0
 71
     0
  0
ENDTAB
  0
TABLE
  2
UCS
 70
     0
  0
ENDTAB
  0
TABLE
  2
APPID
 70
     5
  0
APPID
  2
ACAD
 70
     0
  0
APPID
  2
ACAD_MLEADERVER
 70
     0
  0
APPID
  2
ACAD_EXEMPT_FROM_CAD_STANDARDS
 70
     0
  0
APPID
  2
ACAD_NAV_VCDISPLAY
 70
     0
  0
APPID
  2
ACAD_PSEXT
 70
     0
  0
ENDTAB
  0
TABLE
  2
DIMSTYLE
 70
     2
  0
DIMSTYLE
  2
STANDARD
 70
     0
  3

  4

  5

  6

  7

 40
1.0
 41
0.18
 42
0.0625
 43
0.38
 44
0.18
 45
0.0
 46
0.0
 47
0.0
 48
0.0
140
0.18
141
0.09
142
0.0
143
25.399999999999999
144
1.0
145
0.0
146
1.0
147
0.09
 71
     0
 72
     0
 73
     1
 74
     1
 75
     0
 76
     0
 77
     0
 78
     0
170
     0
171
     2
172
     0
173
     0
174
     0
175
     0
176
     0
177
     0
178
     0
  0
DIMSTYLE
  2
ISO-25
 70
     0
  3

  4

  5

  6

  7

 40
1.0
 41
2.5
 42
0.625
 43
3.75
 44
1.25
 45
0.0
 46
0.0
 47
0.0
 48
0.0
140
2.5
141
2.5
142
0.0
143
0.0393700787
144
1.0
145
0.0
146
1.0
147
0.625
 71
     0
 72
     0
 73
     0
 74
     0
 75
     0
 76
     0
 77
     1
 78
     8
170
     0
171
     3
172
     1
173
     0
174
     0
175
     0
176
     0
177
     0
178
     0
  0
ENDTAB
  0
ENDSEC
  0
SECTION
  2
BLOCKS
  0
BLOCK
  8
0
  2
$MODEL_SPACE
 70
     0
 10
0.0
 20
0.0
 30
0.0
  3
$MODEL_SPACE
  1

  0
ENDBLK
  5
ED
  8
0
  0
BLOCK
 67
     1
  8
0
  2
$PAPER_SPACE
 70
     0
 10
0.0
 20
0.0
 30
0.0
  3
$PAPER_SPACE
  1

  0
ENDBLK
  5
EB
 67
     1
  8
0
  0
ENDSEC
  0
SECTION
  2
ENTITIES
  0
TEXT
  5
23F
  8
0
 62
     3
 10
0.0
 20
0.0
 30
0.0
 40
10.0
  1
PSN63
  7
STANDARD1
  0
CIRCLE
  5
453
  8
0
 10
130.0
 20
194.0
 30
0.0
 40
9.0
  0
ARC
  5
454
  8
0
 10
130.0
 20
170.0
 30
0.0
 40
22.346223869525399
 50
112.0229551141982
 51
67.977044885801774
  0
ARC
  5
455
  8
0
 10
130.0
 20
170.0
 30
0.0
 40
21.02353574115692
 50
111.7959608723004
 51
68.204039127748715
  0
ARC
  5
456
  8
0
 10
130.0
 20
170.0
 30
0.0
 40
29.984429948136519
 50
104.3951696982991
 51
75.604830301747924
  0
ARC
  5
457
  8
0
 10
130.0
 20
170.0
 30
0.0
 40
31.500001728019139
 50
100.38109816469991
 51
79.618901835263642
  0
ARC
  5
458
  8
0
 10
130.0
 20
170.0
 30
0.0
 40
15.500000000000011
 50
98.795929615983894
 51
81.204070383999607
  0
LINE
  5
45A
  8
0
 10
238.36666666670001
 20
184.99999999999989
 30
0.0
 11
251.6999999999999
 21
186.5
 31
0.0
  0
LINE
  5
45B
  8
0
 10
251.6999999999999
 20
201.5
 30
0.0
 11
238.36666666670001
 21
203.0
 31
0.0
  0
LINE
  5
45C
  8
0
 10
238.36666666670001
 20
203.0
 30
0.0
 11
213.89553189470001
 21
203.0
 31
0.0
  0
LINE
  5
45D
  8
0
 10
213.89553189470001
 20
184.99999999999989
 30
0.0
 11
238.36666666670001
 21
184.99999999999989
 31
0.0
  0
ARC
  5
45E
  8
0
 10
213.89553189470001
 20
185.89999999999989
 30
0.0
 40
0.9000000000000218
 50
194.01361296590051
 51
270.0
  0
ARC
  5
45F
  8
0
 10
213.89553189470001
 20
202.09999999999999
 30
0.0
 40
0.9000000000000218
 50
90.0
 51
165.98638703409941
  0
ARC
  5
460
  8
0
 10
246.34999999999999
 20
193.99999999999989
 30
0.0
 40
34.34999999999922
 50
165.98638450419969
 51
194.0136154958002
  0
LINE
  5
461
  8
0
 10
252.0
 20
197.90000000000001
 30
0.0
 11
251.6999999999999
 21
197.90000000000001
 31
0.0
  0
LINE
  5
462
  8
0
 10
251.6999999999999
 20
190.09999999999991
 30
0.0
 11
252.0
 21
190.09999999999991
 31
0.0
  0
LINE
  5
463
  8
0
 10
264.3500989980999
 20
201.500001728
 30
0.0
 11
253.29980200369991
 21
201.30711807649999
 31
0.0
  0
LINE
  5
464
  8
0
 10
253.29980200369991
 20
138.6928819234999
 30
0.0
 11
264.3500989980999
 21
138.49999827199991
 31
0.0
  0
LINE
  5
465
  8
0
 10
264.3500989980999
 20
138.49999827199991
 30
0.0
 11
265.0
 21
139.1386542077999
 31
0.0
  0
LINE
  5
466
  8
0
 10
265.0
 20
200.86134579220001
 30
0.0
 11
264.3500989980999
 21
201.500001728
 31
0.0
  0
LINE
  5
467
  8
0
 10
253.29980200369991
 20
201.30711807649999
 30
0.0
 11
252.0
 21
199.9844299481
 31
0.0
  0
LINE
  5
468
  8
0
 10
252.0
 20
140.0155700519
 30
0.0
 11
253.29980200369991
 21
138.6928819234999
 31
0.0
  0
LINE
  5
469
  8
0
 10
265.0
 20
152.57957166899999
 30
0.0
 11
266.78714638019989
 21
155.67500000000001
 31
0.0
  0
LINE
  5
46A
  8
0
 10
266.78714638019989
 20
184.3249999999999
 30
0.0
 11
265.0
 21
187.42042833100001
 31
0.0
  0
ARC
  5
46B
  8
0
 10
267.35006289259991
 20
184.64999999999989
 30
0.0
 40
0.6500000000000236
 50
210.00000000000091
 51
270.0
  0
ARC
  5
46C
  8
0
 10
267.35006289259991
 20
155.34999999999991
 30
0.0
 40
0.6500000000000236
 50
90.0
 51
149.99999999999909
  0
LINE
  5
46D
  8
0
 10
267.35006289259991
 20
156.0
 30
0.0
 11
270.0
 21
156.0
 31
0.0
  0
LINE
  5
46E
  8
0
 10
270.0
 20
184.0
 30
0.0
 11
267.35006289259991
 21
184.0
 31
0.0
  0
LINE
  5
46F
  8
0
 10
279.5
 20
159.99999999999989
 30
0.0
 11
280.0
 21
160.49999999999989
 31
0.0
  0
LINE
  5
470
  8
0
 10
280.0
 20
179.49999999999989
 30
0.0
 11
279.5
 21
179.99999999999989
 31
0.0
  0
LINE
  5
471
  8
0
 10
270.0
 20
159.99999999999989
 30
0.0
 11
279.5
 21
159.99999999999989
 31
0.0
  0
LINE
  5
472
  8
0
 10
279.5
 20
179.99999999999989
 30
0.0
 11
270.0
 21
180.0
 31
0.0
  0
LINE
  5
473
  8
0
 10
238.36666666670001
 20
184.99999999999989
 30
0.0
 11
238.36666666670001
 21
203.0
 31
0.0
  0
LINE
  5
474
  8
0
 10
251.6999999999999
 20
186.5
 30
0.0
 11
251.6999999999999
 21
201.5
 31
0.0
  0
LINE
  5
475
  8
0
 10
264.3500989980999
 20
138.49999827199991
 30
0.0
 11
264.3500989980999
 21
201.500001728
 31
0.0
  0
LINE
  5
476
  8
0
 10
253.29980200369991
 20
201.30711807649999
 30
0.0
 11
253.29980200369991
 21
138.6928819234999
 31
0.0
  0
LINE
  5
477
  8
0
 10
265.0
 20
139.1386542077999
 30
0.0
 11
265.0
 21
200.86134579220001
 31
0.0
  0
LINE
  5
478
  8
0
 10
252.0
 20
199.9844299481
 30
0.0
 11
252.0
 21
140.0155700519
 31
0.0
  0
LINE
  5
479
  8
0
 10
270.0
 20
156.0
 30
0.0
 11
270.0
 21
184.0
 31
0.0
  0
LINE
  5
47A
  8
0
 10
280.0
 20
160.49999999999989
 30
0.0
 11
280.0
 21
179.49999999999989
 31
0.0
  0
LINE
  5
47B
  8
0
 10
279.5
 20
159.99999999999989
 30
0.0
 11
279.5
 21
179.99999999999989
 31
0.0
  0
LINE
  5
47C
  8
0
 10
213.89553189470001
 20
203.0
 30
0.0
 11
213.89553189470001
 21
184.99999999999989
 31
0.0
  0
LINE
  5
47D
  8
0
 10
266.78714638019989
 20
155.67500000000001
 30
0.0
 11
266.78714638019989
 21
184.3249999999999
 31
0.0
  0
LINE
  5
47E
  8
0
 10
121.0
 20
81.633333333399975
 30
0.0
 11
122.5
 21
68.299999999999983
 31
0.0
  0
LINE
  5
47F
  8
0
 10
137.5
 20
68.299999999999983
 30
0.0
 11
139.0
 21
81.633333333399975
 31
0.0
  0
LINE
  5
480
  8
0
 10
139.0
 20
81.633333333399975
 30
0.0
 11
139.0
 21
106.1044681054
 31
0.0
  0
LINE
  5
481
  8
0
 10
121.0
 20
106.1044681054
 30
0.0
 11
121.0
 21
81.633333333399975
 31
0.0
  0
ARC
  5
482
  8
0
 10
121.90000000000001
 20
106.1044681054
 30
0.0
 40
0.8999999999999914
 50
104.01361296589729
 51
180.0
  0
ARC
  5
483
  8
0
 10
138.09999999999999
 20
106.1044681054
 30
0.0
 40
0.9000000000000198
 50
0.0
 51
75.986387034099337
  0
ARC
  5
484
  8
0
 10
130.0
 20
73.650000000099936
 30
0.0
 40
34.349999999999199
 50
75.986384504202604
 51
104.01361549580071
  0
LINE
  5
485
  8
0
 10
133.89999999999989
 20
67.999999999999972
 30
0.0
 11
133.89999999999989
 21
68.299999999999983
 31
0.0
  0
LINE
  5
486
  8
0
 10
126.09999999999989
 20
68.299999999999983
 30
0.0
 11
126.09999999999989
 21
67.999999999999972
 31
0.0
  0
LINE
  5
487
  8
0
 10
161.500001728
 20
55.649901001899963
 30
0.0
 11
161.3071180764999
 21
66.700197996299977
 31
0.0
  0
LINE
  5
488
  8
0
 10
98.692881923499954
 20
66.700197996299977
 30
0.0
 11
98.499998271999971
 21
55.649901001899963
 31
0.0
  0
LINE
  5
489
  8
0
 10
98.499998271999971
 20
55.649901001899963
 30
0.0
 11
99.138654207799959
 21
54.999999999999972
 31
0.0
  0
LINE
  5
48A
  8
0
 10
160.86134579220001
 20
54.999999999999972
 30
0.0
 11
161.500001728
 21
55.649901001899963
 31
0.0
  0
LINE
  5
48B
  8
0
 10
161.3071180764999
 20
66.700197996299977
 30
0.0
 11
159.9844299481
 21
67.999999999999972
 31
0.0
  0
LINE
  5
48C
  8
0
 10
100.0155700519
 20
67.999999999999972
 30
0.0
 11
98.692881923499954
 21
66.700197996299977
 31
0.0
  0
LINE
  5
48D
  8
0
 10
112.5795716689999
 20
54.999999999999972
 30
0.0
 11
115.6749999999999
 21
53.21285361989996
 31
0.0
  0
LINE
  5
48E
  8
0
 10
144.32499999999999
 20
53.21285361989996
 30
0.0
 11
147.4204283309999
 21
54.999999999999972
 31
0.0
  0
ARC
  5
48F
  8
0
 10
144.65000000000001
 20
52.64993710739995
 30
0.0
 40
0.6500000000000307
 50
120.0
 51
180.0
  0
ARC
  5
490
  8
0
 10
115.34999999999989
 20
52.64993710739995
 30
0.0
 40
0.6500000000000236
 50
0.0
 51
60.0
  0
LINE
  5
491
  8
0
 10
116.0
 20
52.64993710739995
 30
0.0
 11
116.0
 21
49.999999999999972
 31
0.0
  0
LINE
  5
492
  8
0
 10
144.0
 20
49.999999999999972
 30
0.0
 11
144.0
 21
52.64993710739995
 31
0.0
  0
LINE
  5
493
  8
0
 10
120.0
 20
40.499999999999972
 30
0.0
 11
120.5
 21
39.999999999999972
 31
0.0
  0
LINE
  5
494
  8
0
 10
139.5
 20
39.999999999999972
 30
0.0
 11
140.0
 21
40.499999999999972
 31
0.0
  0
LINE
  5
495
  8
0
 10
120.0
 20
49.999999999999972
 30
0.0
 11
120.0
 21
40.499999999999972
 31
0.0
  0
LINE
  5
496
  8
0
 10
140.0
 20
40.499999999999972
 30
0.0
 11
140.0
 21
49.999999999999972
 31
0.0
  0
LINE
  5
497
  8
0
 10
121.0
 20
81.633333333399975
 30
0.0
 11
139.0
 21
81.633333333399975
 31
0.0
  0
LINE
  5
498
  8
0
 10
130.0
 20
68.299999999999983
 30
0.0
 11
137.5
 21
68.299999999999983
 31
0.0
  0
LINE
  5
499
  8
0
 10
122.5
 20
68.299999999999983
 30
0.0
 11
130.0
 21
68.299999999999983
 31
0.0
  0
LINE
  5
49A
  8
0
 10
98.499998271999971
 20
55.649901001899963
 30
0.0
 11
161.500001728
 21
55.649901001899963
 31
0.0
  0
LINE
  5
49B
  8
0
 10
161.3071180764999
 20
66.700197996299977
 30
0.0
 11
98.692881923499954
 21
66.700197996299977
 31
0.0
  0
LINE
  5
49C
  8
0
 10
99.138654207799959
 20
54.999999999999972
 30
0.0
 11
160.86134579220001
 21
54.999999999999972
 31
0.0
  0
LINE
  5
49D
  8
0
 10
159.9844299481
 20
67.999999999999972
 30
0.0
 11
100.0155700519
 21
67.999999999999972
 31
0.0
  0
LINE
  5
49E
  8
0
 10
116.0
 20
49.999999999999972
 30
0.0
 11
144.0
 21
49.999999999999972
 31
0.0
  0
LINE
  5
49F
  8
0
 10
120.5
 20
39.999999999999972
 30
0.0
 11
139.5
 21
39.999999999999972
 31
0.0
  0
LINE
  5
4A0
  8
0
 10
120.0
 20
40.499999999999972
 30
0.0
 11
140.0
 21
40.499999999999972
 31
0.0
  0
LINE
  5
4A1
  8
0
 10
139.0
 20
106.1044681054
 30
0.0
 11
121.0
 21
106.1044681054
 31
0.0
  0
LINE
  5
4A2
  8
0
 10
144.0
 20
52.64993710739995
 30
0.0
 11
116.0
 21
52.64993710739995
 31
0.0
  0
LINE
  5
4AB
  8
1
 10
93.499998271980886
 20
170.0
 30
0.0
 11
166.5000017280191
 21
170.0
 31
0.0
  0
LINE
  5
4AC
  8
1
 10
130.0
 20
208.0
 30
0.0
 11
130.0
 21
133.49999827198079
 31
0.0
  0
LINE
  5
4AD
  8
1
 10
119.375
 20
193.99999999999989
 30
0.0
 11
140.625
 21
193.99999999999989
 31
0.0
  0
LINE
  5
4B2
  8
1
 10
270.0
 20
194.0
 30
0.0
 11
206.99999999999989
 21
194.0
 31
0.0
  0
LINE
  5
4B3
  8
1
 10
285.0
 20
170.0
 30
0.0
 11
247.0
 21
170.0
 31
0.0
  0
LINE
  5
4B4
  8
1
 10
130.0
 20
34.999999999999979
 30
0.0
 11
130.0
 21
112.9999999999999
 31
0.0
  0
CIRCLE
  5
509
  8
0
 10
130.0
 20
170.0
 30
0.0
 40
10.0
  0
VIEWPORT
  5
2B9
 67
     1
  8
0
 10
5.2499996395561652
 20
3.9999998836066779
 30
0.0
 40
11.77509464676405
 41
8.9929997457669497
 68
     1
 69
     1
1001
ACAD
1000
MVIEW
1002
{
1070
    16
1010
0.0
1020
0.0
1030
0.0
1010
0.0
1020
0.0
1030
1.0
1040
0.0
1040
8.9929997457669497
1040
5.2499996395561652
1040
3.9999998836066779
1040
50.0
1040
0.0
1040
0.0
1070
     0
1070
   500
1070
     1
1070
     1
1070
     0
1070
     0
1070
     0
1070
     0
1040
0.0
1040
0.0
1040
0.0
1040
10.0
1040
10.0
1040
10.0
1040
10.0
1070
     0
1002
{
1002
}
1002
}
  0
VIEWPORT
  5
2BE
 67
     1
  8
0
 10
5.2499997615814209
 20
3.9999997615814209
 30
0.0
 40
8.3999996185302752
 41
6.3999996185302743
 68
     2
 69
     2
1001
ACAD
1000
MVIEW
1002
{
1070
    16
1010
0.0
1020
0.0
1030
0.0
1010
0.0
1020
0.0
1030
1.0
1040
0.0
1040
219.0365417420231
1040
142.5
1040
102.66978171896319
1040
50.0
1040
0.0
1040
0.0
1070
     0
1070
   500
1070
     1
1070
     0
1070
     0
1070
     0
1070
     0
1070
     2
1040
0.0
1040
0.0
1040
0.0
1040
10.0
1040
10.0
1040
10.0
1040
10.0
1070
     0
1002
{
1002
}
1002
}
  0
ENDSEC
  0
EOF
