  0
SECTION
  2
HEADER
  9
$ACADVER
  1
AC1009
  9
$INSBASE
 10
0.0
 20
0.0
 30
0.0
  9
$EXTMIN
 10
0.0
 20
-2.960436562073669
 30
0.0
  9
$EXTMAX
 10
159.5
 20
123.5
 30
0.0
  9
$LIMMIN
 10
0.0
 20
0.0
  9
$LIMMAX
 10
187.5
 20
135.0
  9
$ORTHOMODE
 70
     1
  9
$REGENMODE
 70
     1
  9
$FILLMODE
 70
     1
  9
$QTEXTMODE
 70
     0
  9
$MIRRTEXT
 70
     0
  9
$DRAGMODE
 70
     2
  9
$LTSCALE
 40
5.0
  9
$OSMODE
 70
    37
  9
$ATTMODE
 70
     1
  9
$TEXTSIZE
 40
4.000000000000048
  9
$TRACEWID
 40
0.05
  9
$TEXTSTYLE
  7
STANDARD
  9
$CLAYER
  8
0
  9
$CELTYPE
  6
BYLAYER
  9
$CECOLOR
 62
   256
  9
$DIMSCALE
 40
0.5
  9
$DIMASZ
 40
3.0
  9
$DIMEXO
 40
2.0
  9
$DIMDLI
 40
0.38
  9
$DIMRND
 40
0.0
  9
$DIMDLE
 40
0.0
  9
$DIMEXE
 40
2.0
  9
$DIMTP
 40
0.0
  9
$DIMTM
 40
0.0
  9
$DIMTXT
 40
3.2000000000000002
  9
$DIMCEN
 40
0.0
  9
$DIMTSZ
 40
0.0
  9
$DIMTOL
 70
     0
  9
$DIMLIM
 70
     0
  9
$DIMTIH
 70
     0
  9
$DIMTOH
 70
     0
  9
$DIMSE1
 70
     0
  9
$DIMSE2
 70
     0
  9
$DIMTAD
 70
     1
  9
$DIMZIN
 70
     0
  9
$DIMBLK
  1

  9
$DIMASO
 70
     1
  9
$DIMSHO
 70
     0
  9
$DIMPOST
  1

  9
$DIMAPOST
  1

  9
$DIMALT
 70
     0
  9
$DIMALTD
 70
     2
  9
$DIMALTF
 40
25.399999999999999
  9
$DIMLFAC
 40
1.0
  9
$DIMTOFL
 70
     1
  9
$DIMTVP
 40
1.6000000000000001
  9
$DIMTIX
 70
     1
  9
$DIMSOXD
 70
     0
  9
$DIMSAH
 70
     0
  9
$DIMBLK1
  1

  9
$DIMBLK2
  1

  9
$DIMSTYLE
  2
STANDARD
  9
$DIMCLRD
 70
     0
  9
$DIMCLRE
 70
     0
  9
$DIMCLRT
 70
     0
  9
$DIMTFAC
 40
1.0
  9
$DIMGAP
 40
0.09
  9
$LUNITS
 70
     2
  9
$LUPREC
 70
     4
  9
$SKETCHINC
 40
0.1
  9
$FILLETRAD
 40
0.5
  9
$AUNITS
 70
     0
  9
$AUPREC
 70
     4
  9
$MENU
  1
E:\r13\win\SUPPORT\ACAD
  9
$ELEVATION
 40
0.0
  9
$PELEVATION
 40
0.0
  9
$THICKNESS
 40
0.0
  9
$LIMCHECK
 70
     0
  9
$BLIPMODE
 70
     0
  9
$CHAMFERA
 40
0.0
  9
$CHAMFERB
 40
0.0
  9
$SKPOLY
 70
     0
  9
$TDCREATE
 40
2449839.7806597222
  9
$TDUPDATE
 40
2457637.5638330211
  9
$TDINDWG
 40
0.037776956
  9
$TDUSRTIMER
 40
0.037776956
  9
$USRTIMER
 70
     1
  9
$ANGBASE
 50
0.0
  9
$ANGDIR
 70
     0
  9
$PDMODE
 70
     0
  9
$PDSIZE
 40
0.0
  9
$PLINEWID
 40
0.0
  9
$COORDS
 70
     1
  9
$SPLFRAME
 70
     0
  9
$SPLINETYPE
 70
     6
  9
$SPLINESEGS
 70
     8
  9
$ATTDIA
 70
     0
  9
$ATTREQ
 70
     1
  9
$HANDLING
 70
     1
  9
$HANDSEED
  5
587
  9
$SURFTAB1
 70
     6
  9
$SURFTAB2
 70
     6
  9
$SURFTYPE
 70
     6
  9
$SURFU
 70
     6
  9
$SURFV
 70
     6
  9
$UCSNAME
  2

  9
$UCSORG
 10
0.0
 20
0.0
 30
0.0
  9
$UCSXDIR
 10
1.0
 20
0.0
 30
0.0
  9
$UCSYDIR
 10
0.0
 20
1.0
 30
0.0
  9
$PUCSNAME
  2

  9
$PUCSORG
 10
0.0
 20
0.0
 30
0.0
  9
$PUCSXDIR
 10
1.0
 20
0.0
 30
0.0
  9
$PUCSYDIR
 10
0.0
 20
1.0
 30
0.0
  9
$USERI1
 70
     0
  9
$USERI2
 70
     1
  9
$USERI3
 70
     1
  9
$USERI4
 70
     0
  9
$USERI5
 70
     0
  9
$USERR1
 40
0.0
  9
$USERR2
 40
0.0
  9
$USERR3
 40
0.0
  9
$USERR4
 40
0.0
  9
$USERR5
 40
0.0
  9
$WORLDVIEW
 70
     1
  9
$SHADEDGE
 70
     3
  9
$SHADEDIF
 70
    70
  9
$TILEMODE
 70
     1
  9
$MAXACTVP
 70
    16
  9
$PLIMCHECK
 70
     0
  9
$PEXTMIN
 10
1.0000000000000000E+020
 20
1.0000000000000000E+020
 30
1.0000000000000000E+020
  9
$PEXTMAX
 10
-1.0000000000000000E+020
 20
-1.0000000000000000E+020
 30
-1.0000000000000000E+020
  9
$PLIMMIN
 10
0.0
 20
0.0
  9
$PLIMMAX
 10
12.0
 20
9.0
  9
$UNITMODE
 70
     0
  9
$VISRETAIN
 70
     0
  9
$PLINEGEN
 70
     0
  9
$PSLTSCALE
 70
     0
  0
ENDSEC
  0
SECTION
  2
TABLES
  0
TABLE
  2
VPORT
 70
     1
  0
VPORT
  2
*ACTIVE
 70
     0
 10
0.0
 20
0.0
 11
1.0
 21
1.0
 12
95.809708316429266
 22
60.268583578218752
 13
0.0
 23
0.0
 14
5.0
 24
5.0
 15
5.0
 25
5.0
 16
0.0
 26
0.0
 36
1.0
 17
0.0
 27
0.0
 37
0.0
 40
108.7102671592192
 41
1.368715083798882
 42
50.0
 43
0.0
 44
0.0
 50
0.0
 51
0.0
 71
     0
 72
   500
 73
     1
 74
     0
 75
     0
 76
     0
 77
     0
 78
     2
  0
ENDTAB
  0
TABLE
  2
LTYPE
 70
     3
  0
LTYPE
  2
CONTINUOUS
 70
     0
  3
Solid Line
 72
    65
 73
     0
 40
0.0
  0
LTYPE
  2
CENTER
 70
     0
  3
____ _ ____ _ ____ _ ____ _ ____ _ ____ _ ____
 72
    65
 73
     4
 40
2.0
 49
1.25
 49
-0.25
 49
0.25
 49
-0.25
  0
LTYPE
  2
PHANTOM2
 70
     0
  3
___ _ _ ___ _ _ ___ _ _ ___ _ _
 72
    65
 73
     6
 40
1.25
 49
0.625
 49
-0.125
 49
0.125
 49
-0.125
 49
0.125
 49
-0.125
  0
ENDTAB
  0
TABLE
  2
LAYER
 70
     2
  0
LAYER
  2
0
 70
     0
 62
     7
  6
CONTINUOUS
  0
LAYER
  2
1
 70
     0
 62
     1
  6
CENTER
  0
ENDTAB
  0
TABLE
  2
STYLE
 70
     2
  0
STYLE
  2
STANDARD
 70
     0
 40
0.0
 41
1.0
 50
0.0
 71
     0
 42
4.000000000000048
  3
TXT
  4
BIGFONT
  0
STYLE
  2
STANDARD1
 70
     0
 40
0.0
 41
1.0
 50
0.0
 71
     0
 42
3.0
  3
txt
  4

  0
ENDTAB
  0
TABLE
  2
VIEW
 70
     1
  0
VIEW
  2
ALL
 70
     0
 40
135.0
 10
110.4957983193277
 20
67.5
 41
0.0
 11
0.0
 21
0.0
 31
1.0
 12
0.0
 22
0.0
 32
0.0
 42
0.0
 43
0.0
 44
0.0
 50
0.0
 71
     0
  0
ENDTAB
  0
TABLE
  2
UCS
 70
     0
  0
ENDTAB
  0
TABLE
  2
APPID
 70
     4
  0
APPID
  2
ACAD
 70
     0
  0
APPID
  2
ACAD_MLEADERVER
 70
     0
  0
APPID
  2
ACAD_EXEMPT_FROM_CAD_STANDARDS
 70
     0
  0
APPID
  2
ACAD_NAV_VCDISPLAY
 70
     0
  0
ENDTAB
  0
TABLE
  2
DIMSTYLE
 70
     2
  0
DIMSTYLE
  2
STANDARD
 70
     0
  3

  4

  5

  6

  7

 40
1.0
 41
0.18
 42
0.0625
 43
0.38
 44
0.18
 45
0.0
 46
0.0
 47
0.0
 48
0.0
140
0.18
141
0.09
142
0.0
143
25.399999999999999
144
1.0
145
0.0
146
1.0
147
0.09
 71
     0
 72
     0
 73
     1
 74
     1
 75
     0
 76
     0
 77
     0
 78
     0
170
     0
171
     2
172
     0
173
     0
174
     0
175
     0
176
     0
177
     0
178
     0
  0
DIMSTYLE
  2
ISO-25
 70
     0
  3

  4

  5

  6

  7

 40
1.0
 41
2.5
 42
0.625
 43
3.75
 44
1.25
 45
0.0
 46
0.0
 47
0.0
 48
0.0
140
2.5
141
2.5
142
0.0
143
0.0393700787
144
1.0
145
0.0
146
1.0
147
0.625
 71
     0
 72
     0
 73
     0
 74
     0
 75
     0
 76
     0
 77
     1
 78
     8
170
     0
171
     3
172
     1
173
     0
174
     0
175
     0
176
     0
177
     0
178
     0
  0
ENDTAB
  0
ENDSEC
  0
SECTION
  2
BLOCKS
  0
BLOCK
  8
0
  2
$MODEL_SPACE
 70
     0
 10
0.0
 20
0.0
 30
0.0
  3
$MODEL_SPACE
  1

  0
ENDBLK
  5
E7
  8
0
  0
BLOCK
 67
     1
  8
0
  2
$PAPER_SPACE
 70
     0
 10
0.0
 20
0.0
 30
0.0
  3
$PAPER_SPACE
  1

  0
ENDBLK
  5
E5
 67
     1
  8
0
  0
ENDSEC
  0
SECTION
  2
ENTITIES
  0
TEXT
  5
1D1
  8
0
 62
     3
 10
0.0
 20
0.0
 30
0.0
 40
10.0
  1
PSN50
  7
STANDARD1
  0
CIRCLE
  5
3EF
  8
0
 10
60.0
 20
114.0
 30
0.0
 40
7.0
  0
ARC
  5
3F0
  8
0
 10
60.0
 20
95.0
 30
0.0
 40
17.903033550112259
 50
111.6051550351
 51
68.394844964899946
  0
ARC
  5
3F1
  8
0
 10
60.0
 20
95.0
 30
0.0
 40
16.682090662387498
 50
111.3807291971
 51
68.619270802899933
  0
ARC
  5
3F3
  8
0
 10
60.0
 20
95.0
 30
0.0
 40
23.601012259818301
 50
104.3110666332535
 51
75.688933366701036
  0
ARC
  5
3F4
  8
0
 10
60.0
 20
95.0
 30
0.0
 40
25.000001595094609
 50
99.489507309713403
 51
80.510492690299827
  0
ARC
  5
3F6
  8
0
 10
60.0
 20
95.0
 30
0.0
 40
12.5
 50
99.6707098440002
 51
80.329290155999786
  0
LINE
  5
3FA
  8
0
 10
125.3666666666998
 20
106.99999999995001
 30
0.0
 11
134.6999999999999
 21
108.49999999994991
 31
0.0
  0
LINE
  5
3FB
  8
0
 10
134.6999999999999
 20
119.49999999995001
 30
0.0
 11
125.3666666666998
 21
120.99999999994991
 31
0.0
  0
LINE
  5
3FC
  8
0
 10
125.3666666666998
 20
120.99999999994991
 30
0.0
 11
108.4743025847998
 21
120.99999999994991
 31
0.0
  0
LINE
  5
3FD
  8
0
 10
108.4743025847998
 20
106.99999999995001
 30
0.0
 11
125.3666666666998
 21
106.99999999995001
 31
0.0
  0
ARC
  5
3FE
  8
0
 10
108.4743025847998
 20
107.69999999994999
 30
0.0
 40
0.6999999999999887
 50
194.01361556379919
 51
270.0
  0
ARC
  5
3FF
  8
0
 10
108.4743025847998
 20
120.29999999995
 30
0.0
 40
0.7000000000000172
 50
90.0
 51
165.98638443620069
  0
ARC
  5
400
  8
0
 10
133.71666666669981
 20
113.99999999995001
 30
0.0
 40
26.716666666666502
 50
165.98638443620069
 51
194.01361556379919
  0
LINE
  5
401
  8
0
 10
134.99999999999989
 20
117.8999999999499
 30
0.0
 11
134.6999999999999
 21
117.8999999999499
 31
0.0
  0
LINE
  5
402
  8
0
 10
134.6999999999999
 20
110.09999999995
 30
0.0
 11
134.99999999999989
 21
110.09999999995
 31
0.0
  0
LINE
  5
403
  8
0
 10
146.4000913828998
 20
69.999998404849975
 30
0.0
 11
146.99999999999989
 21
70.589526961049955
 31
0.0
  0
LINE
  5
404
  8
0
 10
146.99999999999989
 20
119.41047303895
 30
0.0
 11
146.4000913828998
 21
120.00000159504989
 31
0.0
  0
LINE
  5
405
  8
0
 10
146.4000913828998
 20
120.00000159504989
 30
0.0
 11
136.1998172341998
 21
119.8219551475499
 31
0.0
  0
LINE
  5
406
  8
0
 10
136.1998172341998
 20
70.178044852449943
 30
0.0
 11
146.4000913828998
 21
69.999998404849975
 31
0.0
  0
LINE
  5
407
  8
0
 10
136.1998172341998
 20
119.8219551475499
 30
0.0
 11
134.99999999999989
 21
118.60101225984999
 31
0.0
  0
LINE
  5
408
  8
0
 10
134.99999999999989
 20
71.398987740150005
 30
0.0
 11
136.1998172341998
 21
70.178044852449943
 31
0.0
  0
LINE
  5
409
  8
0
 10
146.99999999999989
 20
81.220084679250022
 30
0.0
 11
147.2770792395998
 21
81.699999999950023
 31
0.0
  0
LINE
  5
40A
  8
0
 10
147.2770792395998
 20
108.29999999995
 30
0.0
 11
146.99999999999989
 21
108.77991532074989
 31
0.0
  0
ARC
  5
40B
  8
0
 10
147.79669448189981
 20
108.59999999995
 30
0.0
 40
0.5999999999999944
 50
209.9999999999996
 51
270.0
  0
ARC
  5
40C
  8
0
 10
147.79669448189981
 20
81.399999999949955
 30
0.0
 40
0.5999999999999944
 50
90.0
 51
150.0000000000004
  0
LINE
  5
40D
  8
0
 10
147.79669448189981
 20
81.999999999949978
 30
0.0
 11
147.99999999999989
 21
81.999999999949978
 31
0.0
  0
LINE
  5
40E
  8
0
 10
147.99999999999989
 20
107.99999999995001
 30
0.0
 11
147.79669448189981
 21
107.99999999995001
 31
0.0
  0
LINE
  5
40F
  8
0
 10
156.54999999999981
 20
86.999999999949907
 30
0.0
 11
156.99999999999989
 21
87.449999999949966
 31
0.0
  0
LINE
  5
410
  8
0
 10
156.99999999999989
 20
102.5499999999499
 30
0.0
 11
156.54999999999981
 21
102.99999999994991
 31
0.0
  0
LINE
  5
411
  8
0
 10
147.99999999999989
 20
86.999999999949978
 30
0.0
 11
156.54999999999981
 21
86.999999999949907
 31
0.0
  0
LINE
  5
412
  8
0
 10
156.54999999999981
 20
102.99999999994991
 30
0.0
 11
147.99999999999989
 21
102.99999999994991
 31
0.0
  0
LINE
  5
413
  8
0
 10
125.3666666666998
 20
106.99999999995001
 30
0.0
 11
125.3666666666998
 21
120.99999999994991
 31
0.0
  0
LINE
  5
414
  8
0
 10
134.6999999999999
 20
108.49999999994991
 30
0.0
 11
134.6999999999999
 21
119.49999999995001
 31
0.0
  0
LINE
  5
415
  8
0
 10
146.99999999999989
 20
70.589526961049955
 30
0.0
 11
146.99999999999989
 21
119.41047303895
 31
0.0
  0
LINE
  5
416
  8
0
 10
146.4000913828998
 20
69.999998404849975
 30
0.0
 11
146.4000913828998
 21
120.00000159504989
 31
0.0
  0
LINE
  5
417
  8
0
 10
136.1998172341998
 20
119.8219551475499
 30
0.0
 11
136.1998172341998
 21
70.178044852449943
 31
0.0
  0
LINE
  5
418
  8
0
 10
134.99999999999989
 20
118.60101225984999
 30
0.0
 11
134.99999999999989
 21
71.398987740150005
 31
0.0
  0
LINE
  5
419
  8
0
 10
147.99999999999989
 20
81.999999999949978
 30
0.0
 11
147.99999999999989
 21
107.99999999995001
 31
0.0
  0
LINE
  5
41A
  8
0
 10
156.99999999999989
 20
87.449999999949966
 30
0.0
 11
156.99999999999989
 21
102.5499999999499
 31
0.0
  0
LINE
  5
41B
  8
0
 10
156.54999999999981
 20
86.999999999949907
 30
0.0
 11
156.54999999999981
 21
102.99999999994991
 31
0.0
  0
LINE
  5
41C
  8
0
 10
108.4743025847998
 20
120.99999999994991
 30
0.0
 11
108.4743025847998
 21
106.99999999995001
 31
0.0
  0
LINE
  5
420
  8
0
 10
53.0
 20
39.633333333300101
 30
0.0
 11
54.5
 21
30.30000000000004
 31
0.0
  0
LINE
  5
421
  8
0
 10
65.5
 20
30.30000000000004
 30
0.0
 11
67.0
 21
39.633333333300101
 31
0.0
  0
LINE
  5
422
  8
0
 10
67.0
 20
39.633333333300101
 30
0.0
 11
67.0
 21
56.525697415200078
 31
0.0
  0
LINE
  5
423
  8
0
 10
53.0
 20
56.525697415200078
 30
0.0
 11
53.0
 21
39.633333333300101
 31
0.0
  0
ARC
  5
424
  8
0
 10
53.699999999999989
 20
56.525697415200078
 30
0.0
 40
0.7000000000000569
 50
104.01361556379931
 51
180.0
  0
ARC
  5
425
  8
0
 10
66.299999999999955
 20
56.525697415200078
 30
0.0
 40
0.70000000000005
 50
0.0
 51
75.986384436200723
  0
ARC
  5
426
  8
0
 10
60.0
 20
31.283333333300082
 30
0.0
 40
26.716666666666541
 50
75.986384436200723
 51
104.01361556379931
  0
LINE
  5
427
  8
0
 10
63.89999999999997
 20
30.000000000000089
 30
0.0
 11
63.89999999999997
 21
30.30000000000004
 31
0.0
  0
LINE
  5
428
  8
0
 10
56.099999999999959
 20
30.30000000000004
 30
0.0
 11
56.099999999999959
 21
30.000000000000089
 31
0.0
  0
LINE
  5
429
  8
0
 10
34.999998404899998
 20
18.599908617100049
 30
0.0
 11
35.589526960999933
 21
18.000000000000082
 31
0.0
  0
LINE
  5
42A
  8
0
 10
84.410473038899966
 20
18.000000000000082
 30
0.0
 11
85.000001595099988
 21
18.599908617100049
 31
0.0
  0
LINE
  5
42B
  8
0
 10
85.000001595099988
 20
18.599908617100049
 30
0.0
 11
84.821955147499978
 21
28.800182765800091
 31
0.0
  0
LINE
  5
42C
  8
0
 10
35.178044852399978
 20
28.800182765800091
 30
0.0
 11
34.999998404899998
 21
18.599908617100049
 31
0.0
  0
LINE
  5
42D
  8
0
 10
84.821955147499978
 20
28.800182765800091
 30
0.0
 11
83.601012259799973
 21
30.000000000000089
 31
0.0
  0
LINE
  5
42E
  8
0
 10
36.398987740199971
 20
30.000000000000089
 30
0.0
 11
35.178044852399978
 21
28.800182765800091
 31
0.0
  0
LINE
  5
42F
  8
0
 10
46.22008467929993
 20
18.000000000000082
 30
0.0
 11
46.699999999999989
 21
17.722920760400061
 31
0.0
  0
LINE
  5
430
  8
0
 10
73.299999999999955
 20
17.722920760400061
 30
0.0
 11
73.779915320699956
 21
18.000000000000082
 31
0.0
  0
ARC
  5
431
  8
0
 10
73.599999999999966
 20
17.203305518100048
 30
0.0
 40
0.6000000000000156
 50
120.0000000000001
 51
180.0
  0
ARC
  5
432
  8
0
 10
46.39999999999997
 20
17.203305518100048
 30
0.0
 40
0.6000000000000085
 50
0.0
 51
59.999999999999851
  0
LINE
  5
433
  8
0
 10
47.0
 20
17.203305518100048
 30
0.0
 11
47.0
 21
17.000000000000082
 31
0.0
  0
LINE
  5
434
  8
0
 10
73.0
 20
17.000000000000082
 30
0.0
 11
73.0
 21
17.203305518100048
 31
0.0
  0
LINE
  5
435
  8
0
 10
52.0
 20
8.4500000000000721
 30
0.0
 11
52.449999999999989
 21
8.0000000000000853
 31
0.0
  0
LINE
  5
436
  8
0
 10
67.549999999999955
 20
8.0000000000000853
 30
0.0
 11
68.0
 21
8.4500000000000721
 31
0.0
  0
LINE
  5
437
  8
0
 10
52.0
 20
17.000000000000082
 30
0.0
 11
52.0
 21
8.4500000000000721
 31
0.0
  0
LINE
  5
438
  8
0
 10
68.0
 20
8.4500000000000721
 30
0.0
 11
68.0
 21
17.000000000000082
 31
0.0
  0
LINE
  5
43A
  8
0
 10
53.0
 20
39.633333333300101
 30
0.0
 11
67.0
 21
39.633333333300101
 31
0.0
  0
LINE
  5
43B
  8
0
 10
54.5
 20
30.30000000000004
 30
0.0
 11
65.5
 21
30.30000000000004
 31
0.0
  0
LINE
  5
43D
  8
0
 10
35.589526960999933
 20
18.000000000000082
 30
0.0
 11
84.410473038899966
 21
18.000000000000082
 31
0.0
  0
LINE
  5
43F
  8
0
 10
34.999998404899998
 20
18.599908617100049
 30
0.0
 11
85.000001595099945
 21
18.599908617100049
 31
0.0
  0
LINE
  5
440
  8
0
 10
84.821955147500034
 20
28.800182765800091
 30
0.0
 11
35.178044852399978
 21
28.800182765800091
 31
0.0
  0
LINE
  5
442
  8
0
 10
83.601012259800015
 20
30.000000000000089
 30
0.0
 11
36.398987740199971
 21
30.000000000000089
 31
0.0
  0
LINE
  5
444
  8
0
 10
47.0
 20
17.000000000000082
 30
0.0
 11
73.0
 21
17.000000000000082
 31
0.0
  0
LINE
  5
445
  8
0
 10
52.449999999999989
 20
8.0000000000000853
 30
0.0
 11
67.549999999999955
 21
8.0000000000000853
 31
0.0
  0
LINE
  5
447
  8
0
 10
52.0
 20
8.4500000000000721
 30
0.0
 11
68.0
 21
8.4500000000000721
 31
0.0
  0
LINE
  5
448
  8
0
 10
67.0
 20
56.525697415200078
 30
0.0
 11
53.0
 21
56.525697415200078
 31
0.0
  0
LINE
  5
45C
  8
1
 10
60.000000000000057
 20
5.4999999999999503
 30
0.0
 11
60.000000000000057
 21
60.499999999999979
 31
0.0
  0
LINE
  5
45D
  8
1
 10
32.499998404905398
 20
95.0
 30
0.0
 11
87.500001595094588
 21
95.0
 31
0.0
  0
LINE
  5
45E
  8
1
 10
60.0
 20
123.5
 30
0.0
 11
60.0
 21
67.499998404905398
 31
0.0
  0
LINE
  5
45F
  8
1
 10
50.5
 20
114.0
 30
0.0
 11
69.5
 21
114.0
 31
0.0
  0
LINE
  5
460
  8
1
 10
149.5
 20
113.99999999995001
 30
0.0
 11
104.5
 21
113.99999999995001
 31
0.0
  0
LINE
  5
461
  8
1
 10
159.5
 20
94.999999999949964
 30
0.0
 11
132.49999999999989
 21
94.999999999949964
 31
0.0
  0
CIRCLE
  5
4B8
  8
0
 10
60.0
 20
95.0
 30
0.0
 40
8.0
  0
ENDSEC
  0
EOF
