  0
SECTION
  2
HEADER
  9
$ACADVER
  1
AC1009
  9
$INSBASE
 10
0.0
 20
0.0
 30
0.0
  9
$EXTMIN
 10
0.0
 20
-2.960436562073669
 30
0.0
  9
$EXTMAX
 10
321.00000206381083
 20
316.00000113248819
 30
0.0
  9
$LIMMIN
 10
0.0
 20
0.0
  9
$LIMMAX
 10
770.0
 20
540.0
  9
$ORTHOMODE
 70
     1
  9
$REGENMODE
 70
     1
  9
$FILLMODE
 70
     1
  9
$QTEXTMODE
 70
     0
  9
$MIRRTEXT
 70
     0
  9
$DRAGMODE
 70
     2
  9
$LTSCALE
 40
10.0
  9
$OSMODE
 70
    37
  9
$ATTMODE
 70
     1
  9
$TEXTSIZE
 40
4.000000000000048
  9
$TRACEWID
 40
0.05
  9
$TEXTSTYLE
  7
STANDARD
  9
$CLAYER
  8
0
  9
$CELTYPE
  6
BYLAYER
  9
$CECOLOR
 62
   256
  9
$DIMSCALE
 40
2.0
  9
$DIMASZ
 40
3.0
  9
$DIMEXO
 40
2.0
  9
$DIMDLI
 40
0.38
  9
$DIMRND
 40
0.0
  9
$DIMDLE
 40
0.0
  9
$DIMEXE
 40
2.0
  9
$DIMTP
 40
0.0
  9
$DIMTM
 40
0.0
  9
$DIMTXT
 40
3.0
  9
$DIMCEN
 40
0.0
  9
$DIMTSZ
 40
0.0
  9
$DIMTOL
 70
     0
  9
$DIMLIM
 70
     0
  9
$DIMTIH
 70
     0
  9
$DIMTOH
 70
     0
  9
$DIMSE1
 70
     0
  9
$DIMSE2
 70
     0
  9
$DIMTAD
 70
     1
  9
$DIMZIN
 70
     8
  9
$DIMBLK
  1

  9
$DIMASO
 70
     0
  9
$DIMSHO
 70
     0
  9
$DIMPOST
  1

  9
$DIMAPOST
  1

  9
$DIMALT
 70
     0
  9
$DIMALTD
 70
     2
  9
$DIMALTF
 40
25.399999999999999
  9
$DIMLFAC
 40
1.0
  9
$DIMTOFL
 70
     0
  9
$DIMTVP
 40
1.6000000000000001
  9
$DIMTIX
 70
     1
  9
$DIMSOXD
 70
     0
  9
$DIMSAH
 70
     0
  9
$DIMBLK1
  1

  9
$DIMBLK2
  1

  9
$DIMSTYLE
  2
STANDARD
  9
$DIMCLRD
 70
     4
  9
$DIMCLRE
 70
     4
  9
$DIMCLRT
 70
     4
  9
$DIMTFAC
 40
1.0
  9
$DIMGAP
 40
0.09
  9
$LUNITS
 70
     2
  9
$LUPREC
 70
     1
  9
$SKETCHINC
 40
0.1
  9
$FILLETRAD
 40
0.0
  9
$AUNITS
 70
     0
  9
$AUPREC
 70
     1
  9
$MENU
  1
E:\r13\win\SUPPORT\ACAD
  9
$ELEVATION
 40
0.0
  9
$PELEVATION
 40
0.0
  9
$THICKNESS
 40
0.0
  9
$LIMCHECK
 70
     0
  9
$BLIPMODE
 70
     0
  9
$CHAMFERA
 40
1.1999999999999991
  9
$CHAMFERB
 40
1.1999999999999991
  9
$SKPOLY
 70
     0
  9
$TDCREATE
 40
2450158.583426042
  9
$TDUPDATE
 40
2459002.5897735879
  9
$TDINDWG
 40
0.6012440741
  9
$TDUSRTIMER
 40
0.6012440741
  9
$USRTIMER
 70
     1
  9
$ANGBASE
 50
0.0
  9
$ANGDIR
 70
     0
  9
$PDMODE
 70
     0
  9
$PDSIZE
 40
0.0
  9
$PLINEWID
 40
0.0
  9
$COORDS
 70
     1
  9
$SPLFRAME
 70
     0
  9
$SPLINETYPE
 70
     6
  9
$SPLINESEGS
 70
     8
  9
$ATTDIA
 70
     0
  9
$ATTREQ
 70
     1
  9
$HANDLING
 70
     1
  9
$HANDSEED
  5
DEC0
  9
$SURFTAB1
 70
     6
  9
$SURFTAB2
 70
     6
  9
$SURFTYPE
 70
     6
  9
$SURFU
 70
     6
  9
$SURFV
 70
     6
  9
$UCSNAME
  2

  9
$UCSORG
 10
0.0
 20
0.0
 30
0.0
  9
$UCSXDIR
 10
1.0
 20
0.0
 30
0.0
  9
$UCSYDIR
 10
0.0
 20
1.0
 30
0.0
  9
$PUCSNAME
  2

  9
$PUCSORG
 10
0.0
 20
0.0
 30
0.0
  9
$PUCSXDIR
 10
1.0
 20
0.0
 30
0.0
  9
$PUCSYDIR
 10
0.0
 20
1.0
 30
0.0
  9
$USERI1
 70
     3
  9
$USERI2
 70
     1
  9
$USERI3
 70
     0
  9
$USERI4
 70
     0
  9
$USERI5
 70
     0
  9
$USERR1
 40
2.0
  9
$USERR2
 40
3.0
  9
$USERR3
 40
3.0
  9
$USERR4
 40
3.0
  9
$USERR5
 40
10.0
  9
$WORLDVIEW
 70
     1
  9
$SHADEDGE
 70
     3
  9
$SHADEDIF
 70
    70
  9
$TILEMODE
 70
     1
  9
$MAXACTVP
 70
    16
  9
$PLIMCHECK
 70
     0
  9
$PEXTMIN
 10
1.0000000000000000E+020
 20
1.0000000000000000E+020
 30
1.0000000000000000E+020
  9
$PEXTMAX
 10
-1.0000000000000000E+020
 20
-1.0000000000000000E+020
 30
-1.0000000000000000E+020
  9
$PLIMMIN
 10
0.0
 20
0.0
  9
$PLIMMAX
 10
12.0
 20
9.0
  9
$UNITMODE
 70
     0
  9
$VISRETAIN
 70
     0
  9
$PLINEGEN
 70
     0
  9
$PSLTSCALE
 70
     0
  0
ENDSEC
  0
SECTION
  2
TABLES
  0
TABLE
  2
VPORT
 70
     1
  0
VPORT
  2
*ACTIVE
 70
     0
 10
0.0
 20
0.0
 11
1.0
 21
1.0
 12
483.12883435582819
 22
200.0
 13
0.0
 23
0.0
 14
10.0
 24
10.0
 15
10.0
 25
10.0
 16
0.0
 26
0.0
 36
1.0
 17
0.0
 27
0.0
 37
0.0
 40
400.0
 41
2.415644171779141
 42
50.0
 43
0.0
 44
0.0
 50
0.0
 51
0.0
 71
     0
 72
   500
 73
     1
 74
     0
 75
     0
 76
     0
 77
     0
 78
     2
  0
ENDTAB
  0
TABLE
  2
LTYPE
 70
     4
  0
LTYPE
  2
CONTINUOUS
 70
     0
  3
Solid Line
 72
    65
 73
     0
 40
0.0
  0
LTYPE
  2
CENTER
 70
     0
  3
____ _ ____ _ ____ _ ____ _ ____ _ ____ _ ____
 72
    65
 73
     4
 40
2.0
 49
1.25
 49
-0.25
 49
0.25
 49
-0.25
  0
LTYPE
  2
HIDDEN
 70
     0
  3
_ _ _ _ _ _ _ _ _ _ _ _ _ _ _ _ _ _ _ _ _ _ _
 72
    65
 73
     2
 40
0.375
 49
0.25
 49
-0.125
  0
LTYPE
  2
PHANTOM2
 70
     0
  3
___ _ _ ___ _ _ ___ _ _ ___ _ _
 72
    65
 73
     6
 40
1.25
 49
0.625
 49
-0.125
 49
0.125
 49
-0.125
 49
0.125
 49
-0.125
  0
ENDTAB
  0
TABLE
  2
LAYER
 70
     5
  0
LAYER
  2
0
 70
     0
 62
     7
  6
CONTINUOUS
  0
LAYER
  2
1
 70
     0
 62
     1
  6
CENTER
  0
LAYER
  2
2
 70
     0
 62
     2
  6
HIDDEN
  0
LAYER
  2
3
 70
     0
 62
     3
  6
CONTINUOUS
  0
LAYER
  2
DEFPOINTS
 70
     0
 62
     7
  6
CONTINUOUS
  0
ENDTAB
  0
TABLE
  2
STYLE
 70
     2
  0
STYLE
  2
STANDARD
 70
     0
 40
0.0
 41
1.0
 50
0.0
 71
     0
 42
4.000000000000048
  3
SIMPLEX
  4
BIGFONT
  0
STYLE
  2
STANDARD1
 70
     0
 40
0.0
 41
1.0
 50
0.0
 71
     0
 42
3.0
  3
txt
  4

  0
ENDTAB
  0
TABLE
  2
VIEW
 70
     1
  0
VIEW
  2
ALL
 70
     0
 40
179.5384664489153
 10
146.94997169852391
 20
89.769233224457665
 41
0.0
 11
0.0
 21
0.0
 31
1.0
 12
0.0
 22
0.0
 32
0.0
 42
50.0
 43
0.0
 44
0.0
 50
0.0
 71
     0
  0
ENDTAB
  0
TABLE
  2
UCS
 70
     0
  0
ENDTAB
  0
TABLE
  2
APPID
 70
     8
  0
APPID
  2
ACAD
 70
     0
  0
APPID
  2
ACAD_MLEADERVER
 70
     0
  0
APPID
  2
ACAD_NAV_VCDISPLAY
 70
     0
  0
APPID
  2
ACAD_EXEMPT_FROM_CAD_STANDARDS
 70
     0
  0
APPID
  2
ACAD_DSTYLE_DIMRADIAL_EXTENSION
 70
     0
  0
APPID
  2
ACAD_DSTYLE_DIMJAG
 70
     0
  0
APPID
  2
ACAD_DSTYLE_DIMTALN
 70
     0
  0
APPID
  2
ACAD_PSEXT
 70
     0
  0
ENDTAB
  0
TABLE
  2
DIMSTYLE
 70
     1
  0
DIMSTYLE
  2
STANDARD
 70
     0
  3

  4

  5

  6

  7

 40
1.0
 41
0.18
 42
0.0625
 43
0.38
 44
0.18
 45
0.0
 46
0.0
 47
0.0
 48
0.0
140
0.18
141
0.09
142
0.0
143
25.399999999999999
144
1.0
145
0.0
146
1.0
147
0.09
 71
     0
 72
     0
 73
     1
 74
     1
 75
     0
 76
     0
 77
     0
 78
     0
170
     0
171
     2
172
     0
173
     0
174
     0
175
     0
176
     0
177
     0
178
     0
  0
ENDTAB
  0
ENDSEC
  0
SECTION
  2
BLOCKS
  0
BLOCK
  8
0
  2
$MODEL_SPACE
 70
     0
 10
0.0
 20
0.0
 30
0.0
  3
$MODEL_SPACE
  1

  0
ENDBLK
  5
644
  8
0
  0
BLOCK
 67
     1
  8
0
  2
$PAPER_SPACE
 70
     0
 10
0.0
 20
0.0
 30
0.0
  3
$PAPER_SPACE
  1

  0
ENDBLK
  5
642
 67
     1
  8
0
  0
ENDSEC
  0
SECTION
  2
ENTITIES
  0
TEXT
  5
2975
  8
0
 62
     3
 10
0.0
 20
0.0
 30
0.0
 40
10.0
  1
PSLC20-5L
  7
STANDARD1
  0
ARC
  5
D069
  8
0
 10
195.3898089084141
 20
276.1283640717806
 30
0.0
 40
1.0690916530270169
 50
15.978914379952039
 51
93.139325973021144
  0
LINE
  5
D06A
  8
0
 10
195.08379641920331
 20
277.19566328451037
 30
0.0
 11
195.33126186579469
 21
277.19585141167039
 31
0.0
  0
LINE
  5
D06B
  8
0
 10
195.33095266669989
 20
277.60128453373909
 30
0.0
 11
195.08348908275369
 21
277.60109640657902
 31
0.0
  0
ARC
  5
D06C
  8
0
 10
195.41438814684261
 20
276.10425703067119
 30
0.0
 40
1.499350736661708
 50
12.27473576227767
 51
93.190015474887517
  0
LINE
  5
D06D
  8
0
 10
196.41759376972919
 20
276.42266787588602
 30
0.0
 11
196.8794627115131
 21
276.42301805317402
 31
0.0
  0
LINE
  5
D06E
  8
0
 10
195.08348908275369
 20
277.60109640657902
 30
0.0
 11
195.08379641920331
 21
277.19566328451037
 31
0.0
  0
LINE
  5
D06F
  8
0
 10
194.9659897014499
 20
282.96788022853428
 30
0.0
 11
197.2515987232328
 21
282.96961644664412
 31
0.0
  0
LINE
  5
D070
  8
0
 10
197.24947530776271
 20
285.7646479737013
 30
0.0
 11
194.9638681486249
 21
285.76291163917631
 31
0.0
  0
LINE
  5
D071
  8
0
 10
197.25029114633799
 20
284.6896358445519
 30
0.0
 11
197.24947530776271
 21
285.7646479737013
 31
0.0
  0
LINE
  5
D072
  8
0
 10
194.96468398720029
 20
284.68789956823463
 30
0.0
 11
197.25029114633799
 21
284.6896358445519
 31
0.0
  0
ARC
  5
D073
  8
0
 10
194.89935526711051
 20
284.39733096882583
 30
0.0
 40
1.431003044279795
 50
144.68909744645831
 51
272.66896989130709
  0
ARC
  5
D074
  8
0
 10
194.89809723329441
 20
286.05338065597073
 30
0.0
 40
1.4310030442798229
 50
87.418080654141676
 51
215.3979530989904
  0
LINE
  5
D075
  8
0
 10
197.24816773086789
 20
287.48466735705728
 30
0.0
 11
194.96256057173019
 21
287.48293090611691
 31
0.0
  0
LINE
  5
D076
  8
0
 10
197.2489854320884
 20
286.40965521335602
 30
0.0
 11
197.24816773086789
 21
287.48466735705728
 31
0.0
  0
ARC
  5
D077
  8
0
 10
194.9636223278265
 20
286.08541527945749
 30
0.0
 40
0.3225037199967849
 50
90.043525272726427
 51
270.04352527272641
  0
ARC
  5
D078
  8
0
 10
194.96492895679739
 20
284.36539593577118
 30
0.0
 40
0.3225037199967565
 50
90.043525272719876
 51
270.04352527271988
  0
LINE
  5
D079
  8
0
 10
197.25078102201229
 20
284.04462859034538
 30
0.0
 11
194.96517386287451
 21
284.04289231402799
 31
0.0
  0
LINE
  5
D07A
  8
0
 10
197.2515987232328
 20
282.96961644664412
 30
0.0
 11
197.25078102201229
 21
284.04462859034538
 31
0.0
  0
LINE
  5
D07B
  8
0
 10
194.9633764103055
 20
286.40791887883103
 30
0.0
 11
197.2489854320884
 21
286.40965521335602
 31
0.0
  0
LINE
  5
D07C
  8
0
 10
195.4425977542997
 20
288.98831326514482
 30
0.0
 11
195.44210787862539
 21
289.63332073763007
 31
0.0
  0
LINE
  5
D07D
  8
0
 10
195.44210787862539
 20
289.63332073763007
 30
0.0
 11
194.96092703193429
 21
289.63295519351959
 31
0.0
  0
LINE
  5
D07E
  8
0
 10
197.2478417679668
 20
287.91467202827329
 30
0.0
 11
197.24702592939141
 21
288.9896841719746
 31
0.0
  0
LINE
  5
D07F
  8
0
 10
194.96223460882911
 20
287.91293581016362
 30
0.0
 11
197.2478417679668
 21
287.91467202827329
 31
0.0
  0
ARC
  5
D080
  8
0
 10
194.9611720967313
 20
289.31045154864012
 30
0.0
 40
1.397516119986056
 50
90.043512900476287
 51
270.04353764497
  0
LINE
  5
D081
  8
0
 10
197.24571835249671
 20
290.70970332249999
 30
0.0
 11
194.9601111933589
 21
290.70796733722091
 31
0.0
  0
LINE
  5
D082
  8
0
 10
197.24653419107199
 20
289.63469164445991
 30
0.0
 11
197.24571835249671
 21
290.70970332249999
 31
0.0
  0
LINE
  5
D083
  8
0
 10
196.40446957200771
 20
289.6340518258512
 30
0.0
 11
197.24653419107199
 21
289.63469164445991
 31
0.0
  0
LINE
  5
D084
  8
0
 10
196.4049594476819
 20
288.9890443533659
 30
0.0
 11
196.40446957200771
 21
289.6340518258512
 31
0.0
  0
LINE
  5
D085
  8
0
 10
197.24702592939141
 20
288.9896841719746
 30
0.0
 11
196.4049594476819
 21
288.9890443533659
 31
0.0
  0
LINE
  5
D086
  8
0
 10
194.96141690760851
 20
288.98794772103429
 30
0.0
 11
195.4425977542997
 21
288.98831326514482
 31
0.0
  0
ARC
  5
D087
  8
0
 10
194.9611720967313
 20
289.31045154864012
 30
0.0
 40
0.3225037199969225
 50
90.043471659657712
 51
270.04357888578869
  0
LINE
  5
D088
  8
0
 10
193.4032974764705
 20
281.46167527884239
 30
0.0
 11
197.2527423873544
 21
281.46459963172668
 31
0.0
  0
LINE
  5
D089
  8
0
 10
197.25192468613389
 20
282.539611775428
 30
0.0
 11
193.40248070657259
 21
282.53668742254371
 31
0.0
  0
LINE
  5
D08A
  8
0
 10
197.2527423873544
 20
281.46459963172668
 30
0.0
 11
197.25192468613389
 21
282.539611775428
 31
0.0
  0
LINE
  5
D08B
  8
0
 10
193.40248070657259
 20
282.53668742254371
 30
0.0
 11
193.4032974764705
 21
281.46167527884239
 31
0.0
  0
CIRCLE
  5
D08C
  8
0
 10
195.4421079667286
 20
292.94755376818568
 30
0.0
 40
0.6450074399935774
  0
CIRCLE
  5
D08D
  8
0
 10
195.4421079667286
 20
292.94755376818568
 30
0.0
 40
1.834601999999989
  0
ARC
  5
D08E
  8
0
 10
198.43538791526251
 20
278.52356480296999
 30
0.0
 40
1.8354474660024229
 50
142.50323145986121
 51
170.75103197175449
  0
LINE
  5
D08F
  8
0
 10
196.6238034889102
 20
278.81856691092253
 30
0.0
 11
197.33577910810709
 21
278.81910754367709
 31
0.0
  0
LINE
  5
D090
  8
0
 10
194.49274372309449
 20
278.81694780662662
 30
0.0
 11
195.0825652107597
 21
278.81739577278489
 31
0.0
  0
LINE
  5
D091
  8
0
 10
195.0825652107597
 20
278.81739577278489
 30
0.0
 11
195.08137125521901
 21
280.38868037983769
 31
0.0
  0
ARC
  5
D092
  8
0
 10
195.2458854888535
 20
278.40929809903832
 30
0.0
 40
1.986207072235006
 50
94.751161822269779
 51
129.2768480987485
  0
LINE
  5
D093
  8
0
 10
196.16765100508931
 20
278.37592931464309
 30
0.0
 11
195.7802841439844
 21
278.37563501670962
 31
0.0
  0
LINE
  5
D094
  8
0
 10
194.0365912392736
 20
278.37431021034718
 30
0.0
 11
193.32461468875411
 21
278.37376957759261
 31
0.0
  0
LINE
  5
D095
  8
0
 10
195.33277247101071
 20
275.20554289221758
 30
0.0
 11
195.08530888706451
 21
275.20535569638008
 31
0.0
  0
ARC
  5
D096
  8
0
 10
195.41424152831809
 20
276.29726262297902
 30
0.0
 40
1.4993507366616801
 50
266.89703507055629
 51
347.81231478317022
  0
LINE
  5
D097
  8
0
 10
195.08561622351411
 20
274.79992210865021
 30
0.0
 11
195.33308167010551
 21
274.80011023581028
 31
0.0
  0
LINE
  5
D098
  8
0
 10
195.08592542260891
 20
274.39448945224279
 30
0.0
 11
195.08561622351411
 21
274.79992210865021
 31
0.0
  0
LINE
  5
D099
  8
0
 10
197.7944238111377
 20
275.98142214119429
 30
0.0
 11
197.3379360511899
 21
275.98107568919659
 31
0.0
  0
LINE
  5
D09A
  8
0
 10
195.08317988365889
 20
278.00652952864772
 30
0.0
 11
195.33064533025029
 21
278.00671765580768
 31
0.0
  0
LINE
  5
D09B
  8
0
 10
195.0829004868865
 20
278.37510509416461
 30
0.0
 11
195.08317988365889
 21
278.00652952864772
 31
0.0
  0
LINE
  5
D09C
  8
0
 10
194.49307899922141
 20
278.37465712800622
 30
0.0
 11
195.0829004868865
 21
278.37510509416461
 31
0.0
  0
LINE
  5
D09D
  8
0
 10
193.3242784813047
 20
278.81606025621289
 30
0.0
 11
194.03625596314669
 21
278.81660088896751
 31
0.0
  0
ARC
  5
D09E
  8
0
 10
192.22512044502491
 20
278.51884711451851
 30
0.0
 40
1.8354474660024169
 50
9.3360185736977588
 51
37.583819085581993
  0
ARC
  5
D09F
  8
0
 10
195.1358640673447
 20
278.52105828845549
 30
0.0
 40
1.835447466002426
 50
142.50323145986121
 51
170.75103197175449
  0
LINE
  5
D0A0
  8
0
 10
195.5774942412973
 20
278.81777202710509
 30
0.0
 11
196.1673138663173
 21
278.81821999326348
 31
0.0
  0
LINE
  5
D0A1
  8
0
 10
197.33611438423401
 20
278.3768168650567
 30
0.0
 11
196.62413876503709
 21
278.37627623230219
 31
0.0
  0
ARC
  5
D0A2
  8
0
 10
198.420827903944
 20
278.64519158003912
 30
0.0
 40
1.816702504598452
 50
188.5124314108192
 51
199.49913084382209
  0
ARC
  5
D0A3
  8
0
 10
195.50000067800289
 20
276.00000062584883
 30
0.0
 40
2.3699569172246502
 50
47.233819826918108
 51
59.346264167636811
  0
ARC
  5
D0A4
  8
0
 10
195.5246442929429
 20
278.52135362903289
 30
0.0
 40
1.8354474660024001
 50
9.3360185736977588
 51
37.583819085591692
  0
ARC
  5
D0A5
  8
0
 10
195.3896989445206
 20
276.27311826601249
 30
0.0
 40
1.0690916530270489
 50
266.94772457243488
 51
344.10813616550018
  0
LINE
  5
D0A6
  8
0
 10
196.8797979876399
 20
275.98072737455368
 30
0.0
 11
196.41793090850121
 21
275.98037719726562
 31
0.0
  0
ARC
  5
D0A7
  8
0
 10
195.5313774851314
 20
278.66080287877668
 30
0.0
 40
1.826944599897699
 50
329.72905831654282
 51
351.05750239331468
  0
LINE
  5
D0A8
  8
0
 10
195.33338900655511
 20
274.39467664808029
 30
0.0
 11
195.08592542260891
 21
274.39448945224279
 31
0.0
  0
ARC
  5
D0A9
  8
0
 10
195.43858563803479
 20
276.32140682917361
 30
0.0
 40
1.929599489474318
 50
266.8748350594031
 51
349.8413737440066
  0
ARC
  5
D0AA
  8
0
 10
192.2250061427448
 20
278.66931227139332
 30
0.0
 40
1.8354474660023929
 50
322.50323145986118
 51
350.75103197175451
  0
ARC
  5
D0AB
  8
0
 10
195.33008873122981
 20
278.73899948604549
 30
0.0
 40
2.4746435999752729
 50
327.2463569769078
 51
212.84069356854459
  0
ARC
  5
D0AC
  8
0
 10
195.5736338688429
 20
276.11644085967117
 30
0.0
 40
2.2416134484652681
 50
7.8787040467295189
 51
34.936701865276142
  0
ARC
  5
D0AD
  8
0
 10
198.39469142003929
 20
278.5051909991297
 30
0.0
 40
2.2492656475152968
 50
140.07115526315241
 51
172.00021456259151
  0
ARC
  5
D0AE
  8
0
 10
195.43876891119049
 20
276.0801498387882
 30
0.0
 40
1.9295994894743631
 50
10.245676801445899
 51
93.212215486051349
  0
LINE
  5
D0AF
  8
0
 10
195.57630028575659
 20
280.38905616849661
 30
0.0
 11
195.5774942412973
 21
278.81777202710509
 31
0.0
  0
ARC
  5
D0B0
  8
0
 10
195.4013766142271
 20
275.94777518249668
 30
0.0
 40
2.4572493470337968
 50
71.496483276654146
 51
81.129597981815806
  0
ARC
  5
D0B1
  8
0
 10
198.36854371221611
 20
278.63089389257311
 30
0.0
 40
2.2156125182391699
 50
186.60803002292221
 51
189.16500586658969
  0
ARC
  5
D0B2
  8
0
 10
195.2587601425812
 20
278.78426938490151
 30
0.0
 40
1.9951801012092529
 50
230.53217560829751
 51
272.09133621753989
  0
ARC
  5
D0B3
  8
0
 10
195.13574976506439
 20
278.67152344533042
 30
0.0
 40
1.8354474660023801
 50
189.33601857369769
 51
217.5838190855917
  0
ARC
  5
D0B4
  8
0
 10
195.35237857234389
 20
276.14259174058537
 30
0.0
 40
2.4473576041129101
 50
149.16608930843981
 51
356.22408712698348
  0
ARC
  5
D0B5
  8
0
 10
192.2658448089297
 20
278.50053516280423
 30
0.0
 40
2.2492656475153141
 50
8.0868359828567495
 51
40.015895282295027
  0
ARC
  5
D0B6
  8
0
 10
195.4147927976899
 20
278.40942641107392
 30
0.0
 40
1.9862070722350229
 50
50.810202446701012
 51
85.335888723178826
  0
ARC
  5
D0B7
  8
0
 10
192.26570263796799
 20
278.68768607523361
 30
0.0
 40
2.2492656475153812
 50
320.07115526315249
 51
352.00021456259788
  0
LINE
  5
D0B8
  8
0
 10
195.08530888706451
 20
275.20535569638008
 30
0.0
 11
195.08500155061489
 21
275.61078835278749
 31
0.0
  0
ARC
  5
D0B9
  8
0
 10
195.33201661142689
 20
276.20069730819893
 30
0.0
 40
0.5897210879941151
 50
270.04356074219447
 51
90.043445193018783
  0
LINE
  5
D0BA
  8
0
 10
195.08500155061489
 20
275.61078835278749
 30
0.0
 11
195.33246513456109
 21
275.61097647994762
 31
0.0
  0
LINE
  5
D0BB
  8
0
 10
197.33759891241789
 20
276.42336636781693
 30
0.0
 11
197.79408667236569
 21
276.42371281981468
 31
0.0
  0
LINE
  5
D0BC
  8
0
 10
192.00000111013651
 20
275.00000093132257
 30
0.0
 11
192.00000111013651
 21
294.00000032037502
 31
0.0
  0
ARC
  5
D0BD
  8
0
 10
195.50000067800289
 20
294.00000062584883
 30
0.0
 40
3.5
 50
0.0
 51
180.0
  0
ARC
  5
D0BE
  8
0
 10
195.50000067800289
 20
275.00000062584883
 30
0.0
 40
3.500000000000028
 50
180.0
 51
0.0
  0
LINE
  5
D0BF
  8
0
 10
199.0000003948808
 20
294.00000032037502
 30
0.0
 11
199.0000003948808
 21
275.00000093132257
 31
0.0
  0
LINE
  5
D0C0
  8
0
 10
202.00000088661909
 20
253.00000011920929
 30
0.0
 11
164.00000024586919
 21
253.00000011920929
 31
0.0
  0
CIRCLE
  5
D0D2
  8
0
 10
178.00000067800289
 20
262.00000062584883
 30
0.0
 40
5.5
  0
CIRCLE
  5
D0D3
  8
0
 10
178.00000067800289
 20
307.00000062584883
 30
0.0
 40
5.5
  0
CIRCLE
  5
D0D4
  8
0
 10
178.00000067800289
 20
284.50000062584883
 30
0.0
 40
9.9999999999999858
  0
LINE
  5
D0D6
  8
0
 10
163.00000101327899
 20
315.00000096857548
 30
0.0
 11
164.00000024586919
 21
316.00000113248819
 31
0.0
  0
LINE
  5
D0D8
  8
0
 10
164.00000024586919
 20
316.00000113248819
 30
0.0
 11
202.00000088661909
 21
316.00000113248819
 31
0.0
  0
LINE
  5
D0DB
  8
0
 10
203.00000105053189
 20
254.00000028312209
 30
0.0
 11
202.00000088661909
 21
253.00000011920929
 31
0.0
  0
LINE
  5
D0DD
  8
0
 10
203.00000105053189
 20
315.00000096857548
 30
0.0
 11
203.00000105053189
 21
254.00000028312209
 31
0.0
  0
LINE
  5
D0DE
  8
0
 10
163.00000101327899
 20
254.00000028312209
 30
0.0
 11
163.00000101327899
 21
315.00000096857548
 31
0.0
  0
LINE
  5
D0E0
  8
0
 10
164.00000024586919
 20
253.00000011920929
 30
0.0
 11
163.00000101327899
 21
254.00000028312209
 31
0.0
  0
LINE
  5
D0E1
  8
0
 10
202.00000088661909
 20
316.00000113248819
 30
0.0
 11
203.00000105053189
 21
315.00000096857548
 31
0.0
  0
CIRCLE
  5
D0E2
  8
0
 10
178.00000067800289
 20
262.00000062584883
 30
0.0
 40
3.2999999999999972
  0
CIRCLE
  5
D0E3
  8
0
 10
178.00000067800289
 20
307.00000062584883
 30
0.0
 40
3.3000000000000389
  0
LINE
  5
D16B
  8
0
 10
202.5000000372529
 20
163.0000010132789
 30
0.0
 11
203.00000105053181
 21
163.50000016391269
 31
0.0
  0
LINE
  5
D16D
  8
0
 10
203.00000105053181
 20
202.50000096857551
 30
0.0
 11
203.00000105053181
 21
163.50000016391269
 31
0.0
  0
LINE
  5
D16F
  8
0
 10
202.5000000372527
 20
163.0000010132789
 30
0.0
 11
163.5000010952354
 21
163.0000010132789
 31
0.0
  0
LINE
  5
D171
  8
0
 10
163.0000010132789
 20
163.50000016391269
 30
0.0
 11
203.00000105053181
 21
163.50000016391269
 31
0.0
  0
LINE
  5
D173
  8
0
 10
163.00000101327899
 20
163.50000016391269
 30
0.0
 11
163.5000010952354
 21
163.0000010132789
 31
0.0
  0
LINE
  5
D175
  8
0
 10
203.00000105053181
 20
202.50000096857551
 30
0.0
 11
163.00000101327899
 21
202.50000096857551
 31
0.0
  0
LINE
  5
D178
  8
0
 10
163.00000101327899
 20
163.50000016391269
 30
0.0
 11
163.00000101327899
 21
202.50000096857551
 31
0.0
  0
LINE
  5
D17A
  8
0
 10
163.5000010952354
 20
203.0000001192092
 30
0.0
 11
202.5000000372527
 21
203.00000011920929
 31
0.0
  0
LINE
  5
D17D
  8
0
 10
202.5000000372529
 20
203.00000011920929
 30
0.0
 11
203.00000105053181
 21
202.50000096857551
 31
0.0
  0
LINE
  5
D17E
  8
0
 10
163.00000101327899
 20
202.50000096857551
 30
0.0
 11
163.5000010952354
 21
203.00000011920929
 31
0.0
  0
LINE
  5
D27B
  8
2
 10
172.5000007078051
 20
196.50000091642141
 30
0.0
 11
183.5000006482004
 21
196.50000091642141
 31
0.0
  0
LINE
  5
D3BF
  8
2
 10
172.5000007078051
 20
203.0000001192092
 30
0.0
 11
172.5000007078051
 21
196.50000091642141
 31
0.0
  0
LINE
  5
D3C0
  8
2
 10
183.5000006482004
 20
196.50000091642141
 30
0.0
 11
183.5000006482004
 21
203.00000011920929
 31
0.0
  0
LINE
  5
D3C7
  8
2
 10
174.7000006958842
 20
196.50000091642141
 30
0.0
 11
174.7000006958842
 21
163.00000101327899
 31
0.0
  0
LINE
  5
D3C8
  8
2
 10
181.3000006601215
 20
163.00000101327899
 30
0.0
 11
181.30000066012141
 21
196.50000091642141
 31
0.0
  0
LINE
  5
D6C7
  8
0
 10
50.0
 20
163.50000016391269
 30
0.0
 11
50.0
 21
202.50000096857551
 31
0.0
  0
LINE
  5
D6CA
  8
0
 10
50.0
 20
163.50000016391269
 30
0.0
 11
50.500001013278961
 21
163.0000010132789
 31
0.0
  0
LINE
  5
D6CD
  8
0
 10
50.500001013278961
 20
203.00000011920929
 30
0.0
 11
50.0
 21
202.50000096857551
 31
0.0
  0
LINE
  5
D6CE
  8
0
 10
50.000000000000057
 20
163.50000016391269
 30
0.0
 11
113.000001013279
 21
163.50000016391269
 31
0.0
  0
LINE
  5
D6D0
  8
0
 10
112.5
 20
163.0000010132789
 30
0.0
 11
50.500001013278961
 21
163.0000010132789
 31
0.0
  0
LINE
  5
D6D1
  8
0
 10
113.000001013279
 20
202.50000096857551
 30
0.0
 11
49.999999999999943
 21
202.50000096857551
 31
0.0
  0
LINE
  5
D6D4
  8
0
 10
50.500001013278961
 20
203.00000011920929
 30
0.0
 11
112.5000000000001
 21
203.00000011920929
 31
0.0
  0
CIRCLE
  5
D6D6
  8
0
 10
81.500000506639481
 20
183.0000005662441
 30
0.0
 40
13.0
  0
LINE
  5
D6D9
  8
0
 10
113.000001013279
 20
202.50000096857551
 30
0.0
 11
112.5
 21
203.00000011920929
 31
0.0
  0
LINE
  5
D6DA
  8
0
 10
113.000001013279
 20
202.50000096857551
 30
0.0
 11
113.000001013279
 21
163.50000016391269
 31
0.0
  0
LINE
  5
D6DD
  8
0
 10
112.5
 20
163.0000010132789
 30
0.0
 11
113.000001013279
 21
163.50000016391269
 31
0.0
  0
LINE
  5
D8A9
  8
0
 10
203.00000105053181
 20
51.000000163912773
 30
0.0
 11
202.00000088661901
 21
50.0
 31
0.0
  0
LINE
  5
D8AB
  8
0
 10
164.00000024586919
 20
50.0
 30
0.0
 11
163.00000101327899
 21
51.000000163912773
 31
0.0
  0
LINE
  5
D8AF
  8
0
 10
202.00000088661901
 20
50.0
 30
0.0
 11
164.00000024586919
 21
50.0
 31
0.0
  0
LINE
  5
D8B9
  8
0
 10
163.00000101327899
 20
51.000000163912773
 30
0.0
 11
163.00000101327899
 21
112.0000008493662
 31
0.0
  0
LINE
  5
D8BC
  8
0
 10
203.00000105053181
 20
112.0000008493662
 30
0.0
 11
203.00000105053181
 21
51.000000163912773
 31
0.0
  0
CIRCLE
  5
D8BD
  8
0
 10
178.00000067800281
 20
59.000000506639481
 30
0.0
 40
3.2999999999999821
  0
CIRCLE
  5
D8BE
  8
0
 10
178.00000067800281
 20
81.500000506639481
 30
0.0
 40
9.9999999999999858
  0
CIRCLE
  5
D8BF
  8
0
 10
178.00000067800281
 20
104.00000050663949
 30
0.0
 40
3.2999999999999972
  0
LINE
  5
D8C0
  8
0
 10
163.00000101327899
 20
112.0000008493662
 30
0.0
 11
164.00000024586919
 21
113.0000010132789
 31
0.0
  0
LINE
  5
D8C3
  8
0
 10
202.00000088661901
 20
113.0000010132789
 30
0.0
 11
203.00000105053181
 21
112.0000008493662
 31
0.0
  0
LINE
  5
D8C4
  8
0
 10
164.00000024586919
 20
113.0000010132789
 30
0.0
 11
202.00000088661901
 21
113.0000010132789
 31
0.0
  0
CIRCLE
  5
DB2C
  8
0
 10
308.00000155717129
 20
195.0000005662441
 30
0.0
 40
4.9999999999999956
  0
LINE
  5
DB2F
  8
0
 10
261.86602660833569
 20
196.5000003140326
 30
0.0
 11
260.13397635397479
 21
196.5000015388855
 31
0.0
  0
LINE
  5
DB34
  8
0
 10
261.86602718626028
 20
193.50000130557481
 30
0.0
 11
262.73205248276071
 21
195.00000027994719
 31
0.0
  0
CIRCLE
  5
DB39
  8
0
 10
261.00000155717129
 20
195.0000005662441
 30
0.0
 40
5.0000000000000009
  0
CIRCLE
  5
DB46
  8
0
 10
261.00000155717129
 20
171.0000005662441
 30
0.0
 40
5.0000000000000027
  0
CIRCLE
  5
DB53
  8
0
 10
308.00000155717129
 20
171.0000005662441
 30
0.0
 40
4.9999999999999982
  0
LINE
  5
DB54
  8
0
 10
260.50000134855492
 20
164.50000032782549
 30
0.0
 11
308.5000017657876
 21
164.50000032782549
 31
0.0
  0
ARC
  5
DB55
  8
0
 10
260.50000155717129
 20
170.5000005662441
 30
0.0
 40
6.0
 50
180.0
 51
270.0
  0
LINE
  5
DB56
  8
0
 10
254.50000222772351
 20
195.50000075250861
 30
0.0
 11
254.50000222772351
 21
170.50000037997961
 31
0.0
  0
ARC
  5
DB57
  8
0
 10
260.50000155717129
 20
195.5000005662441
 30
0.0
 40
6.0000000000000071
 50
90.0
 51
180.0
  0
LINE
  5
DB58
  8
0
 10
308.5000017657876
 20
201.5000008046627
 30
0.0
 11
260.50000134855497
 21
201.5000008046627
 31
0.0
  0
ARC
  5
DB59
  8
0
 10
308.50000155717117
 20
195.5000005662441
 30
0.0
 40
6.0000000000000142
 50
0.0
 51
90.0
  0
LINE
  5
DB5A
  8
0
 10
314.50000088661898
 20
170.50000037997961
 30
0.0
 11
314.50000088661898
 21
195.50000075250861
 31
0.0
  0
ARC
  5
DB60
  8
0
 10
308.50000155717117
 20
170.5000005662441
 30
0.0
 40
6.0000000000000142
 50
270.0
 51
0.0
  0
LINE
  5
DB63
  8
0
 10
315.50000105053181
 20
203.00000011920929
 30
0.0
 11
316.00000206381083
 21
202.50000096857551
 31
0.0
  0
LINE
  5
DB66
  8
0
 10
316.00000206381083
 20
202.50000096857551
 30
0.0
 11
316.00000206381083
 21
163.50000016391269
 31
0.0
  0
LINE
  5
DB6B
  8
0
 10
316.00000206381083
 20
163.50000016391269
 30
0.0
 11
315.50000105053181
 21
163.0000010132789
 31
0.0
  0
LINE
  5
DB6C
  8
0
 10
253.5000020638108
 20
203.00000011920929
 30
0.0
 11
315.50000105053181
 21
203.00000011920929
 31
0.0
  0
LINE
  5
DB6D
  8
0
 10
316.00000206381088
 20
202.50000096857551
 30
0.0
 11
253.00000105053189
 21
202.50000096857551
 31
0.0
  0
LINE
  5
DB6F
  8
0
 10
315.50000105053181
 20
163.0000010132789
 30
0.0
 11
253.5000020638106
 21
163.0000010132789
 31
0.0
  0
LINE
  5
DB71
  8
0
 10
253.00000105053189
 20
163.50000016391269
 30
0.0
 11
316.00000206381083
 21
163.50000016391269
 31
0.0
  0
LINE
  5
DB7D
  8
0
 10
253.00000105053181
 20
202.50000096857551
 30
0.0
 11
253.5000020638108
 21
203.00000011920929
 31
0.0
  0
LINE
  5
DB7F
  8
0
 10
253.5000020638106
 20
163.0000010132789
 30
0.0
 11
253.00000105053181
 21
163.50000016391269
 31
0.0
  0
LINE
  5
DB81
  8
0
 10
253.00000105053181
 20
163.50000016391269
 30
0.0
 11
253.00000105053181
 21
202.50000096857551
 31
0.0
  0
LINE
  5
DDB4
  8
1
 10
178.00000067800281
 20
206.00000011920929
 30
0.0
 11
178.00000067800281
 21
160.0000010132789
 31
0.0
  0
LINE
  5
DDBE
  8
1
 10
81.500000506639481
 20
208.00000011920929
 30
0.0
 11
81.500000506639481
 21
158.0000010132789
 31
0.0
  0
LINE
  5
DDBF
  8
1
 10
118.000001013279
 20
183.0000005662441
 30
0.0
 11
45.0
 21
183.0000005662441
 31
0.0
  0
LINE
  5
DDC6
  8
1
 10
178.00000067800281
 20
110.30000050663951
 30
0.0
 11
178.00000067800281
 21
97.700000506639483
 31
0.0
  0
LINE
  5
DDC7
  8
1
 10
184.3000006780027
 20
104.00000050663949
 30
0.0
 11
171.70000067800279
 21
104.00000050663949
 31
0.0
  0
LINE
  5
DDC8
  8
1
 10
184.3000006780027
 20
59.000000506639481
 30
0.0
 11
171.70000067800279
 21
59.000000506639481
 31
0.0
  0
LINE
  5
DDC9
  8
1
 10
208.00000105053181
 20
81.500000506639481
 30
0.0
 11
158.00000101327899
 21
81.500000506639481
 31
0.0
  0
LINE
  5
DDCF
  8
1
 10
178.00000067800281
 20
94.500000506639466
 30
0.0
 11
178.00000067800281
 21
68.500000506639495
 31
0.0
  0
LINE
  5
DDD0
  8
1
 10
178.00000067800281
 20
65.300000506639464
 30
0.0
 11
178.00000067800281
 21
52.700000506639491
 31
0.0
  0
LINE
  5
DDDF
  8
1
 10
178.00000067800289
 20
315.50000062584883
 30
0.0
 11
178.00000067800289
 21
298.50000062584883
 31
0.0
  0
LINE
  5
DDE0
  8
1
 10
158.00000101327899
 20
284.50000062584883
 30
0.0
 11
208.00000105053189
 21
284.50000062584883
 31
0.0
  0
LINE
  5
DDE1
  8
1
 10
186.50000067800289
 20
307.00000062584883
 30
0.0
 11
169.50000067800289
 21
307.00000062584883
 31
0.0
  0
LINE
  5
DDE2
  8
1
 10
186.50000067800289
 20
262.00000062584883
 30
0.0
 11
169.50000067800289
 21
262.00000062584883
 31
0.0
  0
LINE
  5
DDE8
  8
1
 10
178.00000067800289
 20
297.50000062584883
 30
0.0
 11
178.00000067800289
 21
271.50000062584883
 31
0.0
  0
LINE
  5
DDE9
  8
1
 10
178.00000067800289
 20
270.50000062584883
 30
0.0
 11
178.00000067800289
 21
253.5000006258488
 31
0.0
  0
LINE
  5
DDF1
  8
0
 10
260.13397634561449
 20
193.50000053215871
 30
0.0
 11
259.26795047118941
 21
195.00000056624421
 31
0.0
  0
LINE
  5
DDF2
  8
0
 10
262.73205248276071
 20
195.00000027994719
 30
0.0
 11
261.86602660833569
 21
196.5000003140326
 31
0.0
  0
LINE
  5
DDF3
  8
0
 10
260.13397635397479
 20
196.5000015388855
 30
0.0
 11
259.26795047118941
 21
195.00000056624421
 31
0.0
  0
LINE
  5
DDF4
  8
0
 10
260.13397634561449
 20
193.50000053215871
 30
0.0
 11
261.86602718626028
 21
193.50000130557481
 31
0.0
  0
LINE
  5
DDF9
  8
0
 10
308.86602660833569
 20
196.5000003140326
 30
0.0
 11
307.13397635397479
 21
196.5000015388855
 31
0.0
  0
LINE
  5
DDFA
  8
0
 10
308.86602718626028
 20
193.50000130557481
 30
0.0
 11
309.73205248276071
 21
195.00000027994719
 31
0.0
  0
LINE
  5
DDFB
  8
0
 10
307.13397634561449
 20
193.50000053215871
 30
0.0
 11
306.26795047118941
 21
195.00000056624421
 31
0.0
  0
LINE
  5
DDFC
  8
0
 10
309.73205248276071
 20
195.00000027994719
 30
0.0
 11
308.86602660833569
 21
196.5000003140326
 31
0.0
  0
LINE
  5
DDFD
  8
0
 10
307.13397635397479
 20
196.5000015388855
 30
0.0
 11
306.26795047118941
 21
195.00000056624421
 31
0.0
  0
LINE
  5
DDFE
  8
0
 10
307.13397634561449
 20
193.50000053215871
 30
0.0
 11
308.86602718626028
 21
193.50000130557481
 31
0.0
  0
LINE
  5
DDFF
  8
0
 10
308.86602660833569
 20
172.5000003140326
 30
0.0
 11
307.13397635397479
 21
172.5000015388855
 31
0.0
  0
LINE
  5
DE00
  8
0
 10
308.86602718626028
 20
169.50000130557481
 30
0.0
 11
309.73205248276071
 21
171.00000027994719
 31
0.0
  0
LINE
  5
DE01
  8
0
 10
307.13397634561449
 20
169.50000053215871
 30
0.0
 11
306.26795047118941
 21
171.00000056624421
 31
0.0
  0
LINE
  5
DE02
  8
0
 10
309.73205248276071
 20
171.00000027994719
 30
0.0
 11
308.86602660833569
 21
172.5000003140326
 31
0.0
  0
LINE
  5
DE03
  8
0
 10
307.13397635397479
 20
172.5000015388855
 30
0.0
 11
306.26795047118941
 21
171.00000056624421
 31
0.0
  0
LINE
  5
DE04
  8
0
 10
307.13397634561449
 20
169.50000053215871
 30
0.0
 11
308.86602718626028
 21
169.50000130557481
 31
0.0
  0
LINE
  5
DE05
  8
0
 10
261.86602660833569
 20
172.5000003140326
 30
0.0
 11
260.13397635397479
 21
172.5000015388855
 31
0.0
  0
LINE
  5
DE06
  8
0
 10
261.86602718626028
 20
169.50000130557481
 30
0.0
 11
262.73205248276071
 21
171.00000027994719
 31
0.0
  0
LINE
  5
DE07
  8
0
 10
260.13397634561449
 20
169.50000053215871
 30
0.0
 11
259.26795047118941
 21
171.00000056624421
 31
0.0
  0
LINE
  5
DE08
  8
0
 10
262.73205248276071
 20
171.00000027994719
 30
0.0
 11
261.86602660833569
 21
172.5000003140326
 31
0.0
  0
LINE
  5
DE09
  8
0
 10
260.13397635397479
 20
172.5000015388855
 30
0.0
 11
259.26795047118941
 21
171.00000056624421
 31
0.0
  0
LINE
  5
DE0A
  8
0
 10
260.13397634561449
 20
169.50000053215871
 30
0.0
 11
261.86602718626028
 21
169.50000130557481
 31
0.0
  0
CIRCLE
  5
DE11
  8
0
 10
284.50000155717129
 20
183.0000005662441
 30
0.0
 40
2.0669999999999988
  0
CIRCLE
  5
DE12
  8
3
 10
284.50000155717129
 20
183.0000005662441
 30
0.0
 40
2.5
  0
LINE
  5
DE13
  8
1
 10
284.50000155717129
 20
208.00000011920929
 30
0.0
 11
284.50000155717129
 21
158.0000010132789
 31
0.0
  0
LINE
  5
DE14
  8
1
 10
261.00000155717129
 20
203.0000005662441
 30
0.0
 11
261.00000155717129
 21
187.0000005662441
 31
0.0
  0
LINE
  5
DE15
  8
1
 10
308.00000155717129
 20
203.0000005662441
 30
0.0
 11
308.00000155717129
 21
187.0000005662441
 31
0.0
  0
LINE
  5
DE16
  8
1
 10
316.00000155717129
 20
195.0000005662441
 30
0.0
 11
300.00000155717129
 21
195.0000005662441
 31
0.0
  0
LINE
  5
DE17
  8
1
 10
316.00000155717129
 20
171.0000005662441
 30
0.0
 11
300.00000155717129
 21
171.0000005662441
 31
0.0
  0
LINE
  5
DE18
  8
1
 10
248.00000105053181
 20
183.0000005662441
 30
0.0
 11
321.00000206381083
 21
183.0000005662441
 31
0.0
  0
LINE
  5
DE28
  8
1
 10
269.00000155717129
 20
195.0000005662441
 30
0.0
 11
253.00000155717129
 21
195.0000005662441
 31
0.0
  0
LINE
  5
DE29
  8
1
 10
308.00000155717129
 20
179.0000005662441
 30
0.0
 11
308.00000155717129
 21
163.0000005662441
 31
0.0
  0
LINE
  5
DE2A
  8
1
 10
269.00000155717129
 20
171.0000005662441
 30
0.0
 11
253.00000155717129
 21
171.0000005662441
 31
0.0
  0
LINE
  5
DE2B
  8
1
 10
261.00000155717129
 20
179.0000005662441
 30
0.0
 11
261.00000155717129
 21
163.0000005662441
 31
0.0
  0
ENDSEC
  0
EOF
