  0
SECTION
  2
HEADER
  9
$ACADVER
  1
AC1009
  9
$INSBASE
 10
0.0
 20
0.0
 30
0.0
  9
$EXTMIN
 10
0.0
 20
-2.960436562073669
 30
0.0
  9
$EXTMAX
 10
161.5
 20
126.8686550759391
 30
0.0
  9
$LIMMIN
 10
0.0
 20
0.0
  9
$LIMMAX
 10
187.5
 20
135.0
  9
$ORTHOMODE
 70
     1
  9
$REGENMODE
 70
     1
  9
$FILLMODE
 70
     1
  9
$QTEXTMODE
 70
     0
  9
$MIRRTEXT
 70
     0
  9
$DRAGMODE
 70
     2
  9
$LTSCALE
 40
5.0
  9
$OSMODE
 70
  3071
  9
$ATTMODE
 70
     1
  9
$TEXTSIZE
 40
2.0000000000000502
  9
$TRACEWID
 40
0.05
  9
$TEXTSTYLE
  7
STANDARD
  9
$CLAYER
  8
0
  9
$CELTYPE
  6
BYLAYER
  9
$CECOLOR
 62
   256
  9
$DIMSCALE
 40
0.5
  9
$DIMASZ
 40
3.0
  9
$DIMEXO
 40
2.0
  9
$DIMDLI
 40
0.38
  9
$DIMRND
 40
0.0
  9
$DIMDLE
 40
0.0
  9
$DIMEXE
 40
2.0
  9
$DIMTP
 40
0.0
  9
$DIMTM
 40
0.0
  9
$DIMTXT
 40
3.2000000000000002
  9
$DIMCEN
 40
0.0
  9
$DIMTSZ
 40
0.0
  9
$DIMTOL
 70
     0
  9
$DIMLIM
 70
     0
  9
$DIMTIH
 70
     0
  9
$DIMTOH
 70
     0
  9
$DIMSE1
 70
     0
  9
$DIMSE2
 70
     0
  9
$DIMTAD
 70
     1
  9
$DIMZIN
 70
     0
  9
$DIMBLK
  1

  9
$DIMASO
 70
     1
  9
$DIMSHO
 70
     0
  9
$DIMPOST
  1

  9
$DIMAPOST
  1

  9
$DIMALT
 70
     0
  9
$DIMALTD
 70
     2
  9
$DIMALTF
 40
25.399999999999999
  9
$DIMLFAC
 40
1.0
  9
$DIMTOFL
 70
     1
  9
$DIMTVP
 40
1.6000000000000001
  9
$DIMTIX
 70
     1
  9
$DIMSOXD
 70
     0
  9
$DIMSAH
 70
     0
  9
$DIMBLK1
  1

  9
$DIMBLK2
  1

  9
$DIMSTYLE
  2
STANDARD
  9
$DIMCLRD
 70
     0
  9
$DIMCLRE
 70
     0
  9
$DIMCLRT
 70
     0
  9
$DIMTFAC
 40
1.0
  9
$DIMGAP
 40
0.09
  9
$LUNITS
 70
     2
  9
$LUPREC
 70
     4
  9
$SKETCHINC
 40
0.1
  9
$FILLETRAD
 40
0.0
  9
$AUNITS
 70
     0
  9
$AUPREC
 70
     4
  9
$MENU
  1
E:\r13\win\SUPPORT\ACAD
  9
$ELEVATION
 40
0.0
  9
$PELEVATION
 40
0.0
  9
$THICKNESS
 40
0.0
  9
$LIMCHECK
 70
     0
  9
$BLIPMODE
 70
     0
  9
$CHAMFERA
 40
0.0
  9
$CHAMFERB
 40
0.0
  9
$SKPOLY
 70
     0
  9
$TDCREATE
 40
2451613.686900463
  9
$TDUPDATE
 40
2456597.728135278
  9
$TDINDWG
 40
0.0001567014
  9
$TDUSRTIMER
 40
0.0001567014
  9
$USRTIMER
 70
     1
  9
$ANGBASE
 50
0.0
  9
$ANGDIR
 70
     0
  9
$PDMODE
 70
     0
  9
$PDSIZE
 40
0.0
  9
$PLINEWID
 40
0.0
  9
$COORDS
 70
     1
  9
$SPLFRAME
 70
     0
  9
$SPLINETYPE
 70
     6
  9
$SPLINESEGS
 70
     8
  9
$ATTDIA
 70
     0
  9
$ATTREQ
 70
     1
  9
$HANDLING
 70
     1
  9
$HANDSEED
  5
451
  9
$SURFTAB1
 70
     6
  9
$SURFTAB2
 70
     6
  9
$SURFTYPE
 70
     6
  9
$SURFU
 70
     6
  9
$SURFV
 70
     6
  9
$UCSNAME
  2

  9
$UCSORG
 10
0.0
 20
0.0
 30
0.0
  9
$UCSXDIR
 10
1.0
 20
0.0
 30
0.0
  9
$UCSYDIR
 10
0.0
 20
1.0
 30
0.0
  9
$PUCSNAME
  2

  9
$PUCSORG
 10
0.0
 20
0.0
 30
0.0
  9
$PUCSXDIR
 10
1.0
 20
0.0
 30
0.0
  9
$PUCSYDIR
 10
0.0
 20
1.0
 30
0.0
  9
$USERI1
 70
     0
  9
$USERI2
 70
     1
  9
$USERI3
 70
     1
  9
$USERI4
 70
     0
  9
$USERI5
 70
     0
  9
$USERR1
 40
0.0
  9
$USERR2
 40
0.0
  9
$USERR3
 40
0.0
  9
$USERR4
 40
0.0
  9
$USERR5
 40
0.0
  9
$WORLDVIEW
 70
     1
  9
$SHADEDGE
 70
     3
  9
$SHADEDIF
 70
    70
  9
$TILEMODE
 70
     1
  9
$MAXACTVP
 70
    16
  9
$PLIMCHECK
 70
     0
  9
$PEXTMIN
 10
1.0000000000000000E+020
 20
1.0000000000000000E+020
 30
1.0000000000000000E+020
  9
$PEXTMAX
 10
-1.0000000000000000E+020
 20
-1.0000000000000000E+020
 30
-1.0000000000000000E+020
  9
$PLIMMIN
 10
0.0
 20
0.0
  9
$PLIMMAX
 10
12.0
 20
9.0
  9
$UNITMODE
 70
     0
  9
$VISRETAIN
 70
     0
  9
$PLINEGEN
 70
     0
  9
$PSLTSCALE
 70
     0
  0
ENDSEC
  0
SECTION
  2
TABLES
  0
TABLE
  2
VPORT
 70
     1
  0
VPORT
  2
*ACTIVE
 70
     0
 10
0.0
 20
0.0
 11
1.0
 21
1.0
 12
93.747139195326156
 22
74.032238461692344
 13
0.0
 23
0.0
 14
5.0
 24
5.0
 15
5.0
 25
5.0
 16
0.0
 26
0.0
 36
1.0
 17
0.0
 27
0.0
 37
0.0
 40
155.93949811594231
 41
2.304913294797688
 42
50.0
 43
0.0
 44
0.0
 50
0.0
 51
0.0
 71
     0
 72
   500
 73
     1
 74
     0
 75
     0
 76
     0
 77
     0
 78
     2
  0
ENDTAB
  0
TABLE
  2
LTYPE
 70
     3
  0
LTYPE
  2
CONTINUOUS
 70
     0
  3
Solid Line
 72
    65
 73
     0
 40
0.0
  0
LTYPE
  2
CENTER
 70
     0
  3
____ _ ____ _ ____ _ ____ _ ____ _ ____ _ ____
 72
    65
 73
     4
 40
2.0
 49
1.25
 49
-0.25
 49
0.25
 49
-0.25
  0
LTYPE
  2
PHANTOM2
 70
     0
  3
___ _ _ ___ _ _ ___ _ _ ___ _ _
 72
    65
 73
     6
 40
1.25
 49
0.625
 49
-0.125
 49
0.125
 49
-0.125
 49
0.125
 49
-0.125
  0
ENDTAB
  0
TABLE
  2
LAYER
 70
     3
  0
LAYER
  2
0
 70
     0
 62
     7
  6
CONTINUOUS
  0
LAYER
  2
1
 70
     0
 62
     1
  6
CENTER
  0
LAYER
  2
3
 70
     0
 62
     3
  6
CONTINUOUS
  0
ENDTAB
  0
TABLE
  2
STYLE
 70
     2
  0
STYLE
  2
STANDARD
 70
     0
 40
0.0
 41
1.0
 50
0.0
 71
     0
 42
2.0000000000000502
  3
TXT
  4
BIGFONT
  0
STYLE
  2
STANDARD1
 70
     0
 40
0.0
 41
1.0
 50
0.0
 71
     0
 42
3.0
  3
txt
  4

  0
ENDTAB
  0
TABLE
  2
VIEW
 70
     1
  0
VIEW
  2
ALL
 70
     0
 40
175.0
 10
143.23529411764699
 20
87.5
 41
0.0
 11
0.0
 21
0.0
 31
1.0
 12
0.0
 22
0.0
 32
0.0
 42
0.0
 43
0.0
 44
0.0
 50
0.0
 71
     0
  0
ENDTAB
  0
TABLE
  2
UCS
 70
     0
  0
ENDTAB
  0
TABLE
  2
APPID
 70
     3
  0
APPID
  2
ACAD
 70
     0
  0
APPID
  2
ACAD_MLEADERVER
 70
     0
  0
APPID
  2
ACAD_NAV_VCDISPLAY
 70
     0
  0
ENDTAB
  0
TABLE
  2
DIMSTYLE
 70
     1
  0
DIMSTYLE
  2
STANDARD
 70
     0
  3

  4

  5

  6

  7

 40
1.0
 41
0.18
 42
0.0625
 43
0.38
 44
0.18
 45
0.0
 46
0.0
 47
0.0
 48
0.0
140
0.18
141
0.09
142
0.0
143
25.399999999999999
144
1.0
145
0.0
146
1.0
147
0.09
 71
     0
 72
     0
 73
     1
 74
     1
 75
     0
 76
     0
 77
     0
 78
     0
170
     0
171
     2
172
     0
173
     0
174
     0
175
     0
176
     0
177
     0
178
     0
  0
ENDTAB
  0
ENDSEC
  0
SECTION
  2
BLOCKS
  0
BLOCK
  8
0
  2
$MODEL_SPACE
 70
     0
 10
0.0
 20
0.0
 30
0.0
  3
$MODEL_SPACE
  1

  0
ENDBLK
  5
2D2
  8
0
  0
BLOCK
 67
     1
  8
0
  2
$PAPER_SPACE
 70
     0
 10
0.0
 20
0.0
 30
0.0
  3
$PAPER_SPACE
  1

  0
ENDBLK
  5
2D0
 67
     1
  8
0
  0
ENDSEC
  0
SECTION
  2
ENTITIES
  0
LINE
  5
1E9
  8
0
 10
94.16146083133485
 20
41.868655075939138
 30
0.0
 11
92.161460831334963
 21
41.868655075939138
 31
0.0
  0
LINE
  5
1EA
  8
1
 10
83.161460831334907
 20
27.86865507593912
 30
0.0
 11
106.66146083133491
 21
27.868655075939181
 31
0.0
  0
LINE
  5
1EB
  8
0
 10
94.161460831334949
 20
13.868655075939129
 30
0.0
 11
92.161460831334963
 21
13.868655075939129
 31
0.0
  0
LINE
  5
1EC
  8
0
 10
94.161460831334949
 20
98.868655075939145
 30
0.0
 11
92.161460831334963
 21
98.868655075939145
 31
0.0
  0
LINE
  5
1ED
  8
1
 10
83.161460831334907
 20
112.8686550759391
 30
0.0
 11
106.66146083133491
 21
112.8686550759392
 31
0.0
  0
LINE
  5
1EE
  8
0
 10
94.16146083133485
 20
126.8686550759391
 30
0.0
 11
92.161460831334963
 21
126.8686550759391
 31
0.0
  0
LINE
  5
1EF
  8
0
 10
94.161460831334949
 20
55.999999999999929
 30
0.0
 11
92.161460831334963
 21
55.999999999999929
 31
0.0
  0
LINE
  5
1F0
  8
0
 10
94.16146083133485
 20
83.999999999999943
 30
0.0
 11
92.161460831334963
 21
83.999999999999943
 31
0.0
  0
LINE
  5
1F1
  8
1
 10
83.161460831334907
 20
69.999999999999915
 30
0.0
 11
106.66146083133491
 21
69.999999999999957
 31
0.0
  0
LINE
  5
1F3
  8
0
 10
92.161460831334963
 20
63.815341561573319
 30
0.0
 11
92.161460831334907
 21
69.999999999999844
 31
0.0
  0
ARC
  5
1F4
  8
0
 10
105.78646083133501
 20
69.99999999999946
 30
0.0
 40
19.625
 50
161.63062377288909
 51
198.36937622710829
  0
LINE
  5
1F5
  8
0
 10
92.161460831334963
 20
55.999999999999929
 30
0.0
 11
92.161460831334963
 21
77.299975626199711
 31
0.0
  0
LINE
  5
1F6
  8
0
 10
85.661460831334907
 20
81.999999999999972
 30
0.0
 11
85.661460831334907
 21
57.999999999999972
 31
0.0
  0
LINE
  5
1F7
  8
3
 10
45.772200205650329
 20
77.108209615650424
 30
0.0
 11
37.391790384349576
 21
68.727799794349664
 31
0.0
  0
LINE
  5
1F8
  8
3
 10
46.924848935162679
 20
76.801855992662709
 30
0.0
 11
37.698144007337248
 21
67.575151064837286
 31
0.0
  0
LINE
  5
1F9
  8
3
 10
43.040997647499921
 20
62.927769132820941
 30
0.0
 11
43.040997647499921
 21
77.07223086717913
 31
0.0
  0
LINE
  5
1FA
  8
3
 10
44.499999999999943
 20
62.81578359616509
 30
0.0
 11
44.499999999999943
 21
77.184216403834981
 31
0.0
  0
LINE
  5
1FB
  8
3
 10
45.959002352499908
 20
62.927769132820913
 30
0.0
 11
45.959002352499908
 21
77.07223086717913
 31
0.0
  0
CIRCLE
  5
1FC
  8
0
 10
44.499999999999943
 20
70.0
 30
0.0
 40
7.2248637927316919
  0
LINE
  5
1FD
  8
3
 10
51.301855992662638
 20
67.575151064837286
 30
0.0
 11
42.07515106483725
 21
76.801855992662709
 31
0.0
  0
LINE
  5
1FE
  8
3
 10
51.60820961565031
 20
68.727799794349622
 30
0.0
 11
43.227799794349551
 21
77.108209615650381
 31
0.0
  0
LINE
  5
1FF
  8
3
 10
47.934246137719917
 20
63.647749157280032
 30
0.0
 11
38.147749157279982
 21
73.434246137719981
 31
0.0
  0
LINE
  5
200
  8
3
 10
41.065753862279962
 20
63.647749157280032
 30
0.0
 11
50.852250842719911
 21
73.434246137720024
 31
0.0
  0
LINE
  5
201
  8
3
 10
51.301855992662638
 20
72.424848935162743
 30
0.0
 11
42.07515106483725
 21
63.198144007337291
 31
0.0
  0
LINE
  5
202
  8
3
 10
43.227799794349551
 20
62.891790384349648
 30
0.0
 11
51.60820961565031
 21
71.272200205650449
 31
0.0
  0
LINE
  5
203
  8
3
 10
51.720777421153848
 20
69.92576565865393
 30
0.0
 11
44.574234341346028
 21
62.779222578846102
 31
0.0
  0
LINE
  5
204
  8
3
 10
38.716748069558491
 20
74.32424957794143
 30
0.0
 11
48.824249577941373
 21
64.216748069558591
 31
0.0
  0
LINE
  5
205
  8
3
 10
49.606130496926198
 20
64.893869503073745
 30
0.0
 11
39.393869503073631
 21
75.106130496926284
 31
0.0
  0
LINE
  5
206
  8
3
 10
40.175750422058513
 20
75.783251930441423
 30
0.0
 11
50.283251930441388
 21
65.67575042205857
 31
0.0
  0
LINE
  5
207
  8
3
 10
41.065753862279962
 20
76.352250842719968
 30
0.0
 11
50.363580214293449
 21
67.054424490706495
 31
0.0
  0
LINE
  5
208
  8
3
 10
38.147749157279982
 20
66.565753862280047
 30
0.0
 11
47.934246137719917
 21
76.352250842719997
 31
0.0
  0
LINE
  5
209
  8
3
 10
48.824249577941373
 20
75.783251930441423
 30
0.0
 11
38.716748069558491
 21
65.675750422058584
 31
0.0
  0
LINE
  5
20A
  8
3
 10
39.393869503073688
 20
64.893869503073745
 30
0.0
 11
49.606130496926248
 21
75.106130496926284
 31
0.0
  0
LINE
  5
20B
  8
3
 10
50.283251930441388
 20
74.324249577941472
 30
0.0
 11
40.175750422058513
 21
64.216748069558591
 31
0.0
  0
LINE
  5
20C
  8
3
 10
48.877007057499952
 20
64.256573625275919
 30
0.0
 11
48.877007057499952
 21
75.743426374724123
 31
0.0
  0
LINE
  5
20D
  8
3
 10
50.336009409999917
 20
65.747220735839591
 30
0.0
 11
50.336009409999917
 21
74.252779264160424
 31
0.0
  0
LINE
  5
20E
  8
3
 10
44.398764668013477
 20
62.80622356948642
 30
0.0
 11
37.279222578846031
 21
69.92576565865393
 31
0.0
  0
LINE
  5
20F
  8
3
 10
41.581995294999949
 20
63.394669891301533
 30
0.0
 11
41.581995294999949
 21
76.605330108698539
 31
0.0
  0
LINE
  5
210
  8
3
 10
47.41800470499993
 20
63.394669891301461
 30
0.0
 11
47.41800470499993
 21
76.605330108698539
 31
0.0
  0
LINE
  5
211
  8
3
 10
37.391790384349576
 20
71.272200205650378
 30
0.0
 11
45.772200205650279
 21
62.891790384349619
 31
0.0
  0
LINE
  5
212
  8
3
 10
37.698144007337248
 20
72.424848935162714
 30
0.0
 11
46.924848935162629
 21
63.198144007337291
 31
0.0
  0
LINE
  5
213
  8
3
 10
40.122992942499927
 20
64.256573625275919
 30
0.0
 11
40.122992942499927
 21
75.743426374724123
 31
0.0
  0
LINE
  5
214
  8
3
 10
38.663990589999969
 20
65.747220735839633
 30
0.0
 11
38.663990589999969
 21
74.252779264160409
 31
0.0
  0
CIRCLE
  5
215
  8
0
 10
44.499999999999943
 20
70.0
 30
0.0
 40
8.9806999999999988
  0
CIRCLE
  5
216
  8
0
 10
44.499999999999943
 20
70.0
 30
0.0
 40
14.0
  0
CIRCLE
  5
217
  8
0
 10
44.499999999999943
 20
70.0
 30
0.0
 40
13.5
  0
CIRCLE
  5
218
  8
0
 10
44.499999999999943
 20
70.0
 30
0.0
 40
12.0
  0
LINE
  5
219
  8
1
 10
44.5
 20
86.5
 30
0.0
 11
44.499999999999929
 21
53.5
 31
0.0
  0
LINE
  5
21A
  8
0
 10
32.5
 20
63.815341561573398
 30
0.0
 11
32.5
 21
76.184658438426595
 31
0.0
  0
LINE
  5
21B
  8
0
 10
56.499999999999879
 20
76.184658438426595
 30
0.0
 11
56.499999999999879
 21
63.815341561573398
 31
0.0
  0
LINE
  5
21C
  8
0
 10
43.856071321407171
 20
56.515365935373502
 30
0.0
 11
33.143928678592722
 21
62.70002437380009
 31
0.0
  0
LINE
  5
21D
  8
0
 10
92.161460831334963
 20
21.683996637512521
 30
0.0
 11
92.161460831334907
 21
27.86865507593906
 31
0.0
  0
LINE
  5
21E
  8
0
 10
85.661460831334907
 20
39.868655075939166
 30
0.0
 11
85.661460831334907
 21
15.86865507593917
 31
0.0
  0
LINE
  5
21F
  8
0
 10
92.161460831334963
 20
13.868655075939129
 30
0.0
 11
92.161460831334963
 21
41.868655075939138
 31
0.0
  0
ARC
  5
220
  8
0
 10
100.76877712112839
 20
21.868655075939198
 30
0.0
 40
14.62349331077916
 50
158.5145566251459
 51
201.4854433748541
  0
ARC
  5
221
  8
0
 10
100.76877712112839
 20
10.512583754532059
 30
0.0
 40
14.62349331077916
 50
158.5145566251459
 51
163.1325723771902
  0
LINE
  5
222
  8
0
 10
87.161460831334907
 20
14.36865507593917
 30
0.0
 11
85.661460831334907
 21
15.86865507593917
 31
0.0
  0
LINE
  5
223
  8
0
 10
87.161460831334963
 20
14.368655075939101
 30
0.0
 11
92.161460831334963
 21
14.368655075939101
 31
0.0
  0
LINE
  5
224
  8
0
 10
87.161460831337749
 20
16.51258375453197
 30
0.0
 11
92.161460831334963
 21
16.51258375453197
 31
0.0
  0
LINE
  5
225
  8
0
 10
87.161460831337749
 20
15.868655075939269
 30
0.0
 11
92.161460831334963
 21
15.868655075939269
 31
0.0
  0
LINE
  5
226
  8
0
 10
87.161460831337763
 20
15.868655075939269
 30
0.0
 11
87.161460831337749
 21
16.51258375453197
 31
0.0
  0
LINE
  5
227
  8
3
 10
51.506527521431678
 20
68.252513406431774
 30
0.0
 11
46.247486593568169
 21
62.993472478568229
 31
0.0
  0
LINE
  5
228
  8
3
 10
50.243426374724038
 20
65.622992942500005
 30
0.0
 11
38.756573625275848
 21
65.622992942500005
 31
0.0
  0
LINE
  5
229
  8
3
 10
51.105330108698467
 20
67.081995295000013
 30
0.0
 11
37.894669891301419
 21
67.081995295000013
 31
0.0
  0
LINE
  5
22A
  8
3
 10
51.57223086717903
 20
68.540997647499992
 30
0.0
 11
37.427769132820863
 21
68.540997647499992
 31
0.0
  0
LINE
  5
22B
  8
0
 10
55.856071321407171
 20
62.70002437380009
 30
0.0
 11
45.143928678592708
 21
56.515365935373502
 31
0.0
  0
LINE
  5
22C
  8
3
 10
48.752779264160317
 20
64.163990590000026
 30
0.0
 11
40.247220735839562
 21
64.163990589999983
 31
0.0
  0
LINE
  5
22D
  8
3
 10
37.493472478568208
 20
68.252513406431731
 30
0.0
 11
42.75251340643166
 21
62.993472478568307
 31
0.0
  0
ARC
  5
22E
  8
0
 10
100.76877712112839
 20
33.868655075939223
 30
0.0
 40
14.62349331077916
 50
158.5145566251459
 51
201.4854433748541
  0
LINE
  5
22F
  8
0
 10
92.161460831334978
 20
35.168630702138913
 30
0.0
 11
92.161460831334907
 21
27.86865507593906
 31
0.0
  0
LINE
  5
230
  8
0
 10
87.161460831337749
 20
28.512583754531988
 30
0.0
 11
92.161460831334935
 21
28.512583754531988
 31
0.0
  0
LINE
  5
231
  8
0
 10
87.161460831337749
 20
27.22472639734643
 30
0.0
 11
92.161460831334907
 21
27.224726397346402
 31
0.0
  0
LINE
  5
232
  8
0
 10
87.161460831337749
 20
27.22472639734643
 30
0.0
 11
87.161460831337735
 21
28.51258375453197
 31
0.0
  0
LINE
  5
233
  8
0
 10
87.161460831337763
 20
27.22472639734724
 30
0.0
 11
87.161460831337763
 21
28.340043585120561
 31
0.0
  0
LINE
  5
234
  8
0
 10
87.161460831334907
 20
41.368655075939166
 30
0.0
 11
85.661460831334907
 21
39.868655075939166
 31
0.0
  0
LINE
  5
235
  8
0
 10
87.161460831334963
 20
41.368655075939166
 30
0.0
 11
92.161460831334963
 21
41.368655075939166
 31
0.0
  0
LINE
  5
236
  8
0
 10
87.161460831337749
 20
39.868655075939152
 30
0.0
 11
92.161460831334935
 21
39.868655075939131
 31
0.0
  0
LINE
  5
237
  8
0
 10
87.161460831337749
 20
39.22472639734643
 30
0.0
 11
92.161460831334963
 21
39.224726397346423
 31
0.0
  0
LINE
  5
238
  8
0
 10
87.161460831337735
 20
39.224726397346423
 30
0.0
 11
87.161460831337749
 21
39.868655075939131
 31
0.0
  0
ARC
  5
239
  8
0
 10
100.76877712112839
 20
45.224726397346373
 30
0.0
 40
14.62349331077916
 50
196.86742762280971
 51
201.4854433748541
  0
ARC
  5
23A
  8
0
 10
91.466495411371554
 20
59.600012186898049
 30
0.0
 40
5.305035183128143
 50
144.2427182383355
 51
215.75728176163079
  0
LINE
  5
23B
  8
0
 10
87.161460831334907
 20
56.499999999999972
 30
0.0
 11
85.661460831334907
 21
57.999999999999972
 31
0.0
  0
LINE
  5
23C
  8
0
 10
87.161460831334963
 20
56.499999999999901
 30
0.0
 11
92.161460831334963
 21
56.499999999999901
 31
0.0
  0
LINE
  5
23D
  8
0
 10
92.161460831334907
 20
62.700024373799998
 30
0.0
 11
87.161460831334864
 21
62.700024373799998
 31
0.0
  0
LINE
  5
23E
  8
0
 10
92.161460831334963
 20
63.815341561573319
 30
0.0
 11
87.161460831334907
 21
63.815341561573319
 31
0.0
  0
LINE
  5
23F
  8
0
 10
87.161460831334907
 20
63.815341561573319
 30
0.0
 11
87.161460831334907
 21
62.700024373799998
 31
0.0
  0
LINE
  5
240
  8
1
 10
60.999999999999943
 20
70.0
 30
0.0
 11
27.99999999999994
 21
70.0
 31
0.0
  0
LINE
  5
241
  8
0
 10
33.143928678592722
 20
77.29997562619991
 30
0.0
 11
43.856071321407278
 21
83.484634064626448
 31
0.0
  0
LINE
  5
242
  8
0
 10
87.161460831337749
 20
112.2247263973464
 30
0.0
 11
87.161460831337735
 21
113.512583754532
 31
0.0
  0
LINE
  5
243
  8
0
 10
87.161460831337763
 20
112.2247263973472
 30
0.0
 11
87.161460831337763
 21
113.3400435851205
 31
0.0
  0
LINE
  5
244
  8
0
 10
92.161460831334978
 20
120.1686307021389
 30
0.0
 11
92.161460831334907
 21
112.8686550759391
 31
0.0
  0
LINE
  5
245
  8
0
 10
85.661460831334907
 20
124.8686550759392
 30
0.0
 11
85.661460831334907
 21
100.8686550759392
 31
0.0
  0
LINE
  5
246
  8
0
 10
92.161460831334963
 20
98.868655075939145
 30
0.0
 11
92.161460831334963
 21
126.8686550759391
 31
0.0
  0
LINE
  5
247
  8
3
 10
44.574234341346028
 20
77.220777421153969
 30
0.0
 11
51.720777421153848
 21
70.07423434134607
 31
0.0
  0
LINE
  5
248
  8
3
 10
51.506527521431678
 20
71.747486593568155
 30
0.0
 11
46.247486593568169
 21
77.006527521431764
 31
0.0
  0
LINE
  5
249
  8
3
 10
51.721158999999943
 20
70.0
 30
0.0
 11
37.278840999999943
 21
69.999999999999957
 31
0.0
  0
LINE
  5
24A
  8
3
 10
51.57223086717903
 20
71.459002352499994
 30
0.0
 11
37.427769132820863
 21
71.459002352499994
 31
0.0
  0
LINE
  5
24B
  8
3
 10
51.105330108698467
 20
72.918004705000016
 30
0.0
 11
37.894669891301419
 21
72.918004705000016
 31
0.0
  0
LINE
  5
24C
  8
3
 10
50.243426374724038
 20
74.377007057499995
 30
0.0
 11
38.756573625275848
 21
74.377007057499995
 31
0.0
  0
LINE
  5
24D
  8
0
 10
45.143928678592772
 20
83.484634064626505
 30
0.0
 11
55.856071321407221
 21
77.29997562619991
 31
0.0
  0
LINE
  5
24E
  8
3
 10
37.279222578846031
 20
70.07423434134607
 30
0.0
 11
44.425765658653908
 21
77.220777421153969
 31
0.0
  0
LINE
  5
24F
  8
3
 10
37.493472478568208
 20
71.747486593568297
 30
0.0
 11
42.75251340643166
 21
77.006527521431764
 31
0.0
  0
LINE
  5
250
  8
3
 10
48.752779264160381
 20
75.836009410000003
 30
0.0
 11
40.247220735839512
 21
75.836009409999974
 31
0.0
  0
LINE
  5
251
  8
0
 10
92.161460831334963
 20
83.999999999999943
 30
0.0
 11
92.161460831334963
 21
77.299975626199711
 31
0.0
  0
ARC
  5
252
  8
0
 10
91.466495411371554
 20
80.399987813101646
 30
0.0
 40
5.305035183128143
 50
144.24271823836921
 51
215.75728176166439
  0
LINE
  5
253
  8
0
 10
92.161460831334978
 20
77.299975626199711
 30
0.0
 11
92.161460831334907
 21
69.999999999999844
 31
0.0
  0
LINE
  5
254
  8
0
 10
92.161460831334963
 20
76.184658438426396
 30
0.0
 11
87.161460831334907
 21
76.184658438426396
 31
0.0
  0
LINE
  5
255
  8
0
 10
92.161460831334907
 20
77.299975626199711
 30
0.0
 11
87.161460831334864
 21
77.299975626199711
 31
0.0
  0
LINE
  5
256
  8
0
 10
92.161460831334907
 20
76.184658438426453
 30
0.0
 11
87.161460831335191
 21
76.18465843842651
 31
0.0
  0
LINE
  5
257
  8
0
 10
87.161460831334907
 20
76.184658438426396
 30
0.0
 11
87.161460831334907
 21
77.299975626199711
 31
0.0
  0
LINE
  5
258
  8
0
 10
87.161460831334907
 20
83.499999999999972
 30
0.0
 11
85.661460831334907
 21
81.999999999999972
 31
0.0
  0
LINE
  5
259
  8
0
 10
87.161460831334963
 20
83.499999999999972
 30
0.0
 11
92.161460831334963
 21
83.499999999999972
 31
0.0
  0
ARC
  5
25A
  8
0
 10
100.76877712112839
 20
106.8686550759392
 30
0.0
 40
14.62349331077916
 50
158.5145566251459
 51
201.4854433748541
  0
LINE
  5
25B
  8
0
 10
87.161460831334907
 20
99.368655075939188
 30
0.0
 11
85.661460831334907
 21
100.8686550759392
 31
0.0
  0
LINE
  5
25C
  8
0
 10
87.161460831337749
 20
100.8686550759393
 30
0.0
 11
92.161460831334963
 21
100.8686550759393
 31
0.0
  0
LINE
  5
25D
  8
0
 10
87.161460831337749
 20
101.512583754532
 30
0.0
 11
92.161460831334963
 21
101.512583754532
 31
0.0
  0
LINE
  5
25E
  8
0
 10
87.161460831334963
 20
99.368655075939117
 30
0.0
 11
92.161460831334963
 21
99.368655075939117
 31
0.0
  0
ARC
  5
25F
  8
0
 10
100.76877712112839
 20
95.512583754532059
 30
0.0
 40
14.62349331077916
 50
158.5145566251459
 51
163.1325723771902
  0
LINE
  5
260
  8
0
 10
87.161460831337763
 20
100.8686550759393
 30
0.0
 11
87.161460831337749
 21
101.512583754532
 31
0.0
  0
LINE
  5
261
  8
0
 10
92.161460831334963
 20
106.68399663751249
 30
0.0
 11
92.161460831334907
 21
112.8686550759391
 31
0.0
  0
LINE
  5
262
  8
0
 10
87.161460831337749
 20
112.2247263973464
 30
0.0
 11
92.161460831334907
 21
112.2247263973464
 31
0.0
  0
ARC
  5
263
  8
0
 10
100.76877712112839
 20
118.8686550759392
 30
0.0
 40
14.62349331077916
 50
158.5145566251459
 51
201.4854433748541
  0
LINE
  5
264
  8
0
 10
87.161460831337749
 20
113.512583754532
 30
0.0
 11
92.161460831334935
 21
113.512583754532
 31
0.0
  0
LINE
  5
265
  8
0
 10
87.161460831334907
 20
126.3686550759392
 30
0.0
 11
85.661460831334907
 21
124.8686550759392
 31
0.0
  0
LINE
  5
266
  8
0
 10
87.161460831337749
 20
124.2247263973464
 30
0.0
 11
92.161460831334963
 21
124.2247263973464
 31
0.0
  0
LINE
  5
267
  8
0
 10
87.161460831337749
 20
124.8686550759391
 30
0.0
 11
92.161460831334935
 21
124.8686550759391
 31
0.0
  0
LINE
  5
268
  8
0
 10
87.161460831334963
 20
126.3686550759392
 30
0.0
 11
92.161460831334963
 21
126.3686550759392
 31
0.0
  0
ARC
  5
269
  8
0
 10
100.76877712112839
 20
130.22472639734639
 30
0.0
 40
14.62349331077916
 50
196.86742762280971
 51
201.4854433748541
  0
LINE
  5
26A
  8
0
 10
87.161460831337735
 20
124.2247263973464
 30
0.0
 11
87.161460831337749
 21
124.8686550759391
 31
0.0
  0
CIRCLE
  5
26C
  8
3
 10
145.0
 20
70.0
 30
0.0
 40
9.3155000000000143
  0
CIRCLE
  5
26D
  8
0
 10
145.0
 20
70.0
 30
0.0
 40
10.47749999999993
  0
CIRCLE
  5
26E
  8
0
 10
145.0
 20
70.0
 30
0.0
 40
12.299999999999921
  0
CIRCLE
  5
26F
  8
0
 10
145.0
 20
70.0
 30
0.0
 40
13.99999999999994
  0
LINE
  5
270
  8
0
 10
95.161460831334907
 20
57.700000000000017
 30
0.0
 11
95.161460831334907
 21
82.299999999999926
 31
0.0
  0
LINE
  5
271
  8
0
 10
104.16146083133491
 20
79.315500000000014
 30
0.0
 11
104.16146083133491
 21
60.684500000000043
 31
0.0
  0
LINE
  5
272
  8
0
 10
103.16146083133491
 20
80.477499999999935
 30
0.0
 11
103.16146083133491
 21
59.522500000000008
 31
0.0
  0
LINE
  5
273
  8
0
 10
94.161460831334949
 20
55.999999999999929
 30
0.0
 11
94.16146083133485
 21
83.499999999999972
 31
0.0
  0
LINE
  5
274
  8
1
 10
145.0
 20
86.5
 30
0.0
 11
145.0
 21
53.5
 31
0.0
  0
LINE
  5
27B
  8
0
 10
95.161460831334907
 20
15.568655075939221
 30
0.0
 11
95.161460831334907
 21
40.168655075939121
 31
0.0
  0
LINE
  5
27C
  8
0
 10
104.16146083133491
 20
37.184155075939223
 30
0.0
 11
104.16146083133491
 21
18.553155075939241
 31
0.0
  0
LINE
  5
27D
  8
0
 10
103.16146083133491
 20
38.346155075939137
 30
0.0
 11
103.16146083133491
 21
17.39115507593921
 31
0.0
  0
LINE
  5
27E
  8
0
 10
94.161460831334949
 20
13.868655075939129
 30
0.0
 11
94.16146083133485
 21
41.368655075939166
 31
0.0
  0
LINE
  5
27F
  8
0
 10
95.161460831334907
 20
17.391155075939089
 30
0.0
 11
103.16146083133491
 21
17.39115507593921
 31
0.0
  0
LINE
  5
280
  8
3
 10
95.161460831334907
 20
18.553155075939131
 30
0.0
 11
103.16146083133491
 21
18.553155075939241
 31
0.0
  0
LINE
  5
281
  8
0
 10
94.161460831334949
 20
15.568655075939221
 30
0.0
 11
95.161460831334907
 21
15.568655075939221
 31
0.0
  0
LINE
  5
282
  8
0
 10
103.16146083133491
 20
18.553155075939241
 30
0.0
 11
104.16146083133491
 21
18.553155075939241
 31
0.0
  0
LINE
  5
287
  8
0
 10
95.161460831334907
 20
38.346155075939251
 30
0.0
 11
103.16146083133491
 21
38.346155075939137
 31
0.0
  0
LINE
  5
288
  8
3
 10
95.161460831334907
 20
37.184155075939223
 30
0.0
 11
103.16146083133491
 21
37.184155075939223
 31
0.0
  0
LINE
  5
289
  8
0
 10
94.16146083133485
 20
41.368655075939166
 30
0.0
 11
94.16146083133485
 21
41.868655075939138
 31
0.0
  0
LINE
  5
28A
  8
0
 10
94.161460831334907
 20
40.168655075939121
 30
0.0
 11
95.161460831334907
 21
40.168655075939121
 31
0.0
  0
LINE
  5
28B
  8
0
 10
103.16146083133491
 20
37.184155075939223
 30
0.0
 11
104.16146083133491
 21
37.184155075939223
 31
0.0
  0
LINE
  5
28C
  8
0
 10
94.161460831334949
 20
57.700000000000017
 30
0.0
 11
95.161460831334907
 21
57.700000000000017
 31
0.0
  0
LINE
  5
28D
  8
3
 10
95.161460831334907
 20
60.684499999999929
 30
0.0
 11
103.16146083133491
 21
60.684500000000043
 31
0.0
  0
LINE
  5
28E
  8
0
 10
95.161460831334907
 20
59.522499999999887
 30
0.0
 11
103.16146083133491
 21
59.522500000000008
 31
0.0
  0
LINE
  5
28F
  8
0
 10
103.16146083133491
 20
60.684500000000043
 30
0.0
 11
104.16146083133491
 21
60.684500000000043
 31
0.0
  0
LINE
  5
291
  8
1
 10
161.5
 20
70.0
 30
0.0
 11
128.5
 21
70.0
 31
0.0
  0
LINE
  5
292
  8
0
 10
94.161460831334949
 20
98.868655075939145
 30
0.0
 11
94.16146083133485
 21
126.3686550759392
 31
0.0
  0
LINE
  5
293
  8
0
 10
103.16146083133491
 20
123.34615507593909
 30
0.0
 11
103.16146083133491
 21
102.3911550759392
 31
0.0
  0
LINE
  5
294
  8
0
 10
104.16146083133491
 20
122.1841550759392
 30
0.0
 11
104.16146083133491
 21
103.5531550759392
 31
0.0
  0
LINE
  5
295
  8
0
 10
95.161460831334907
 20
100.5686550759392
 30
0.0
 11
95.161460831334907
 21
125.1686550759391
 31
0.0
  0
LINE
  5
296
  8
3
 10
95.161460831334907
 20
79.315500000000014
 30
0.0
 11
103.16146083133491
 21
79.315500000000014
 31
0.0
  0
LINE
  5
297
  8
0
 10
103.16146083133491
 20
79.315500000000014
 30
0.0
 11
104.16146083133491
 21
79.315500000000014
 31
0.0
  0
LINE
  5
298
  8
0
 10
95.161460831334907
 20
80.477500000000049
 30
0.0
 11
103.16146083133491
 21
80.477499999999935
 31
0.0
  0
LINE
  5
299
  8
0
 10
94.161460831334907
 20
82.299999999999926
 30
0.0
 11
95.161460831334907
 21
82.299999999999926
 31
0.0
  0
LINE
  5
29A
  8
0
 10
94.16146083133485
 20
83.499999999999972
 30
0.0
 11
94.16146083133485
 21
83.999999999999943
 31
0.0
  0
LINE
  5
29B
  8
0
 10
94.161460831334949
 20
100.5686550759392
 30
0.0
 11
95.161460831334907
 21
100.5686550759392
 31
0.0
  0
LINE
  5
29C
  8
3
 10
95.161460831334907
 20
103.5531550759391
 30
0.0
 11
103.16146083133491
 21
103.5531550759392
 31
0.0
  0
LINE
  5
29D
  8
0
 10
95.161460831334907
 20
102.3911550759391
 30
0.0
 11
103.16146083133491
 21
102.3911550759392
 31
0.0
  0
LINE
  5
29E
  8
0
 10
103.16146083133491
 20
103.5531550759392
 30
0.0
 11
104.16146083133491
 21
103.5531550759392
 31
0.0
  0
LINE
  5
29F
  8
3
 10
95.161460831334907
 20
122.1841550759392
 30
0.0
 11
103.16146083133491
 21
122.1841550759392
 31
0.0
  0
LINE
  5
2A0
  8
0
 10
95.161460831334907
 20
123.34615507593919
 30
0.0
 11
103.16146083133491
 21
123.34615507593909
 31
0.0
  0
LINE
  5
2A1
  8
0
 10
103.16146083133491
 20
122.1841550759392
 30
0.0
 11
104.16146083133491
 21
122.1841550759392
 31
0.0
  0
LINE
  5
2A2
  8
0
 10
94.16146083133485
 20
126.3686550759392
 30
0.0
 11
94.16146083133485
 21
126.8686550759391
 31
0.0
  0
LINE
  5
2A3
  8
0
 10
94.161460831334907
 20
125.1686550759391
 30
0.0
 11
95.161460831334907
 21
125.1686550759391
 31
0.0
  0
TEXT
  5
3BC
  8
0
 62
     3
 10
0.0
 20
0.0
 30
0.0
 40
10.0
  1
PRSH-13
  7
STANDARD1
  0
ENDSEC
  0
EOF
