  0
SECTION
  2
HEADER
  9
$ACADVER
  1
AC1009
  9
$INSBASE
 10
0.0
 20
0.0
 30
0.0
  9
$EXTMIN
 10
0.0
 20
-2.960436562073669
 30
0.0
  9
$EXTMAX
 10
169.34934201271381
 20
126.9275623658344
 30
0.0
  9
$LIMMIN
 10
0.0
 20
0.0
  9
$LIMMAX
 10
187.5
 20
135.0
  9
$ORTHOMODE
 70
     1
  9
$REGENMODE
 70
     1
  9
$FILLMODE
 70
     1
  9
$QTEXTMODE
 70
     0
  9
$MIRRTEXT
 70
     0
  9
$DRAGMODE
 70
     2
  9
$LTSCALE
 40
5.0
  9
$OSMODE
 70
  3071
  9
$ATTMODE
 70
     1
  9
$TEXTSIZE
 40
2.0000000000000502
  9
$TRACEWID
 40
0.05
  9
$TEXTSTYLE
  7
STANDARD
  9
$CLAYER
  8
0
  9
$CELTYPE
  6
BYLAYER
  9
$CECOLOR
 62
   256
  9
$DIMSCALE
 40
0.5
  9
$DIMASZ
 40
3.0
  9
$DIMEXO
 40
2.0
  9
$DIMDLI
 40
0.38
  9
$DIMRND
 40
0.0
  9
$DIMDLE
 40
0.0
  9
$DIMEXE
 40
2.0
  9
$DIMTP
 40
0.0
  9
$DIMTM
 40
0.0
  9
$DIMTXT
 40
3.2000000000000002
  9
$DIMCEN
 40
0.0
  9
$DIMTSZ
 40
0.0
  9
$DIMTOL
 70
     0
  9
$DIMLIM
 70
     0
  9
$DIMTIH
 70
     0
  9
$DIMTOH
 70
     0
  9
$DIMSE1
 70
     0
  9
$DIMSE2
 70
     0
  9
$DIMTAD
 70
     1
  9
$DIMZIN
 70
     0
  9
$DIMBLK
  1

  9
$DIMASO
 70
     1
  9
$DIMSHO
 70
     0
  9
$DIMPOST
  1

  9
$DIMAPOST
  1

  9
$DIMALT
 70
     0
  9
$DIMALTD
 70
     2
  9
$DIMALTF
 40
25.399999999999999
  9
$DIMLFAC
 40
1.0
  9
$DIMTOFL
 70
     1
  9
$DIMTVP
 40
1.6000000000000001
  9
$DIMTIX
 70
     1
  9
$DIMSOXD
 70
     0
  9
$DIMSAH
 70
     0
  9
$DIMBLK1
  1

  9
$DIMBLK2
  1

  9
$DIMSTYLE
  2
STANDARD
  9
$DIMCLRD
 70
     0
  9
$DIMCLRE
 70
     0
  9
$DIMCLRT
 70
     0
  9
$DIMTFAC
 40
1.0
  9
$DIMGAP
 40
0.09
  9
$LUNITS
 70
     2
  9
$LUPREC
 70
     4
  9
$SKETCHINC
 40
0.1
  9
$FILLETRAD
 40
0.0
  9
$AUNITS
 70
     0
  9
$AUPREC
 70
     4
  9
$MENU
  1
E:\r13\win\SUPPORT\ACAD
  9
$ELEVATION
 40
0.0
  9
$PELEVATION
 40
0.0
  9
$THICKNESS
 40
0.0
  9
$LIMCHECK
 70
     0
  9
$BLIPMODE
 70
     0
  9
$CHAMFERA
 40
0.0
  9
$CHAMFERB
 40
0.0
  9
$SKPOLY
 70
     0
  9
$TDCREATE
 40
2451607.4728766209
  9
$TDUPDATE
 40
2456597.7234212272
  9
$TDINDWG
 40
0.0004763889
  9
$TDUSRTIMER
 40
0.0004763889
  9
$USRTIMER
 70
     1
  9
$ANGBASE
 50
0.0
  9
$ANGDIR
 70
     0
  9
$PDMODE
 70
     0
  9
$PDSIZE
 40
0.0
  9
$PLINEWID
 40
0.0
  9
$COORDS
 70
     1
  9
$SPLFRAME
 70
     0
  9
$SPLINETYPE
 70
     6
  9
$SPLINESEGS
 70
     8
  9
$ATTDIA
 70
     0
  9
$ATTREQ
 70
     1
  9
$HANDLING
 70
     1
  9
$HANDSEED
  5
40F
  9
$SURFTAB1
 70
     6
  9
$SURFTAB2
 70
     6
  9
$SURFTYPE
 70
     6
  9
$SURFU
 70
     6
  9
$SURFV
 70
     6
  9
$UCSNAME
  2

  9
$UCSORG
 10
0.0
 20
0.0
 30
0.0
  9
$UCSXDIR
 10
1.0
 20
0.0
 30
0.0
  9
$UCSYDIR
 10
0.0
 20
1.0
 30
0.0
  9
$PUCSNAME
  2

  9
$PUCSORG
 10
0.0
 20
0.0
 30
0.0
  9
$PUCSXDIR
 10
1.0
 20
0.0
 30
0.0
  9
$PUCSYDIR
 10
0.0
 20
1.0
 30
0.0
  9
$USERI1
 70
     0
  9
$USERI2
 70
     1
  9
$USERI3
 70
     1
  9
$USERI4
 70
     0
  9
$USERI5
 70
     0
  9
$USERR1
 40
0.0
  9
$USERR2
 40
0.0
  9
$USERR3
 40
0.0
  9
$USERR4
 40
0.0
  9
$USERR5
 40
0.0
  9
$WORLDVIEW
 70
     1
  9
$SHADEDGE
 70
     3
  9
$SHADEDIF
 70
    70
  9
$TILEMODE
 70
     1
  9
$MAXACTVP
 70
    16
  9
$PLIMCHECK
 70
     0
  9
$PEXTMIN
 10
1.0000000000000000E+020
 20
1.0000000000000000E+020
 30
1.0000000000000000E+020
  9
$PEXTMAX
 10
-1.0000000000000000E+020
 20
-1.0000000000000000E+020
 30
-1.0000000000000000E+020
  9
$PLIMMIN
 10
0.0
 20
0.0
  9
$PLIMMAX
 10
12.0
 20
9.0
  9
$UNITMODE
 70
     0
  9
$VISRETAIN
 70
     0
  9
$PLINEGEN
 70
     0
  9
$PSLTSCALE
 70
     0
  0
ENDSEC
  0
SECTION
  2
TABLES
  0
TABLE
  2
VPORT
 70
     1
  0
VPORT
  2
*ACTIVE
 70
     0
 10
0.0
 20
0.0
 11
1.0
 21
1.0
 12
93.74713919532617
 22
66.313465060797697
 13
0.0
 23
0.0
 14
5.0
 24
5.0
 15
5.0
 25
5.0
 16
0.0
 26
0.0
 36
1.0
 17
0.0
 27
0.0
 37
0.0
 40
140.15365342376049
 41
2.304913294797688
 42
50.0
 43
0.0
 44
0.0
 50
0.0
 51
0.0
 71
     0
 72
   500
 73
     1
 74
     0
 75
     0
 76
     0
 77
     0
 78
     2
  0
ENDTAB
  0
TABLE
  2
LTYPE
 70
     3
  0
LTYPE
  2
CONTINUOUS
 70
     0
  3
Solid Line
 72
    65
 73
     0
 40
0.0
  0
LTYPE
  2
CENTER
 70
     0
  3
____ _ ____ _ ____ _ ____ _ ____ _ ____ _ ____
 72
    65
 73
     4
 40
2.0
 49
1.25
 49
-0.25
 49
0.25
 49
-0.25
  0
LTYPE
  2
PHANTOM2
 70
     0
  3
___ _ _ ___ _ _ ___ _ _ ___ _ _
 72
    65
 73
     6
 40
1.25
 49
0.625
 49
-0.125
 49
0.125
 49
-0.125
 49
0.125
 49
-0.125
  0
ENDTAB
  0
TABLE
  2
LAYER
 70
     3
  0
LAYER
  2
0
 70
     0
 62
     7
  6
CONTINUOUS
  0
LAYER
  2
1
 70
     0
 62
     1
  6
CENTER
  0
LAYER
  2
3
 70
     0
 62
     3
  6
CONTINUOUS
  0
ENDTAB
  0
TABLE
  2
STYLE
 70
     3
  0
STYLE
  2
STANDARD
 70
     0
 40
0.0
 41
1.0
 50
0.0
 71
     0
 42
2.0000000000000502
  3
TXT
  4
BIGFONT
  0
STYLE
  2
SIM180
 70
     0
 40
0.0
 41
1.8
 50
0.0
 71
     0
 42
0.8
  3
SIMPLEX
  4

  0
STYLE
  2
STANDARD1
 70
     0
 40
0.0
 41
1.0
 50
0.0
 71
     0
 42
3.0
  3
txt
  4

  0
ENDTAB
  0
TABLE
  2
VIEW
 70
     1
  0
VIEW
  2
ALL
 70
     0
 40
175.0
 10
143.23529411764699
 20
87.5
 41
0.0
 11
0.0
 21
0.0
 31
1.0
 12
0.0
 22
0.0
 32
0.0
 42
0.0
 43
0.0
 44
0.0
 50
0.0
 71
     0
  0
ENDTAB
  0
TABLE
  2
UCS
 70
     0
  0
ENDTAB
  0
TABLE
  2
APPID
 70
     3
  0
APPID
  2
ACAD
 70
     0
  0
APPID
  2
ACAD_MLEADERVER
 70
     0
  0
APPID
  2
ACAD_NAV_VCDISPLAY
 70
     0
  0
ENDTAB
  0
TABLE
  2
DIMSTYLE
 70
     1
  0
DIMSTYLE
  2
STANDARD
 70
     0
  3

  4

  5

  6

  7

 40
1.0
 41
0.18
 42
0.0625
 43
0.38
 44
0.18
 45
0.0
 46
0.0
 47
0.0
 48
0.0
140
0.18
141
0.09
142
0.0
143
25.399999999999999
144
1.0
145
0.0
146
1.0
147
0.09
 71
     0
 72
     0
 73
     1
 74
     1
 75
     0
 76
     0
 77
     0
 78
     0
170
     0
171
     2
172
     0
173
     0
174
     0
175
     0
176
     0
177
     0
178
     0
  0
ENDTAB
  0
ENDSEC
  0
SECTION
  2
BLOCKS
  0
BLOCK
  8
0
  2
$MODEL_SPACE
 70
     0
 10
0.0
 20
0.0
 30
0.0
  3
$MODEL_SPACE
  1

  0
ENDBLK
  5
28E
  8
0
  0
BLOCK
 67
     1
  8
0
  2
$PAPER_SPACE
 70
     0
 10
0.0
 20
0.0
 30
0.0
  3
$PAPER_SPACE
  1

  0
ENDBLK
  5
28C
 67
     1
  8
0
  0
ENDSEC
  0
SECTION
  2
ENTITIES
  0
LINE
  5
1B1
  8
1
 10
107.5
 20
69.999999999999972
 30
0.0
 11
84.499999999999986
 21
70.000000000000028
 31
0.0
  0
LINE
  5
1B2
  8
0
 10
89.261106986721629
 20
62.494446506642099
 30
0.0
 11
93.999999999999872
 21
62.494446506642099
 31
0.0
  0
LINE
  5
1B3
  8
0
 10
89.261106997303258
 20
54.988893013288269
 30
0.0
 11
93.999999999999986
 21
54.988893013288269
 31
0.0
  0
LINE
  5
1B4
  8
0
 10
89.261106997303258
 20
85.011106986711724
 30
0.0
 11
93.999999999999986
 21
85.011106986711724
 31
0.0
  0
LINE
  5
1B5
  8
0
 10
89.261106986721629
 20
77.505553493357894
 30
0.0
 11
93.999999999999872
 21
77.505553493357894
 31
0.0
  0
LINE
  5
1B6
  8
1
 10
107.5
 20
26.072437634165571
 30
0.0
 11
83.999999999999915
 21
26.07243763416551
 31
0.0
  0
LINE
  5
1B7
  8
0
 10
94.999999999999915
 20
13.072437634165549
 30
0.0
 11
93.499999999999915
 21
13.072437634165549
 31
0.0
  0
LINE
  5
1B8
  8
0
 10
94.999999999999915
 20
39.072437634165453
 30
0.0
 11
93.499999999999915
 21
39.072437634165482
 31
0.0
  0
LINE
  5
1B9
  8
0
 10
94.999999999999915
 20
100.9275623658345
 30
0.0
 11
93.499999999999915
 21
100.9275623658344
 31
0.0
  0
LINE
  5
1BA
  8
0
 10
94.999999999999915
 20
126.9275623658344
 30
0.0
 11
93.499999999999915
 21
126.9275623658344
 31
0.0
  0
LINE
  5
1BB
  8
1
 10
107.5
 20
113.9275623658344
 30
0.0
 11
83.999999999999915
 21
113.9275623658344
 31
0.0
  0
LINE
  5
1BD
  8
0
 10
86.999999999999986
 20
57.250000010591492
 30
0.0
 11
86.999999999999986
 21
82.749999989427593
 31
0.0
  0
ARC
  5
1BE
  8
0
 10
102.2611070550533
 20
69.999999999999801
 30
0.0
 40
15.011107055053751
 50
150.0000001505943
 51
209.99999984940419
  0
LINE
  5
1BF
  8
0
 10
36.385794846430123
 20
69.399999999980935
 30
0.0
 11
29.642276167334831
 21
69.399999999980963
 31
0.0
1001
ACAD
1000
ASC_BOUNDS
1002
{
1070
    19
1002
}
  0
LINE
  5
1C0
  8
0
 10
36.385794846430123
 20
70.599999999980952
 30
0.0
 11
29.642276167334831
 21
70.599999999980952
 31
0.0
1001
ACAD
1000
ASC_BOUNDS
1002
{
1070
    19
1002
}
  0
LINE
  5
1C1
  8
0
 10
33.985794846430061
 20
76.749999999980986
 30
0.0
 11
40.585794846430083
 21
76.749999999980986
 31
0.0
1001
ACAD
1000
ASC_BOUNDS
1002
{
1070
    19
1005
0
1002
}
  0
LINE
  5
1C2
  8
0
 10
39.085794846430083
 20
64.749999999980957
 30
0.0
 11
35.185794846430113
 21
64.749999999980929
 31
0.0
1001
ACAD
1000
ASC_BOUNDS
1002
{
1070
    19
1005
0
1002
}
  0
LINE
  5
1C3
  8
0
 10
40.585794846430083
 20
63.24999999998095
 30
0.0
 11
33.985794846430061
 21
63.24999999998095
 31
0.0
1001
ACAD
1000
ASC_BOUNDS
1002
{
1070
    19
1005
0
1002
}
  0
LINE
  5
1C4
  8
0
 10
35.185794846430113
 20
75.249999999980986
 30
0.0
 11
39.085794846430083
 21
75.249999999980986
 31
0.0
1001
ACAD
1000
ASC_BOUNDS
1002
{
1070
    19
1005
0
1002
}
  0
LINE
  5
1C5
  8
1
 10
36.442276175741682
 20
87.8978583277772
 30
0.0
 11
36.442276158920308
 21
52.10214166246466
 31
0.0
  0
LINE
  5
1C6
  8
0
 10
23.442276177907232
 20
62.494446506621507
 30
0.0
 11
23.442276177907232
 21
77.505553505550893
 31
0.0
  0
LINE
  5
1C7
  8
0
 10
49.44227615674329
 20
77.505553493332854
 30
0.0
 11
49.44227615674329
 21
62.494446494403469
 31
0.0
  0
CIRCLE
  5
1C8
  8
0
 10
36.442276167334811
 20
69.999999999980943
 30
0.0
 40
10.5
  0
CIRCLE
  5
1C9
  8
0
 10
36.442276167334811
 20
69.999999999980943
 30
0.0
 40
12.75
  0
LINE
  5
1CA
  8
0
 10
29.642276167334831
 20
70.599999999980952
 30
0.0
 11
31.442276167334811
 21
71.79999999998094
 31
0.0
1001
ACAD
1000
ASC_BOUNDS
1002
{
1070
    19
1002
}
  0
LINE
  5
1CB
  8
0
 10
26.942276167334811
 20
69.999999999980943
 30
0.0
 11
31.442276167334811
 21
72.999999999980957
 31
0.0
1001
ACAD
1000
ASC_BOUNDS
1002
{
1070
    19
1002
}
  0
LINE
  5
1CC
  8
0
 10
36.442276167325247
 20
54.988893013274669
 30
0.0
 11
23.44227616732525
 21
62.494446512737177
 31
0.0
  0
LINE
  5
1CD
  8
0
 10
33.985794846430089
 20
76.749999999980986
 30
0.0
 11
33.985794846430089
 21
73.733974596196475
 31
0.0
1001
ACAD
1000
ASC_BOUNDS
1002
{
1070
    19
1005
0
1002
}
  0
LINE
  5
1CE
  8
0
 10
35.185794846430113
 20
75.249999999980986
 30
0.0
 11
35.185794846430113
 21
73.099999999980895
 31
0.0
1001
ACAD
1000
ASC_BOUNDS
1002
{
1070
    19
1005
0
1002
}
  0
LINE
  5
1CF
  8
0
 10
33.985794846430089
 20
73.733974596196475
 30
0.0
 11
32.58771863507679
 21
72.926794919223966
 31
0.0
1001
ACAD
1000
ASC_BOUNDS
1002
{
1070
    19
1005
0
1002
}
  0
LINE
  5
1D0
  8
0
 10
35.185794846430113
 20
73.099999999980895
 30
0.0
 11
32.58771863507674
 21
71.599999999980909
 31
0.0
1001
ACAD
1000
ASC_BOUNDS
1002
{
1070
    19
1005
0
1002
}
  0
LINE
  5
1D1
  8
0
 10
32.587718635076762
 20
72.926794919223994
 30
0.0
 11
32.58771863507679
 21
71.599999999980895
 31
0.0
1001
ACAD
1000
ASC_BOUNDS
1002
{
1070
    19
1005
0
1002
}
  0
LINE
  5
1D2
  8
0
 10
31.442276167334811
 20
72.999999999980957
 30
0.0
 11
31.442276167334811
 21
71.79999999998094
 31
0.0
1001
ACAD
1000
ASC_BOUNDS
1002
{
1070
    19
1002
}
  0
ARC
  5
1D3
  8
0
 10
98.259718664638285
 20
19.57243763945165
 30
0.0
 40
11.509718664638291
 50
145.61575270206151
 51
214.3842472979382
  0
LINE
  5
1D4
  8
0
 10
93.499999999999915
 20
39.072437623574018
 30
0.0
 11
93.499999999999915
 21
13.07243764473791
 31
0.0
  0
LINE
  5
1D5
  8
0
 10
86.499999999999915
 20
38.822437623574011
 30
0.0
 11
86.499999999999915
 21
13.322437644737921
 31
0.0
  0
LINE
  5
1D6
  8
0
 10
86.749999999999915
 20
13.07243764473791
 30
0.0
 11
93.499999999999915
 21
13.07243764473791
 31
0.0
  0
LINE
  5
1D7
  8
0
 10
86.499999999999915
 20
13.322437644737921
 30
0.0
 11
86.749999999999915
 21
13.07243764473791
 31
0.0
  0
LINE
  5
1D8
  8
0
 10
49.44227615674329
 20
62.494446506622978
 30
0.0
 11
36.442276156743283
 21
54.988893007156037
 31
0.0
  0
LINE
  5
1D9
  8
0
 10
33.985794846430089
 20
63.249999999980922
 30
0.0
 11
33.985794846430089
 21
66.26602540376544
 31
0.0
1001
ACAD
1000
ASC_BOUNDS
1002
{
1070
    19
1005
0
1002
}
  0
LINE
  5
1DA
  8
0
 10
26.942276167334811
 20
69.999999999980943
 30
0.0
 11
31.442276167334811
 21
66.999999999980943
 31
0.0
1001
ACAD
1000
ASC_BOUNDS
1002
{
1070
    19
1002
}
  0
LINE
  5
1DB
  8
0
 10
29.642276167334831
 20
69.399999999980935
 30
0.0
 11
31.442276167334811
 21
68.199999999980946
 31
0.0
1001
ACAD
1000
ASC_BOUNDS
1002
{
1070
    19
1002
}
  0
LINE
  5
1DC
  8
0
 10
31.442276167334811
 20
66.999999999980943
 30
0.0
 11
31.442276167334811
 21
68.199999999980946
 31
0.0
1001
ACAD
1000
ASC_BOUNDS
1002
{
1070
    19
1002
}
  0
LINE
  5
1DD
  8
0
 10
32.587718635076762
 20
67.073205080737921
 30
0.0
 11
32.58771863507679
 21
68.39999999998102
 31
0.0
1001
ACAD
1000
ASC_BOUNDS
1002
{
1070
    19
1005
0
1002
}
  0
LINE
  5
1DE
  8
0
 10
35.185794846430113
 20
66.89999999998102
 30
0.0
 11
32.58771863507674
 21
68.399999999980992
 31
0.0
1001
ACAD
1000
ASC_BOUNDS
1002
{
1070
    19
1005
0
1002
}
  0
LINE
  5
1DF
  8
0
 10
33.985794846430089
 20
66.26602540376544
 30
0.0
 11
32.58771863507679
 21
67.073205080737949
 31
0.0
1001
ACAD
1000
ASC_BOUNDS
1002
{
1070
    19
1005
0
1002
}
  0
LINE
  5
1E0
  8
0
 10
35.185794846430113
 20
64.749999999980929
 30
0.0
 11
35.185794846430113
 21
66.899999999980992
 31
0.0
1001
ACAD
1000
ASC_BOUNDS
1002
{
1070
    19
1005
0
1002
}
  0
ARC
  5
1E1
  8
0
 10
98.259718664638285
 20
32.572437628879356
 30
0.0
 40
11.509718664638291
 50
145.61575270206171
 51
214.3842472979384
  0
LINE
  5
1E2
  8
0
 10
88.761106986721543
 20
26.0724376341655
 30
0.0
 11
93.499999999999844
 21
26.0724376341655
 31
0.0
  0
LINE
  5
1E3
  8
0
 10
93.499999999999915
 20
39.072437623574018
 30
0.0
 11
86.749999999999915
 21
39.072437623574011
 31
0.0
  0
LINE
  5
1E4
  8
0
 10
86.499999999999915
 20
38.822437623574011
 30
0.0
 11
86.749999999999915
 21
39.072437623574011
 31
0.0
  0
ARC
  5
1E5
  8
0
 10
91.756941877214317
 20
58.741669763483713
 30
0.0
 40
4.5069418772146781
 50
123.6264293420067
 51
213.62642918041959
  0
LINE
  5
1E6
  8
0
 10
86.999999999999986
 20
57.250000010591492
 30
0.0
 11
89.261106997303258
 21
54.988893013288269
 31
0.0
  0
LINE
  5
1E7
  8
0
 10
39.085794846430083
 20
75.249999999980986
 30
0.0
 11
39.085794846430083
 21
64.749999999980929
 31
0.0
1001
ACAD
1000
ASC_BOUNDS
1002
{
1070
    19
1005
0
1002
}
  0
LINE
  5
1E8
  8
0
 10
40.585794846430083
 20
63.24999999998095
 30
0.0
 11
40.585794846430083
 21
76.749999999980986
 31
0.0
1001
ACAD
1000
ASC_BOUNDS
1002
{
1070
    19
1005
0
1002
}
  0
LINE
  5
1E9
  8
1
 10
20.942276177907232
 20
70.000000000000057
 30
0.0
 11
51.94227615674329
 21
70.000000000000014
 31
0.0
  0
LINE
  5
1EA
  8
0
 10
23.442276177919052
 20
77.505553493340244
 30
0.0
 11
36.442276177907218
 21
85.011106992807186
 31
0.0
  0
TEXT
  5
1EB
  8
3
 10
43.524920670931792
 20
74.732499867804165
 30
0.0
 40
1.0
  1
E
 50
300.0
 41
1.8
  7
SIM180
 72
     1
 11
43.803492099503217
 21
74.249999999981412
 31
0.0
  0
TEXT
  5
1EC
  8
3
 10
44.519538753311373
 20
72.696723736872769
 30
0.0
 40
1.0
  1
L
 50
285.0
 41
1.8
  7
SIM180
 72
     1
 11
44.652645690792667
 21
72.199961883352671
 31
0.0
  0
LINE
  5
1ED
  8
0
 10
86.499999999999915
 20
101.1775623764259
 30
0.0
 11
86.499999999999915
 21
126.677562355262
 31
0.0
  0
LINE
  5
1EE
  8
0
 10
93.499999999999915
 20
100.9275623764259
 30
0.0
 11
93.499999999999915
 21
126.927562355262
 31
0.0
  0
ARC
  5
1EF
  8
0
 10
98.259718664638285
 20
107.4275623711206
 30
0.0
 40
11.509718664638291
 50
145.61575270206151
 51
214.38424729793829
  0
LINE
  5
1F0
  8
0
 10
36.442276167325247
 20
85.01110698668856
 30
0.0
 11
49.442276167325261
 21
77.505553487226052
 31
0.0
  0
LINE
  5
1F1
  8
0
 10
36.385794846430102
 20
70.599999999980952
 30
0.0
 11
36.385794846430102
 21
69.399999999980935
 31
0.0
1001
ACAD
1000
ASC_BOUNDS
1002
{
1070
    19
1002
}
  0
TEXT
  5
1F2
  8
3
 10
44.807937117854188
 20
68.379593612382791
 30
0.0
 40
1.0
  1
S
 50
255.0
 41
1.8
  7
SIM180
 72
     1
 11
44.652645690792667
 21
67.800038116609358
 31
0.0
  0
TEXT
  5
1F3
  8
3
 10
44.942276167335649
 20
70.557142857123878
 30
0.0
 40
1.0
  1
E
 50
270.0
 41
1.8
  7
SIM180
 72
     1
 11
44.942276167335649
 21
69.999999999981014
 31
0.0
  0
TEXT
  5
1F4
  8
3
 10
44.146349242360358
 20
66.343845991147091
 30
0.0
 40
1.0
  1
A
 50
240.0
 41
1.8
  7
SIM180
 72
     1
 11
43.803492099503217
 21
65.749999999980616
 31
0.0
  0
ARC
  5
1F5
  8
0
 10
91.756941877214317
 20
81.258330236516287
 30
0.0
 40
4.5069418772146781
 50
146.37357081958041
 51
236.37357065799341
  0
LINE
  5
1F6
  8
0
 10
86.999999999999986
 20
82.749999989408508
 30
0.0
 11
89.261106997303258
 21
85.011106986711724
 31
0.0
  0
LINE
  5
1F7
  8
0
 10
93.499999999999915
 20
100.9275623764259
 30
0.0
 11
86.749999999999915
 21
100.9275623764259
 31
0.0
  0
LINE
  5
1F8
  8
0
 10
86.499999999999915
 20
101.1775623764259
 30
0.0
 11
86.749999999999915
 21
100.9275623764259
 31
0.0
  0
ARC
  5
1F9
  8
0
 10
98.259718664638285
 20
120.42756236054829
 30
0.0
 40
11.509718664638291
 50
145.6157527020618
 51
214.38424729793849
  0
LINE
  5
1FA
  8
0
 10
88.761106986721543
 20
113.9275623658344
 30
0.0
 11
93.499999999999844
 21
113.9275623658344
 31
0.0
  0
LINE
  5
1FB
  8
0
 10
86.749999999999915
 20
126.927562355262
 30
0.0
 11
93.499999999999915
 21
126.927562355262
 31
0.0
  0
LINE
  5
1FC
  8
0
 10
86.499999999999915
 20
126.677562355262
 30
0.0
 11
86.749999999999915
 21
126.927562355262
 31
0.0
  0
LINE
  5
1FE
  8
0
 10
103.0
 20
59.522499999999951
 30
0.0
 11
103.0
 21
80.477499999999978
 31
0.0
  0
LINE
  5
1FF
  8
0
 10
93.999999999999986
 20
54.988893013288269
 30
0.0
 11
93.999999999999986
 21
85.011106986711724
 31
0.0
  0
LINE
  5
200
  8
0
 10
105.0
 20
60.684499999999929
 30
0.0
 11
105.0
 21
79.315499999999957
 31
0.0
  0
LINE
  5
201
  8
0
 10
95.499999999999986
 20
57.000000000000021
 30
0.0
 11
95.499999999999986
 21
83.000000000000014
 31
0.0
  0
CIRCLE
  5
202
  8
0
 10
153.8493420233053
 20
70.000000000000028
 30
0.0
 40
12.99999999999995
  0
CIRCLE
  5
203
  8
3
 10
153.8493420233053
 20
69.999999999996263
 30
0.0
 40
9.3155000000000001
  0
CIRCLE
  5
204
  8
0
 10
153.8493420233053
 20
69.999999999996263
 30
0.0
 40
10.477499999999999
  0
LINE
  5
205
  8
0
 10
166.84934201271381
 20
77.505553493348216
 30
0.0
 11
166.84934201271381
 21
62.49444649441871
 31
0.0
  0
LINE
  5
206
  8
0
 10
140.84934203387769
 20
62.494446506636763
 30
0.0
 11
140.84934203387769
 21
77.505553505566255
 31
0.0
  0
LINE
  5
207
  8
1
 10
153.8493420233053
 20
87.897858332667496
 30
0.0
 11
153.8493420233053
 21
52.102141667337982
 31
0.0
  0
CIRCLE
  5
208
  8
0
 10
153.8493420233053
 20
69.999999999996263
 30
0.0
 40
6.25
  0
CIRCLE
  5
209
  8
0
 10
153.8493420233053
 20
69.999999999996263
 30
0.0
 40
5.5162910900386057
  0
LINE
  5
210
  8
0
 10
153.8493420232958
 20
54.988893013289918
 30
0.0
 11
140.84934202329569
 21
62.494446512752432
 31
0.0
  0
LINE
  5
211
  8
0
 10
103.0
 20
36.549937634165587
 30
0.0
 11
103.0
 21
15.594937634165531
 31
0.0
  0
LINE
  5
212
  8
0
 10
105.0
 20
35.387937634165581
 30
0.0
 11
105.0
 21
16.75693763416556
 31
0.0
  0
LINE
  5
213
  8
0
 10
94.999999999999915
 20
39.07243763416551
 30
0.0
 11
94.999999999999915
 21
13.072437634165491
 31
0.0
  0
LINE
  5
214
  8
0
 10
94.999999999999915
 20
15.594937634165561
 30
0.0
 11
103.0
 21
15.594937634165531
 31
0.0
  0
LINE
  5
215
  8
3
 10
94.999999999999915
 20
16.756937634165538
 30
0.0
 11
103.0
 21
16.75693763416556
 31
0.0
  0
LINE
  5
216
  8
0
 10
103.0
 20
16.75693763416545
 30
0.0
 11
105.0
 21
16.75693763416545
 31
0.0
  0
LINE
  5
21B
  8
3
 10
94.999999999999915
 20
35.387937634165553
 30
0.0
 11
103.0
 21
35.387937634165503
 31
0.0
  0
LINE
  5
21C
  8
0
 10
94.999999999999915
 20
36.549937634165587
 30
0.0
 11
103.0
 21
36.549937634165587
 31
0.0
  0
LINE
  5
21D
  8
0
 10
103.0
 20
35.387937634165581
 30
0.0
 11
105.0
 21
35.387937634165581
 31
0.0
  0
LINE
  5
21E
  8
0
 10
95.499999999999986
 20
57.000000000000092
 30
0.0
 11
93.999999999999986
 21
57.000000000000021
 31
0.0
  0
LINE
  5
21F
  8
3
 10
95.499999999999929
 20
60.684499999999979
 30
0.0
 11
103.0
 21
60.684500000000043
 31
0.0
  0
LINE
  5
220
  8
0
 10
95.499999999999929
 20
59.522499999999951
 30
0.0
 11
103.0
 21
59.522499999999951
 31
0.0
  0
LINE
  5
221
  8
0
 10
103.0
 20
60.684499999999929
 30
0.0
 11
105.0
 21
60.684499999999929
 31
0.0
  0
LINE
  5
223
  8
0
 10
166.84934201271381
 20
62.494446506638219
 30
0.0
 11
153.84934201271381
 21
54.988893007171292
 31
0.0
  0
LINE
  5
224
  8
0
 10
140.84934203388951
 20
77.505553493355606
 30
0.0
 11
153.84934203387769
 21
85.011106992822548
 31
0.0
  0
LINE
  5
225
  8
1
 10
169.34934201271381
 20
69.999999992716184
 30
0.0
 11
138.3493420338778
 21
70.000000007283859
 31
0.0
  0
LINE
  5
226
  8
0
 10
94.999999999999915
 20
100.9275623658344
 30
0.0
 11
94.999999999999915
 21
126.9275623658344
 31
0.0
  0
LINE
  5
227
  8
0
 10
105.0
 20
104.6120623658343
 30
0.0
 11
105.0
 21
123.24306236583431
 31
0.0
  0
LINE
  5
228
  8
0
 10
103.0
 20
103.4500623658343
 30
0.0
 11
103.0
 21
124.4050623658344
 31
0.0
  0
LINE
  5
229
  8
3
 10
95.499999999999929
 20
79.315500000000014
 30
0.0
 11
103.0
 21
79.315499999999957
 31
0.0
  0
LINE
  5
22A
  8
0
 10
103.0
 20
79.315500000000071
 30
0.0
 11
105.0
 21
79.315500000000071
 31
0.0
  0
LINE
  5
22B
  8
0
 10
95.499999999999929
 20
80.477499999999978
 30
0.0
 11
103.0
 21
80.477499999999978
 31
0.0
  0
LINE
  5
22C
  8
0
 10
95.499999999999986
 20
82.999999999999972
 30
0.0
 11
93.999999999999986
 21
82.999999999999972
 31
0.0
  0
LINE
  5
22D
  8
0
 10
94.999999999999915
 20
103.4500623658343
 30
0.0
 11
103.0
 21
103.4500623658343
 31
0.0
  0
LINE
  5
22E
  8
3
 10
94.999999999999915
 20
104.6120623658344
 30
0.0
 11
103.0
 21
104.6120623658344
 31
0.0
  0
LINE
  5
22F
  8
0
 10
103.0
 20
104.6120623658343
 30
0.0
 11
105.0
 21
104.6120623658343
 31
0.0
  0
LINE
  5
230
  8
3
 10
94.999999999999915
 20
123.2430623658344
 30
0.0
 11
103.0
 21
123.24306236583431
 31
0.0
  0
LINE
  5
231
  8
0
 10
103.0
 20
123.2430623658345
 30
0.0
 11
105.0
 21
123.2430623658345
 31
0.0
  0
LINE
  5
232
  8
0
 10
94.999999999999915
 20
124.4050623658344
 30
0.0
 11
103.0
 21
124.4050623658344
 31
0.0
  0
LINE
  5
233
  8
0
 10
153.8493420232958
 20
85.011106986703936
 30
0.0
 11
166.84934202329569
 21
77.505553487241414
 31
0.0
  0
TEXT
  5
37A
  8
0
 62
     3
 10
0.0
 20
0.0
 30
0.0
 40
10.0
  1
PN-1/2D
  7
STANDARD1
  0
ENDSEC
  0
EOF
