  0
SECTION
  2
HEADER
  9
$ACADVER
  1
AC1009
  9
$INSBASE
 10
0.0
 20
0.0
 30
0.0
  9
$EXTMIN
 10
0.0
 20
-2.960436562073669
 30
0.0
  9
$EXTMAX
 10
247.99999922514991
 20
269.76802457102292
 30
0.0
  9
$LIMMIN
 10
0.0
 20
0.0
  9
$LIMMAX
 10
187.5
 20
135.0
  9
$ORTHOMODE
 70
     0
  9
$REGENMODE
 70
     1
  9
$FILLMODE
 70
     1
  9
$QTEXTMODE
 70
     0
  9
$MIRRTEXT
 70
     0
  9
$DRAGMODE
 70
     2
  9
$LTSCALE
 40
5.0
  9
$OSMODE
 70
    37
  9
$ATTMODE
 70
     1
  9
$TEXTSIZE
 40
4.0
  9
$TRACEWID
 40
0.05
  9
$TEXTSTYLE
  7
STANDARD
  9
$CLAYER
  8
0
  9
$CELTYPE
  6
BYLAYER
  9
$CECOLOR
 62
   256
  9
$DIMSCALE
 40
1.0
  9
$DIMASZ
 40
3.0
  9
$DIMEXO
 40
2.0
  9
$DIMDLI
 40
0.38
  9
$DIMRND
 40
0.0
  9
$DIMDLE
 40
0.0
  9
$DIMEXE
 40
2.0
  9
$DIMTP
 40
0.0
  9
$DIMTM
 40
0.0
  9
$DIMTXT
 40
3.2000000000000002
  9
$DIMCEN
 40
0.0
  9
$DIMTSZ
 40
0.0
  9
$DIMTOL
 70
     0
  9
$DIMLIM
 70
     0
  9
$DIMTIH
 70
     0
  9
$DIMTOH
 70
     0
  9
$DIMSE1
 70
     0
  9
$DIMSE2
 70
     0
  9
$DIMTAD
 70
     1
  9
$DIMZIN
 70
     8
  9
$DIMBLK
  1

  9
$DIMASO
 70
     0
  9
$DIMSHO
 70
     0
  9
$DIMPOST
  1

  9
$DIMAPOST
  1

  9
$DIMALT
 70
     0
  9
$DIMALTD
 70
     2
  9
$DIMALTF
 40
25.399999999999999
  9
$DIMLFAC
 40
1.0
  9
$DIMTOFL
 70
     1
  9
$DIMTVP
 40
1.6000000000000001
  9
$DIMTIX
 70
     0
  9
$DIMSOXD
 70
     0
  9
$DIMSAH
 70
     0
  9
$DIMBLK1
  1

  9
$DIMBLK2
  1

  9
$DIMSTYLE
  2
STANDARD
  9
$DIMCLRD
 70
     4
  9
$DIMCLRE
 70
     4
  9
$DIMCLRT
 70
     4
  9
$DIMTFAC
 40
1.0
  9
$DIMGAP
 40
0.5
  9
$LUNITS
 70
     2
  9
$LUPREC
 70
     1
  9
$SKETCHINC
 40
0.1
  9
$FILLETRAD
 40
0.0
  9
$AUNITS
 70
     0
  9
$AUPREC
 70
     1
  9
$MENU
  1
E:\r13\win\SUPPORT\ACAD
  9
$ELEVATION
 40
0.0
  9
$PELEVATION
 40
0.0
  9
$THICKNESS
 40
0.0
  9
$LIMCHECK
 70
     0
  9
$BLIPMODE
 70
     0
  9
$CHAMFERA
 40
1.1999999999999991
  9
$CHAMFERB
 40
1.1999999999999991
  9
$SKPOLY
 70
     0
  9
$TDCREATE
 40
2449933.4048958332
  9
$TDUPDATE
 40
2459002.702896297
  9
$TDINDWG
 40
0.8948465972
  9
$TDUSRTIMER
 40
0.8948465972
  9
$USRTIMER
 70
     1
  9
$ANGBASE
 50
0.0
  9
$ANGDIR
 70
     0
  9
$PDMODE
 70
     0
  9
$PDSIZE
 40
0.0
  9
$PLINEWID
 40
0.0
  9
$COORDS
 70
     1
  9
$SPLFRAME
 70
     0
  9
$SPLINETYPE
 70
     6
  9
$SPLINESEGS
 70
     8
  9
$ATTDIA
 70
     0
  9
$ATTREQ
 70
     1
  9
$HANDLING
 70
     1
  9
$HANDSEED
  5
A38B
  9
$SURFTAB1
 70
     6
  9
$SURFTAB2
 70
     6
  9
$SURFTYPE
 70
     6
  9
$SURFU
 70
     6
  9
$SURFV
 70
     6
  9
$UCSNAME
  2

  9
$UCSORG
 10
0.0
 20
0.0
 30
0.0
  9
$UCSXDIR
 10
1.0
 20
0.0
 30
0.0
  9
$UCSYDIR
 10
0.0
 20
1.0
 30
0.0
  9
$PUCSNAME
  2

  9
$PUCSORG
 10
0.0
 20
0.0
 30
0.0
  9
$PUCSXDIR
 10
1.0
 20
0.0
 30
0.0
  9
$PUCSYDIR
 10
0.0
 20
1.0
 30
0.0
  9
$USERI1
 70
     0
  9
$USERI2
 70
     1
  9
$USERI3
 70
     0
  9
$USERI4
 70
     0
  9
$USERI5
 70
     0
  9
$USERR1
 40
0.0
  9
$USERR2
 40
0.0
  9
$USERR3
 40
0.0
  9
$USERR4
 40
0.0
  9
$USERR5
 40
0.0
  9
$WORLDVIEW
 70
     1
  9
$SHADEDGE
 70
     3
  9
$SHADEDIF
 70
    70
  9
$TILEMODE
 70
     1
  9
$MAXACTVP
 70
    16
  9
$PLIMCHECK
 70
     0
  9
$PEXTMIN
 10
1.0000000000000000E+020
 20
1.0000000000000000E+020
 30
1.0000000000000000E+020
  9
$PEXTMAX
 10
-1.0000000000000000E+020
 20
-1.0000000000000000E+020
 30
-1.0000000000000000E+020
  9
$PLIMMIN
 10
0.0
 20
0.0
  9
$PLIMMAX
 10
12.0
 20
9.0
  9
$UNITMODE
 70
     0
  9
$VISRETAIN
 70
     0
  9
$PLINEGEN
 70
     0
  9
$PSLTSCALE
 70
     0
  0
ENDSEC
  0
SECTION
  2
TABLES
  0
TABLE
  2
VPORT
 70
     1
  0
VPORT
  2
*ACTIVE
 70
     0
 10
0.0
 20
0.0
 11
1.0
 21
1.0
 12
260.63698317617718
 22
133.40950621420711
 13
0.0
 23
0.0
 14
5.0
 24
5.0
 15
5.0
 25
5.0
 16
0.0
 26
0.0
 36
1.0
 17
0.0
 27
0.0
 37
0.0
 40
275.12666096408969
 41
2.415644171779141
 42
50.0
 43
0.0
 44
0.0
 50
0.0
 51
0.0
 71
     0
 72
   500
 73
     1
 74
     0
 75
     0
 76
     0
 77
     0
 78
     2
  0
ENDTAB
  0
TABLE
  2
LTYPE
 70
     5
  0
LTYPE
  2
CONTINUOUS
 70
     0
  3
Solid Line
 72
    65
 73
     0
 40
0.0
  0
LTYPE
  2
CENTER
 70
     0
  3
____ _ ____ _ ____ _ ____ _ ____ _ ____ _ ____
 72
    65
 73
     4
 40
2.0
 49
1.25
 49
-0.25
 49
0.25
 49
-0.25
  0
LTYPE
  2
PHANTOM2
 70
     0
  3
___ _ _ ___ _ _ ___ _ _ ___ _ _
 72
    65
 73
     6
 40
1.25
 49
0.625
 49
-0.125
 49
0.125
 49
-0.125
 49
0.125
 49
-0.125
  0
LTYPE
  2
HIDDEN
 70
     0
  3
Hidden __ __ __ __ __ __ __ __ __ __ __ __ __ __
 72
    65
 73
     2
 40
1.905
 49
1.27
 49
-0.635
  0
LTYPE
  2
PHANTOM
 70
     0
  3
_____ _ _ _____ _ _ _____ _ _ _____ _ _ ____
 72
    65
 73
     6
 40
2.5
 49
1.25
 49
-0.25
 49
0.25
 49
-0.25
 49
0.25
 49
-0.25
  0
ENDTAB
  0
TABLE
  2
LAYER
 70
     6
  0
LAYER
  2
0
 70
     0
 62
     7
  6
CONTINUOUS
  0
LAYER
  2
1
 70
     0
 62
     1
  6
CENTER
  0
LAYER
  2
DEFPOINTS
 70
     0
 62
     7
  6
CONTINUOUS
  0
LAYER
  2
3
 70
     0
 62
     3
  6
CONTINUOUS
  0
LAYER
  2
2
 70
     0
 62
     2
  6
HIDDEN
  0
LAYER
  2
5
 70
     0
 62
     3
  6
PHANTOM
  0
ENDTAB
  0
TABLE
  2
STYLE
 70
     2
  0
STYLE
  2
STANDARD
 70
     0
 40
0.0
 41
1.0
 50
0.0
 71
     0
 42
4.0
  3
SIMPLEX
  4
BIGFONT
  0
STYLE
  2
STANDARD1
 70
     0
 40
0.0
 41
1.0
 50
0.0
 71
     0
 42
3.0
  3
txt
  4

  0
ENDTAB
  0
TABLE
  2
VIEW
 70
     2
  0
VIEW
  2
ALL
 70
     0
 40
175.0
 10
143.1020066889632
 20
87.5
 41
286.2040133779264
 11
0.0
 21
0.0
 31
1.0
 12
0.0
 22
0.0
 32
0.0
 42
50.0
 43
0.0
 44
0.0
 50
0.0
 71
     0
  0
VIEW
  2
OLE1
 70
     0
 40
43.006246962410721
 10
135.14159993249649
 20
772.38637856260084
 41
54.07096098672028
 11
0.0
 21
0.0
 31
1.0
 12
0.0
 22
0.0
 32
0.0
 42
50.0
 43
0.0
 44
0.0
 50
0.0
 71
     0
  0
ENDTAB
  0
TABLE
  2
UCS
 70
     0
  0
ENDTAB
  0
TABLE
  2
APPID
 70
     7
  0
APPID
  2
ACAD
 70
     0
  0
APPID
  2
ACAD_DSTYLE_DIMJAG
 70
     0
  0
APPID
  2
ACAD_DSTYLE_DIMTALN
 70
     0
  0
APPID
  2
ACAD_EXEMPT_FROM_CAD_STANDARDS
 70
     0
  0
APPID
  2
ACAD_DSTYLE_DIMRADIAL_EXTENSION
 70
     0
  0
APPID
  2
ACAD_MLEADERVER
 70
     0
  0
APPID
  2
ACAD_NAV_VCDISPLAY
 70
     0
  0
ENDTAB
  0
TABLE
  2
DIMSTYLE
 70
     1
  0
DIMSTYLE
  2
STANDARD
 70
     0
  3

  4

  5

  6

  7

 40
1.0
 41
0.18
 42
0.0625
 43
0.38
 44
0.18
 45
0.0
 46
0.0
 47
0.0
 48
0.0
140
0.18
141
0.09
142
0.0
143
25.399999999999999
144
1.0
145
0.0
146
1.0
147
0.09
 71
     0
 72
     0
 73
     1
 74
     1
 75
     0
 76
     0
 77
     0
 78
     0
170
     0
171
     2
172
     0
173
     0
174
     0
175
     0
176
     0
177
     0
178
     0
  0
ENDTAB
  0
ENDSEC
  0
SECTION
  2
BLOCKS
  0
BLOCK
  8
0
  2
$MODEL_SPACE
 70
     0
 10
0.0
 20
0.0
 30
0.0
  3
$MODEL_SPACE
  1

  0
ENDBLK
  5
8A
  8
0
  0
BLOCK
 67
     1
  8
0
  2
$PAPER_SPACE
 70
     0
 10
0.0
 20
0.0
 30
0.0
  3
$PAPER_SPACE
  1

  0
ENDBLK
  5
88
 67
     1
  8
0
  0
ENDSEC
  0
SECTION
  2
ENTITIES
  0
TEXT
  5
4987
  8
0
 62
     3
 10
0.0
 20
0.0
 30
0.0
 40
10.0
  1
PIDHC20-SUS
  7
STANDARD1
  0
ARC
  5
950D
  8
0
 10
157.23523013560001
 20
198.80003600992279
 30
0.0
 40
0.7500142564276568
 50
269.63887936650377
 51
90.353827980293147
  0
ARC
  5
950E
  8
0
 10
142.76521941639999
 20
198.8000380679228
 30
0.0
 40
0.7500115351514913
 50
89.654473903705991
 51
270.29760803129778
  0
LINE
  5
9511
  8
0
 10
157.89999961859991
 20
193.11003721902279
 30
0.0
 11
156.7599997856
 21
194.2500356550228
 31
0.0
  0
LINE
  5
9512
  8
0
 10
143.24000021449999
 20
194.2500356550228
 30
0.0
 11
142.10000038149991
 21
193.11003721902279
 31
0.0
  0
LINE
  5
9513
  8
0
 10
157.89999961859991
 20
191.81003756472279
 30
0.0
 11
157.89999961859991
 21
193.11003721902279
 31
0.0
  0
LINE
  5
9514
  8
0
 10
142.10000038149991
 20
193.11003721902279
 30
0.0
 11
142.10000038149991
 21
191.81003756472279
 31
0.0
  0
LINE
  5
9515
  8
0
 10
142.0133976265999
 20
198.05003665042281
 30
0.0
 11
142.0133976265999
 21
194.2500356550228
 31
0.0
  0
LINE
  5
9516
  8
0
 10
142.0133976265999
 20
203.3500369603228
 30
0.0
 11
142.0133976265999
 21
199.55003596492281
 31
0.0
  0
LINE
  5
9517
  8
0
 10
157.98660237349989
 20
194.2500356550228
 30
0.0
 11
157.98660237349989
 21
198.05003665042281
 31
0.0
  0
LINE
  5
9518
  8
0
 10
157.98660237349989
 20
199.55003596492281
 30
0.0
 11
157.98660237349989
 21
203.3500369603228
 31
0.0
  0
LINE
  5
9519
  8
0
 10
142.10000038149991
 20
204.49003539632281
 30
0.0
 11
143.24000021449999
 21
203.3500369603228
 31
0.0
  0
LINE
  5
951A
  8
0
 10
156.7599997856
 20
203.3500369603228
 30
0.0
 11
157.89999961859991
 21
204.49003539632281
 31
0.0
  0
LINE
  5
951B
  8
0
 10
142.10000038149991
 20
205.4900374229228
 30
0.0
 11
142.10000038149991
 21
204.49003539632281
 31
0.0
  0
LINE
  5
951C
  8
0
 10
157.89999961859991
 20
204.49003539632281
 30
0.0
 11
157.89999961859991
 21
205.4900374229228
 31
0.0
  0
LINE
  5
951D
  8
0
 10
157.49999983239991
 20
207.1828577633228
 30
0.0
 11
156.45662425089989
 21
208.9900407905229
 31
0.0
  0
LINE
  5
951E
  8
0
 10
143.5433757491999
 20
208.9900407905229
 30
0.0
 11
142.50000016769991
 21
207.1828577633228
 31
0.0
  0
ARC
  5
951F
  8
0
 10
155.59059892329989
 20
208.4900371356228
 30
0.0
 40
1.000000000000032
 50
29.999999999997371
 51
90.0
  0
ARC
  5
9520
  8
0
 10
144.4094010767999
 20
208.4900371356228
 30
0.0
 40
1.0
 50
90.0
 51
150.00000000000259
  0
LINE
  5
9521
  8
0
 10
157.89999961859991
 20
186.01003624152281
 30
0.0
 11
157.89999961859991
 21
191.61003790452281
 31
0.0
  0
LINE
  5
9522
  8
0
 10
142.10000038149991
 20
191.61003790452281
 30
0.0
 11
142.10000038149991
 21
186.01003624152281
 31
0.0
  0
LINE
  5
9523
  8
0
 10
157.89999961859991
 20
191.61003790452281
 30
0.0
 11
157.69999995829991
 21
191.81003756472279
 31
0.0
  0
LINE
  5
9524
  8
0
 10
142.3000000417999
 20
191.81003756472279
 30
0.0
 11
142.10000038149991
 21
191.61003790452281
 31
0.0
  0
LINE
  5
9525
  8
0
 10
132.49999992549999
 20
186.01003624152281
 30
0.0
 11
132.00000077489989
 21
185.51003895352281
 31
0.0
  0
LINE
  5
9526
  8
0
 10
132.00000077489989
 20
185.51003895352281
 30
0.0
 11
132.00000077489989
 21
146.51003715932279
 31
0.0
  0
LINE
  5
9527
  8
0
 10
132.00000077489989
 20
146.51003715932279
 30
0.0
 11
132.49999992549999
 21
146.01003713562281
 31
0.0
  0
LINE
  5
952A
  8
0
 10
157.89999961859991
 20
193.11003721902279
 30
0.0
 11
142.10000038149991
 21
193.11003721902279
 31
0.0
  0
LINE
  5
952B
  8
0
 10
150.6866025505999
 20
195.9100361879228
 30
0.0
 11
149.31339744949989
 21
195.9100361879228
 31
0.0
  0
LINE
  5
952C
  8
0
 10
157.89999961859991
 20
191.81003756472279
 30
0.0
 11
142.10000038149991
 21
191.81003756472279
 31
0.0
  0
LINE
  5
952E
  8
0
 10
149.31339744949989
 20
198.05003665042281
 30
0.0
 11
149.31339744949989
 21
194.2500356550228
 31
0.0
  0
LINE
  5
952F
  8
0
 10
149.31339744949989
 20
194.2500356550228
 30
0.0
 11
142.0133976265999
 21
194.2500356550228
 31
0.0
  0
LINE
  5
9530
  8
0
 10
149.31339744949989
 20
203.3500369603228
 30
0.0
 11
142.0133976265999
 21
203.3500369603228
 31
0.0
  0
LINE
  5
9531
  8
0
 10
149.31339744949989
 20
203.3500369603228
 30
0.0
 11
149.31339744949989
 21
199.55003596492281
 31
0.0
  0
LINE
  5
9532
  8
0
 10
157.98660237350009
 20
199.55003596492281
 30
0.0
 11
142.0133976265999
 21
199.55003596492281
 31
0.0
  0
LINE
  5
9533
  8
0
 10
150.6866025505999
 20
198.05003665042281
 30
0.0
 11
150.6866025505999
 21
194.2500356550228
 31
0.0
  0
LINE
  5
9534
  8
0
 10
157.98660237349989
 20
198.05003665042281
 30
0.0
 11
142.0133976265999
 21
198.05003665042281
 31
0.0
  0
LINE
  5
9535
  8
0
 10
157.98660237349989
 20
194.2500356550228
 30
0.0
 11
150.6866025505999
 21
194.2500356550228
 31
0.0
  0
LINE
  5
9536
  8
0
 10
150.6866025505999
 20
203.3500369603228
 30
0.0
 11
150.6866025505999
 21
199.55003596492281
 31
0.0
  0
LINE
  5
9537
  8
0
 10
157.98660237349989
 20
203.3500369603228
 30
0.0
 11
150.6866025505999
 21
203.3500369603228
 31
0.0
  0
LINE
  5
9539
  8
0
 10
157.49999983239991
 20
206.7220877821228
 30
0.0
 11
157.49999983239991
 21
206.22208676882281
 31
0.0
  0
LINE
  5
953A
  8
0
 10
142.50000016769991
 20
206.22208676882281
 30
0.0
 11
142.50000016769991
 21
206.7220877821228
 31
0.0
  0
LINE
  5
953B
  8
0
 10
150.0
 20
200.59003643342291
 30
0.0
 11
150.6866025505999
 21
200.59003643342291
 31
0.0
  0
LINE
  5
953C
  8
0
 10
149.31339744949989
 20
200.59003643342291
 30
0.0
 11
150.0
 21
200.59003643342291
 31
0.0
  0
LINE
  5
953D
  8
0
 10
142.10000038149991
 20
204.49003539632281
 30
0.0
 11
157.89999961859991
 21
204.49003539632281
 31
0.0
  0
LINE
  5
953F
  8
0
 10
157.89999961859991
 20
205.4900374229228
 30
0.0
 11
157.49999983239991
 21
205.4900374229228
 31
0.0
  0
LINE
  5
9540
  8
0
 10
142.10000038149991
 20
205.4900374229228
 30
0.0
 11
142.50000016769991
 21
205.4900374229228
 31
0.0
  0
LINE
  5
9541
  8
0
 10
142.50000016769991
 20
205.4900374229228
 30
0.0
 11
142.50000016769991
 21
206.22208676882281
 31
0.0
  0
LINE
  5
9542
  8
0
 10
157.49999983239991
 20
205.4900374229228
 30
0.0
 11
157.49999983239991
 21
206.22208676882281
 31
0.0
  0
LINE
  5
9543
  8
0
 10
157.49999983239991
 20
206.7220877821228
 30
0.0
 11
157.49999983239991
 21
207.1828093345228
 31
0.0
  0
LINE
  5
9544
  8
0
 10
142.50000016769991
 20
206.7220877821228
 30
0.0
 11
142.50000016769991
 21
207.1828093345228
 31
0.0
  0
LINE
  5
9545
  8
0
 10
144.40940096979989
 20
209.4900343532228
 30
0.0
 11
155.5905990302999
 21
209.4900343532228
 31
0.0
  0
LINE
  5
954A
  8
0
 10
169.9999995529999
 20
156.01003691212281
 30
0.0
 11
169.9999995529999
 21
186.0100362415229
 31
0.0
  0
LINE
  5
9551
  8
0
 10
171.9999998808
 20
185.51003895352281
 30
0.0
 11
171.9999998808
 21
149.01003716172281
 31
0.0
  0
LINE
  5
9553
  8
0
 10
168.9999993890998
 20
146.01003713562281
 30
0.0
 11
132.49999992550011
 21
146.01003713562281
 31
0.0
  0
LINE
  5
9556
  8
0
 10
171.9999998808
 20
185.51003895352281
 30
0.0
 11
171.5000007301999
 21
186.01003624152281
 31
0.0
  0
ARC
  5
9557
  8
0
 10
164.5
 20
155.51003713562281
 30
0.0
 40
0.5
 50
90.0
 51
180.0
  0
LINE
  5
9558
  8
0
 10
132.49999992549999
 20
186.01003624152281
 30
0.0
 11
171.5000007301999
 21
186.0100362415229
 31
0.0
  0
LINE
  5
955A
  8
0
 10
171.9999998808
 20
156.01003691212281
 30
0.0
 11
164.4999995828
 21
156.01003691212281
 31
0.0
  0
LINE
  5
9560
  8
0
 10
164.0000004321999
 20
155.5100368301228
 30
0.0
 11
164.00000043220001
 21
146.01003713562281
 31
0.0
  0
LINE
  5
9566
  8
0
 10
171.9999998808
 20
149.01003716172281
 30
0.0
 11
168.99999938909991
 21
146.01003713562281
 31
0.0
  0
LINE
  5
956E
  8
0
 10
149.31339744949989
 20
240.84084321542281
 30
0.0
 11
150.6866025505999
 21
240.84084321542281
 31
0.0
  0
LINE
  5
956F
  8
0
 10
143.47815988589991
 20
253.32623188182291
 30
0.0
 11
142.79155768460001
 21
252.13700117342279
 31
0.0
  0
LINE
  5
9570
  8
0
 10
157.20844231549989
 20
252.13700117342279
 30
0.0
 11
156.5218401141999
 21
253.32623188182291
 31
0.0
  0
ARC
  5
9577
  8
0
 10
137.15019458499989
 20
242.38014613622281
 30
0.0
 40
2.5000000000000369
 50
106.3997932589027
 51
154.0828252019063
  0
LINE
  5
9578
  8
0
 10
136.44434940069991
 20
244.7784336170229
 30
0.0
 11
136.55922990289989
 21
244.8122443517228
 31
0.0
  0
ARC
  5
9579
  8
0
 10
137.2933088492999
 20
242.3180253459229
 30
0.0
 40
2.6000000000000152
 50
330.22382109460722
 51
106.3997932589027
  0
ARC
  5
957A
  8
0
 10
141.80676330779991
 20
239.7356371391229
 30
0.0
 40
2.6000000000000201
 50
150.22382403160441
 51
230.9848590693976
  0
ARC
  5
957B
  8
0
 10
149.12499999999989
 20
248.76802534592289
 30
0.0
 40
14.22500000000003
 50
230.9848590693054
 51
129.0151399702961
  0
ARC
  5
957C
  8
0
 10
141.80676330779991
 20
257.8004135526229
 30
0.0
 40
2.599999999999965
 50
129.01513567660459
 51
209.77617743689399
  0
ARC
  5
957D
  8
0
 10
137.2933088492999
 20
255.21802534592291
 30
0.0
 40
2.600000000000009
 50
253.60020674109731
 51
29.776177436894049
  0
LINE
  5
957E
  8
0
 10
136.55922990289989
 20
252.72380634002289
 30
0.0
 11
136.44434940069991
 21
252.75761707482289
 31
0.0
  0
ARC
  5
957F
  8
0
 10
137.15019458499989
 20
255.1559045556229
 30
0.0
 40
2.5000000000000608
 50
205.91717479809361
 51
253.60020674109731
  0
ARC
  5
9580
  8
0
 10
137.2933088492999
 20
255.21802534592291
 30
0.0
 40
1.25
 50
90.0
 51
270.0
  0
ARC
  5
9581
  8
0
 10
137.2933088492999
 20
255.21802534592291
 30
0.0
 40
1.25
 50
270.0
 51
90.0
  0
ARC
  5
9582
  8
0
 10
137.2933088492999
 20
242.3180253459229
 30
0.0
 40
1.2500000000000571
 50
90.0
 51
270.0
  0
ARC
  5
9583
  8
0
 10
137.2933088492999
 20
242.3180253459229
 30
0.0
 40
1.2500000000000571
 50
270.0
 51
90.0
  0
LINE
  5
9584
  8
0
 10
142.79155768460001
 20
252.13700117342279
 30
0.0
 11
142.8409866989
 21
252.10846335422281
 31
0.0
  0
LINE
  5
9585
  8
0
 10
149.31339744949989
 20
240.89791838802279
 30
0.0
 11
149.31339744949989
 21
240.84084321542281
 31
0.0
  0
ARC
  5
9586
  8
0
 10
149.91339745969989
 20
248.71802534592291
 30
0.0
 40
7.9000000000000279
 50
154.3557726269986
 51
265.64422737300282
  0
LINE
  5
9587
  8
0
 10
156.5218401141999
 20
253.32623188182291
 30
0.0
 11
156.4724110999
 21
253.29769382982289
 31
0.0
  0
LINE
  5
9588
  8
0
 10
143.5275889001999
 20
253.29769382982289
 30
0.0
 11
143.47815988589991
 21
253.32623188182291
 31
0.0
  0
ARC
  5
9589
  8
0
 10
150.0
 20
248.8680253459228
 30
0.0
 40
7.9000000000000137
 50
34.355772627001137
 51
145.64422737299881
  0
LINE
  5
958A
  8
0
 10
150.6866025505999
 20
240.84084321542281
 30
0.0
 11
150.6866025505999
 21
240.89791838802279
 31
0.0
  0
LINE
  5
958B
  8
0
 10
157.15901330119999
 20
252.10846335422281
 30
0.0
 11
157.20844231549989
 21
252.13700117342279
 31
0.0
  0
ARC
  5
958C
  8
0
 10
150.08660254040001
 20
248.71802534592291
 30
0.0
 40
7.9000000000000501
 50
274.35577262699718
 51
25.644227373001421
  0
LINE
  5
958D
  8
0
 10
157.49999983239991
 20
246.75279579852281
 30
0.0
 11
157.49999983239991
 21
250.78325489332281
 31
0.0
  0
LINE
  5
958E
  8
0
 10
142.50000016769991
 20
246.75279579852281
 30
0.0
 11
142.50000016769991
 21
250.78325489332281
 31
0.0
  0
LINE
  5
9590
  8
0
 10
142.50000016769991
 20
246.28609073142289
 30
0.0
 11
142.50000016769991
 21
246.75279579852281
 31
0.0
  0
LINE
  5
9591
  8
0
 10
157.49999983239991
 20
246.75279579852281
 30
0.0
 11
157.49999983239991
 21
246.28609073142289
 31
0.0
  0
LINE
  5
9593
  8
0
 10
142.50000016769991
 20
250.78325489332281
 30
0.0
 11
142.50000016769991
 21
251.24995996042281
 31
0.0
  0
LINE
  5
9594
  8
0
 10
157.49999983239991
 20
251.24995996042281
 30
0.0
 11
157.49999983239991
 21
250.78325489332281
 31
0.0
  0
CIRCLE
  5
9599
  8
0
 10
150.0
 20
248.76802534592289
 30
0.0
 40
16.0
  0
CIRCLE
  5
959A
  8
0
 10
150.0
 20
248.76802534592289
 30
0.0
 40
17.0
  0
ARC
  5
959C
  8
0
 10
150.0
 20
248.76802534592289
 30
0.0
 40
18.0
 50
90.0
 51
270.0
  0
CIRCLE
  5
95A4
  8
0
 10
168.0
 20
262.76802534592281
 30
0.0
 40
2.1000000000000232
  0
LINE
  5
95A5
  8
0
 10
150.0
 20
266.76802457102292
 30
0.0
 11
169.9999995529999
 21
266.76802457102292
 31
0.0
  0
LINE
  5
95A7
  8
0
 10
169.9999995529999
 20
266.76802457102292
 30
0.0
 11
171.9999998808
 21
264.76802610592279
 31
0.0
  0
LINE
  5
95A9
  8
0
 10
171.9999998808
 20
264.76802610592279
 30
0.0
 11
171.9999998808
 21
232.7680245859228
 31
0.0
  0
CIRCLE
  5
95AB
  8
0
 10
168.0
 20
234.76802534592289
 30
0.0
 40
2.099999999999965
  0
LINE
  5
95AC
  8
0
 10
171.9999998808
 20
232.7680245859228
 30
0.0
 11
169.9999995529999
 21
230.76802612082281
 31
0.0
  0
LINE
  5
95AE
  8
0
 10
169.9999995529999
 20
230.76802612082281
 30
0.0
 11
150.0
 21
230.76802612082281
 31
0.0
  0
ARC
  5
95B1
  8
0
 10
150.0
 20
100.00000000002279
 30
0.0
 40
18.0
 50
90.0
 51
270.0
  0
LINE
  5
95B6
  8
0
 10
169.99999955300001
 20
82.000000774822823
 30
0.0
 11
150.0
 21
82.000000774822823
 31
0.0
  0
LINE
  5
95BC
  8
0
 10
168.99999938909991
 20
90.000000223522804
 30
0.0
 11
168.99999938909991
 21
109.9999997765228
 31
0.0
  0
LINE
  5
95BF
  8
0
 10
164.0000004321999
 20
85.999999567822826
 30
0.0
 11
164.0000004321999
 21
82.000000774822837
 31
0.0
  0
ARC
  5
95C0
  8
0
 10
168.0
 20
86.000000000022837
 30
0.0
 40
4.0
 50
90.0
 51
180.0
  0
LINE
  5
95C1
  8
0
 10
171.9999998808
 20
90.000000223522804
 30
0.0
 11
167.9999992251999
 21
90.000000223522832
 31
0.0
  0
LINE
  5
95C8
  8
0
 10
167.9999992251999
 20
109.9999997765228
 30
0.0
 11
171.9999998808
 21
109.9999997765228
 31
0.0
  0
ARC
  5
95CC
  8
0
 10
168.0
 20
114.00000000002279
 30
0.0
 40
4.0
 50
180.0
 51
270.0
  0
LINE
  5
95CE
  8
0
 10
164.0000004321999
 20
117.99999922512281
 30
0.0
 11
164.0000004321999
 21
114.0000004321228
 31
0.0
  0
LINE
  5
95D1
  8
0
 10
150.0
 20
117.99999922512281
 30
0.0
 11
169.99999955299981
 21
117.99999922512281
 31
0.0
  0
LINE
  5
95DF
  8
0
 10
171.9999998808
 20
83.999999240022831
 30
0.0
 11
169.9999995529999
 21
82.000000774822823
 31
0.0
  0
CIRCLE
  5
95E1
  8
0
 10
168.0
 20
86.000000000022837
 30
0.0
 40
2.099999999999993
  0
CIRCLE
  5
95E6
  8
0
 10
168.0
 20
114.00000000002279
 30
0.0
 40
2.099999999999993
  0
LINE
  5
95E8
  8
0
 10
171.9999998808
 20
116.0000007599228
 30
0.0
 11
171.9999998808
 21
83.999999240022703
 31
0.0
  0
LINE
  5
95EA
  8
0
 10
169.9999995529999
 20
117.99999922512281
 30
0.0
 11
171.9999998808
 21
116.0000007599228
 31
0.0
  0
LINE
  5
95EE
  8
0
 10
77.899999618500033
 20
191.81003756472279
 30
0.0
 11
77.899999618500033
 21
193.11003721902279
 31
0.0
  0
LINE
  5
95EF
  8
0
 10
62.100000381500081
 20
193.11003721902279
 30
0.0
 11
62.100000381500081
 21
191.81003756472279
 31
0.0
  0
LINE
  5
95F0
  8
0
 10
77.899999618500033
 20
193.11003721902279
 30
0.0
 11
76.75999978560003
 21
194.2500356550228
 31
0.0
  0
LINE
  5
95F1
  8
0
 10
63.240000214400077
 20
194.2500356550228
 30
0.0
 11
62.100000381500081
 21
193.11003721902279
 31
0.0
  0
LINE
  5
95F2
  8
0
 10
61.99999962000004
 20
198.05003665042281
 30
0.0
 11
61.99999962000004
 21
194.2500356550228
 31
0.0
  0
LINE
  5
95F3
  8
0
 10
61.99999962000004
 20
203.3500369603228
 30
0.0
 11
61.99999962000004
 21
199.55003596492281
 31
0.0
  0
LINE
  5
95F4
  8
0
 10
62.100000381500081
 20
204.49003539632281
 30
0.0
 11
63.240000214400077
 21
203.3500369603228
 31
0.0
  0
LINE
  5
95F5
  8
0
 10
76.75999978560003
 20
203.3500369603228
 30
0.0
 11
77.899999618500033
 21
204.49003539632281
 31
0.0
  0
LINE
  5
95F6
  8
0
 10
62.100000381500081
 20
206.22208676882281
 30
0.0
 11
62.100000381500081
 21
204.49003539632281
 31
0.0
  0
LINE
  5
95F7
  8
0
 10
77.899999618500033
 20
204.49003539632281
 30
0.0
 11
77.899999618500033
 21
206.22208676882281
 31
0.0
  0
ARC
  5
95F8
  8
0
 10
63.100000000000023
 20
206.2220879431228
 30
0.0
 40
1.0000000000000071
 50
150.00000000000259
 51
180.0
  0
LINE
  5
95F9
  8
0
 10
77.76602560660001
 20
206.7220877821228
 30
0.0
 11
76.456624250900063
 21
208.9900407905229
 31
0.0
  0
LINE
  5
95FA
  8
0
 10
63.543375749200088
 20
208.9900407905229
 30
0.0
 11
62.233974393500027
 21
206.7220877821228
 31
0.0
  0
ARC
  5
95FB
  8
0
 10
76.900000000000091
 20
206.2220879431228
 30
0.0
 40
1.0000000000000071
 50
0.0
 51
29.999999999997371
  0
ARC
  5
95FC
  8
0
 10
75.590598923300035
 20
208.4900371356228
 30
0.0
 40
1.0
 50
29.999999999997371
 51
90.0
  0
ARC
  5
95FD
  8
0
 10
64.409401076800009
 20
208.4900371356228
 30
0.0
 40
1.0000000000000071
 50
90.0
 51
150.00000000000259
  0
LINE
  5
95FE
  8
0
 10
77.899999618500033
 20
186.01003624152281
 30
0.0
 11
77.899999618500033
 21
191.61003790452281
 31
0.0
  0
LINE
  5
95FF
  8
0
 10
62.100000381500081
 20
191.61003790452281
 30
0.0
 11
62.100000381500081
 21
186.01003624152281
 31
0.0
  0
LINE
  5
9600
  8
0
 10
77.899999618500033
 20
191.61003790452281
 30
0.0
 11
77.699999958300054
 21
191.81003756472279
 31
0.0
  0
LINE
  5
9601
  8
0
 10
62.300000041700059
 20
191.81003756472279
 30
0.0
 11
62.100000381500081
 21
191.61003790452281
 31
0.0
  0
ARC
  5
9602
  8
0
 10
77.177181335
 20
198.80003630772279
 30
0.0
 40
0.7499996572735942
 50
270.00005138419539
 51
89.999948615804541
  0
ARC
  5
9605
  8
0
 10
62.750000000000107
 20
198.8000371356228
 30
0.0
 40
0.7500000000000399
 50
89.970158964803588
 51
270.15156414899258
  0
LINE
  5
9606
  8
0
 10
77.899999618500033
 20
191.81003756472279
 30
0.0
 11
62.100000381500081
 21
191.81003756472279
 31
0.0
  0
LINE
  5
9607
  8
0
 10
77.899999618500033
 20
193.11003721902279
 30
0.0
 11
62.100000381500081
 21
193.11003721902279
 31
0.0
  0
LINE
  5
9608
  8
0
 10
66.631024172500005
 20
198.05003665042281
 30
0.0
 11
66.631024172500005
 21
194.2500356550228
 31
0.0
  0
LINE
  5
960A
  8
0
 10
77.9271821305
 20
198.05003665042281
 30
0.0
 11
77.9271821305
 21
194.2500356550228
 31
0.0
  0
LINE
  5
960B
  8
0
 10
77.9271821305
 20
194.2500356550228
 30
0.0
 11
66.631024172500005
 21
194.2500356550228
 31
0.0
  0
LINE
  5
960C
  8
0
 10
66.631024172500005
 20
203.3500369603228
 30
0.0
 11
66.631024172500005
 21
199.55003596492281
 31
0.0
  0
LINE
  5
960D
  8
0
 10
77.9271821305
 20
203.3500369603228
 30
0.0
 11
66.631024172500005
 21
203.3500369603228
 31
0.0
  0
LINE
  5
960E
  8
0
 10
77.9271821305
 20
203.3500369603228
 30
0.0
 11
77.9271821305
 21
199.55003596492281
 31
0.0
  0
LINE
  5
9610
  8
0
 10
77.927182130500114
 20
198.05003665042281
 30
0.0
 11
61.99999962000004
 21
198.05003665042281
 31
0.0
  0
LINE
  5
9611
  8
0
 10
65.441793464099987
 20
198.05003665042281
 30
0.0
 11
65.441793464099987
 21
194.2500356550228
 31
0.0
  0
LINE
  5
9612
  8
0
 10
66.043844614199884
 20
194.2500356550228
 30
0.0
 11
61.99999962000004
 21
194.2500356550228
 31
0.0
  0
LINE
  5
9613
  8
0
 10
65.441793464099987
 20
203.3500369603228
 30
0.0
 11
65.441793464099987
 21
199.55003596492281
 31
0.0
  0
LINE
  5
9614
  8
0
 10
77.927182130500114
 20
199.55003596492281
 30
0.0
 11
61.99999962000004
 21
199.55003596492281
 31
0.0
  0
LINE
  5
9615
  8
0
 10
66.043844614200225
 20
203.3500369603228
 30
0.0
 11
61.99999962000004
 21
203.3500369603228
 31
0.0
  0
LINE
  5
9616
  8
0
 10
66.043844614200111
 20
203.3500369603228
 30
0.0
 11
66.631024172500005
 21
202.1831307525228
 31
0.0
  0
LINE
  5
9617
  8
0
 10
66.631024172500005
 20
195.41694558812279
 30
0.0
 11
66.043844614200111
 21
194.2500356550228
 31
0.0
  0
LINE
  5
961C
  8
0
 10
62.100000381500081
 20
204.49003539632281
 30
0.0
 11
77.899999618500033
 21
204.49003539632281
 31
0.0
  0
LINE
  5
961D
  8
0
 10
67.518065385500108
 20
206.22208676882281
 30
0.0
 11
67.518065385500108
 21
205.4900374229228
 31
0.0
  0
LINE
  5
961E
  8
0
 10
67.518065385500108
 20
205.4900374229228
 30
0.0
 11
72.481934614500119
 21
205.4900374229228
 31
0.0
  0
LINE
  5
961F
  8
0
 10
72.481934614500119
 20
205.4900374229228
 30
0.0
 11
72.481934614500119
 21
206.22208676882281
 31
0.0
  0
ARC
  5
9620
  8
0
 10
68.126176001600015
 20
206.1222849923229
 30
0.0
 40
0.6162458243382419
 50
103.2654520236006
 51
170.67982853980081
  0
ARC
  5
9621
  8
0
 10
70.000000000000114
 20
202.4273374225229
 30
0.0
 40
4.7440521476734832
 50
64.862579675198816
 51
115.1374203248012
  0
ARC
  5
9622
  8
0
 10
71.855199661700112
 20
206.10490088292289
 30
0.0
 40
0.6375964498878112
 50
10.59078092569934
 51
75.463938510996257
  0
LINE
  5
9623
  8
0
 10
64.409400969800004
 20
209.4900343532228
 30
0.0
 11
75.590599030300041
 21
209.4900343532228
 31
0.0
  0
LINE
  5
9625
  8
0
 10
87.500000074500008
 20
146.01003713562281
 30
0.0
 11
52.499999925499992
 21
146.01003713562281
 31
0.0
  0
LINE
  5
9626
  8
0
 10
52.499999925499992
 20
146.01003713562281
 30
0.0
 11
52.000000774900059
 21
146.51003715932279
 31
0.0
  0
LINE
  5
9628
  8
0
 10
87.500000074500008
 20
146.01003713562281
 30
0.0
 11
87.999999225100055
 21
146.51003715932279
 31
0.0
  0
LINE
  5
962A
  8
0
 10
87.999999225100055
 20
146.51003715932279
 30
0.0
 11
87.999999225100055
 21
185.51003895352281
 31
0.0
  0
LINE
  5
962B
  8
0
 10
52.000000774900059
 20
146.51003715932279
 30
0.0
 11
52.000000774900059
 21
185.51003895352281
 31
0.0
  0
LINE
  5
962C
  8
0
 10
52.499999925499992
 20
186.01003624152281
 30
0.0
 11
87.500000074500008
 21
186.01003624152281
 31
0.0
  0
LINE
  5
962D
  8
0
 10
87.500000074500008
 20
186.01003624152281
 30
0.0
 11
87.999999225100055
 21
185.51003895352281
 31
0.0
  0
LINE
  5
962E
  8
0
 10
52.499999925499992
 20
186.01003624152281
 30
0.0
 11
52.000000774900059
 21
185.51003895352281
 31
0.0
  0
LINE
  5
9631
  8
0
 10
237.89999961854991
 20
191.81003756472279
 30
0.0
 11
237.89999961854991
 21
193.11003721902279
 31
0.0
  0
LINE
  5
9632
  8
0
 10
222.1000003815499
 20
193.11003721902279
 30
0.0
 11
222.1000003815499
 21
191.81003756472279
 31
0.0
  0
LINE
  5
9633
  8
0
 10
237.89999961854991
 20
193.11003721902279
 30
0.0
 11
236.75999978564991
 21
194.2500356550228
 31
0.0
  0
LINE
  5
9634
  8
0
 10
223.24000021444991
 20
194.2500356550228
 30
0.0
 11
222.1000003815499
 21
193.11003721902279
 31
0.0
  0
LINE
  5
9635
  8
0
 10
238.00000038005001
 20
199.55003596492281
 30
0.0
 11
238.00000038005001
 21
203.3500369603228
 31
0.0
  0
LINE
  5
9636
  8
0
 10
238.00000038005001
 20
194.2500356550228
 30
0.0
 11
238.00000038005001
 21
198.05003665042281
 31
0.0
  0
LINE
  5
9637
  8
0
 10
222.1000003815499
 20
206.22208676882281
 30
0.0
 11
222.1000003815499
 21
204.49003539632281
 31
0.0
  0
LINE
  5
9638
  8
0
 10
237.89999961854991
 20
204.49003539632281
 30
0.0
 11
237.89999961854991
 21
206.22208676882281
 31
0.0
  0
LINE
  5
9639
  8
0
 10
222.1000003815499
 20
204.49003539632281
 30
0.0
 11
223.24000021444991
 21
203.3500369603228
 31
0.0
  0
LINE
  5
963A
  8
0
 10
236.75999978564991
 20
203.3500369603228
 30
0.0
 11
237.89999961854991
 21
204.49003539632281
 31
0.0
  0
ARC
  5
963B
  8
0
 10
236.90000000005
 20
206.2220879431228
 30
0.0
 40
1.0
 50
0.0
 51
29.999999999997371
  0
LINE
  5
963C
  8
0
 10
237.76602560654999
 20
206.7220877821228
 30
0.0
 11
236.45662425095
 21
208.9900407905229
 31
0.0
  0
LINE
  5
963D
  8
0
 10
223.54337574914999
 20
208.9900407905229
 30
0.0
 11
222.23397439355011
 21
206.7220877821228
 31
0.0
  0
ARC
  5
963E
  8
0
 10
223.1000000000499
 20
206.2220879431228
 30
0.0
 40
1.0
 50
150.00000000000259
 51
180.0
  0
ARC
  5
963F
  8
0
 10
235.5905989232499
 20
208.4900371356228
 30
0.0
 40
1.0
 50
29.999999999997371
 51
90.0
  0
ARC
  5
9640
  8
0
 10
224.40940107684989
 20
208.4900371356228
 30
0.0
 40
1.0
 50
90.0
 51
150.00000000000259
  0
LINE
  5
9641
  8
0
 10
237.89999961854991
 20
186.01003624152281
 30
0.0
 11
237.89999961854991
 21
191.61003790452281
 31
0.0
  0
LINE
  5
9642
  8
0
 10
222.1000003815499
 20
191.61003790452281
 30
0.0
 11
222.1000003815499
 21
186.01003624152281
 31
0.0
  0
LINE
  5
9643
  8
0
 10
237.89999961854991
 20
191.61003790452281
 30
0.0
 11
237.69999995834999
 21
191.81003756472279
 31
0.0
  0
LINE
  5
9644
  8
0
 10
222.30000004175
 20
191.81003756472279
 30
0.0
 11
222.1000003815499
 21
191.61003790452281
 31
0.0
  0
ARC
  5
9646
  8
0
 10
222.82281597455
 20
198.80003630772279
 30
0.0
 40
0.749999657276007
 50
89.999845846202064
 51
270.00015415379801
  0
ARC
  5
9648
  8
0
 10
237.25000000004991
 20
198.8000371356228
 30
0.0
 40
0.7499999999999979
 50
270.0189756323993
 51
90.029286670303236
  0
LINE
  5
9649
  8
0
 10
237.89999961854991
 20
193.11003721902279
 30
0.0
 11
222.1000003815499
 21
193.11003721902279
 31
0.0
  0
LINE
  5
964A
  8
0
 10
237.89999961854991
 20
191.81003756472279
 30
0.0
 11
222.1000003815499
 21
191.81003756472279
 31
0.0
  0
LINE
  5
964B
  8
0
 10
234.55820653595001
 20
203.3500369603228
 30
0.0
 11
234.55820653595001
 21
199.55003596492281
 31
0.0
  0
LINE
  5
964D
  8
0
 10
238.00000038005001
 20
203.3500369603228
 30
0.0
 11
233.95615538585
 21
203.3500369603228
 31
0.0
  0
LINE
  5
964E
  8
0
 10
233.36897582754989
 20
202.1831307525228
 30
0.0
 11
233.95615538584991
 21
203.3500369603228
 31
0.0
  0
LINE
  5
9652
  8
0
 10
234.55820653595001
 20
198.05003665042281
 30
0.0
 11
234.55820653595001
 21
194.2500356550228
 31
0.0
  0
LINE
  5
9654
  8
0
 10
233.95615538584991
 20
194.2500356550228
 30
0.0
 11
233.36897582754989
 21
195.41694558812279
 31
0.0
  0
LINE
  5
9657
  8
0
 10
238.00000038005001
 20
194.2500356550228
 30
0.0
 11
233.95615538584991
 21
194.2500356550228
 31
0.0
  0
LINE
  5
9658
  8
0
 10
222.07281786954999
 20
198.05003665042281
 30
0.0
 11
222.07281786954999
 21
194.2500356550228
 31
0.0
  0
LINE
  5
9659
  8
0
 10
238.0000003800501
 20
198.05003665042281
 30
0.0
 11
222.07281786954999
 21
198.05003665042281
 31
0.0
  0
LINE
  5
965A
  8
0
 10
233.36897582754989
 20
198.05003665042281
 30
0.0
 11
233.36897582754989
 21
194.2500356550228
 31
0.0
  0
LINE
  5
965B
  8
0
 10
233.36897582754989
 20
194.2500356550228
 30
0.0
 11
222.07281786954999
 21
194.2500356550228
 31
0.0
  0
LINE
  5
965C
  8
0
 10
222.07281786954999
 20
203.3500369603228
 30
0.0
 11
222.07281786954999
 21
199.55003596492281
 31
0.0
  0
LINE
  5
965D
  8
0
 10
233.36897582754989
 20
203.3500369603228
 30
0.0
 11
222.07281786954999
 21
203.3500369603228
 31
0.0
  0
LINE
  5
965E
  8
0
 10
233.36897582754989
 20
203.3500369603228
 30
0.0
 11
233.36897582754989
 21
199.55003596492281
 31
0.0
  0
LINE
  5
965F
  8
0
 10
238.0000003800501
 20
199.55003596492281
 30
0.0
 11
222.07281786954999
 21
199.55003596492281
 31
0.0
  0
LINE
  5
9660
  8
0
 10
232.48193461454991
 20
205.4900374229228
 30
0.0
 11
227.5180653855499
 21
205.4900374229228
 31
0.0
  0
LINE
  5
9661
  8
0
 10
232.48193461454991
 20
206.22208676882281
 30
0.0
 11
232.48193461454991
 21
205.4900374229228
 31
0.0
  0
LINE
  5
9662
  8
0
 10
227.5180653855499
 20
205.4900374229228
 30
0.0
 11
227.5180653855499
 21
206.22208676882281
 31
0.0
  0
LINE
  5
9663
  8
0
 10
222.1000003815499
 20
204.49003539632281
 30
0.0
 11
237.89999961854991
 21
204.49003539632281
 31
0.0
  0
ARC
  5
9664
  8
0
 10
231.85519966174991
 20
206.10490088292289
 30
0.0
 40
0.6375964498878112
 50
10.59078092569934
 51
75.463938510996257
  0
ARC
  5
9665
  8
0
 10
230.00000000004991
 20
202.4273374225229
 30
0.0
 40
4.744052147673508
 50
64.862579675198816
 51
115.1374203248012
  0
ARC
  5
9666
  8
0
 10
228.1261760016499
 20
206.1222849923229
 30
0.0
 40
0.6162458243382484
 50
103.2654520236006
 51
170.67982853980081
  0
LINE
  5
9667
  8
0
 10
224.40940096975001
 20
209.4900343532228
 30
0.0
 11
235.59059903035009
 21
209.4900343532228
 31
0.0
  0
LINE
  5
9669
  8
0
 10
212.49999992554999
 20
186.01003624152281
 30
0.0
 11
247.50000007455
 21
186.01003624152281
 31
0.0
  0
LINE
  5
966A
  8
0
 10
247.50000007455
 20
186.01003624152281
 30
0.0
 11
247.99999922514991
 21
185.51003895352281
 31
0.0
  0
LINE
  5
966D
  8
0
 10
247.99999922514991
 20
185.51003895352281
 30
0.0
 11
247.99999922514991
 21
146.51003715932291
 31
0.0
  0
LINE
  5
966F
  8
0
 10
246.00000076005011
 20
156.01003691212281
 30
0.0
 11
246.00000076005011
 21
186.01003624152281
 31
0.0
  0
LINE
  5
9676
  8
0
 10
247.99999922514991
 20
156.01003691212281
 30
0.0
 11
240.49999985845
 21
156.01003691212281
 31
0.0
  0
CIRCLE
  5
9678
  8
3
 10
225.00000000004991
 20
155.01003713562281
 30
0.0
 40
1.5249999999999759
  0
CIRCLE
  5
9679
  8
3
 10
235.00000000004991
 20
173.01003713562281
 30
0.0
 40
1.5249999999999759
  0
LINE
  5
967B
  8
0
 10
220.00000022354999
 20
149.01003716172281
 30
0.0
 11
239.9999997765498
 21
149.01003716172281
 31
0.0
  0
LINE
  5
967F
  8
0
 10
213.99999924004999
 20
186.01003624152281
 30
0.0
 11
213.99999924004999
 21
156.01003691212281
 31
0.0
  0
ARC
  5
9681
  8
0
 10
240.50000000004991
 20
155.51003713562281
 30
0.0
 40
0.5
 50
90.0
 51
180.0
  0
LINE
  5
9686
  8
0
 10
239.99999977655
 20
155.5100368301228
 30
0.0
 11
239.9999997765498
 21
146.01003713562281
 31
0.0
  0
CIRCLE
  5
9689
  8
0
 10
235.00000000004991
 20
173.01003713562281
 30
0.0
 40
1.25
  0
CIRCLE
  5
968A
  8
0
 10
225.00000000004991
 20
155.01003713562281
 30
0.0
 40
1.25
  0
ARC
  5
968B
  8
0
 10
219.50000000004991
 20
155.51003713562281
 30
0.0
 40
0.5
 50
0.0
 51
90.0
  0
LINE
  5
968F
  8
0
 10
220.00000022354999
 20
146.01003713562281
 30
0.0
 11
220.00000022354999
 21
155.5100368301228
 31
0.0
  0
LINE
  5
9690
  8
0
 10
219.50000014164999
 20
156.01003691212281
 30
0.0
 11
212.0000007749498
 21
156.01003691212281
 31
0.0
  0
LINE
  5
9694
  8
0
 10
212.0000007749498
 20
146.51003715932291
 30
0.0
 11
212.00000077495
 21
185.51003895352281
 31
0.0
  0
LINE
  5
9695
  8
0
 10
212.00000077495
 20
185.51003895352281
 30
0.0
 11
212.49999992554999
 21
186.01003624152281
 31
0.0
  0
CIRCLE
  5
969D
  8
0
 10
235.00000000004991
 20
173.01003713562281
 30
0.0
 40
0.75
  0
CIRCLE
  5
969E
  8
0
 10
225.00000000004991
 20
155.01003713562281
 30
0.0
 40
0.75
  0
LINE
  5
96A5
  8
0
 10
247.50000007455
 20
146.01003713562281
 30
0.0
 11
247.99999922514991
 21
146.51003715932279
 31
0.0
  0
LINE
  5
96A9
  8
0
 10
247.50000007455
 20
146.01003713562281
 30
0.0
 11
212.4999999255501
 21
146.01003713562281
 31
0.0
  0
LINE
  5
96AE
  8
0
 10
212.49999992554999
 20
146.01003713562281
 30
0.0
 11
212.00000077495
 21
146.51003715932279
 31
0.0
  0
LINE
  5
98AF
  8
2
 10
213.9000007734501
 20
185.21003760052281
 30
0.0
 11
213.10000026975001
 21
186.0100362415229
 31
0.0
  0
LINE
  5
98B0
  8
2
 10
213.9000007734501
 20
156.01003691212281
 30
0.0
 11
213.9000007734501
 21
185.21003760052281
 31
0.0
  0
LINE
  5
98B1
  8
2
 10
218.09999922664991
 20
185.21003760052281
 30
0.0
 11
213.9000007734501
 21
185.21003760052281
 31
0.0
  0
LINE
  5
98B2
  8
2
 10
218.09999922664991
 20
185.21003760052281
 30
0.0
 11
218.09999922664991
 21
156.01003691212281
 31
0.0
  0
LINE
  5
98B3
  8
2
 10
218.89999973035009
 20
186.0100362415229
 30
0.0
 11
218.09999922664991
 21
185.21003760052281
 31
0.0
  0
LINE
  5
98B4
  8
2
 10
218.50000040985
 20
185.61003692102281
 30
0.0
 11
218.50000040985
 21
176.01003646502281
 31
0.0
  0
LINE
  5
98B5
  8
2
 10
213.49999959025001
 20
176.01003646502281
 30
0.0
 11
213.49999959025001
 21
185.61003692102281
 31
0.0
  0
LINE
  5
98B6
  8
2
 10
213.4999995902499
 20
176.01003646502281
 30
0.0
 11
218.50000040985
 21
176.01003646502281
 31
0.0
  0
LINE
  5
9949
  8
2
 10
241.90000077344999
 20
185.21003760052281
 30
0.0
 11
241.10000026975001
 21
186.0100362415229
 31
0.0
  0
LINE
  5
994A
  8
2
 10
241.90000077344999
 20
156.01003691212281
 30
0.0
 11
241.90000077344999
 21
185.21003760052281
 31
0.0
  0
LINE
  5
994B
  8
2
 10
246.0999992266498
 20
185.21003760052281
 30
0.0
 11
241.90000077344999
 21
185.21003760052281
 31
0.0
  0
LINE
  5
994C
  8
2
 10
246.0999992266498
 20
185.21003760052281
 30
0.0
 11
246.0999992266498
 21
156.01003691212281
 31
0.0
  0
LINE
  5
994D
  8
2
 10
246.8999997303498
 20
186.0100362415229
 30
0.0
 11
246.0999992266498
 21
185.21003760052281
 31
0.0
  0
LINE
  5
994E
  8
2
 10
246.50000040985
 20
185.61003692102281
 30
0.0
 11
246.50000040985
 21
176.01003646502281
 31
0.0
  0
LINE
  5
994F
  8
2
 10
241.49999959024979
 20
176.01003646502281
 30
0.0
 11
241.49999959024979
 21
185.61003692102281
 31
0.0
  0
LINE
  5
9950
  8
2
 10
241.89998874074979
 20
176.01003646502281
 30
0.0
 11
246.0999992266498
 21
176.01003646502281
 31
0.0
  0
CIRCLE
  5
9953
  8
3
 10
168.0
 20
234.76802534592289
 30
0.0
 40
2.5
  0
CIRCLE
  5
9954
  8
3
 10
168.0
 20
262.76802534592281
 30
0.0
 40
2.5
  0
CIRCLE
  5
9957
  8
0
 10
150.0
 20
248.76802534592281
 30
0.0
 40
7.9000000000000004
  0
LINE
  5
99A5
  8
1
 10
150.00000000004991
 20
212.4900343532228
 30
0.0
 11
150.00000000004999
 21
143.01003713562281
 31
0.0
  0
LINE
  5
99A6
  8
1
 10
230.00000000004999
 20
212.4900343532228
 30
0.0
 11
230.00000000005011
 21
143.01003713562281
 31
0.0
  0
LINE
  5
99A7
  8
1
 10
70.000000000050022
 20
212.4900343532228
 30
0.0
 11
70.000000000050136
 21
143.01003713562281
 31
0.0
  0
LINE
  5
99D5
  8
5
 10
140.28134625414981
 20
201.9699882681229
 30
0.0
 11
140.28134625414981
 21
198.16998727272289
 31
0.0
  0
LINE
  5
99D6
  8
5
 10
140.28134625414981
 20
196.6699879581229
 30
0.0
 11
140.28134625414981
 21
192.86998696272281
 31
0.0
  0
LINE
  5
99D7
  8
5
 10
159.71865374604999
 20
192.86998696272281
 30
0.0
 11
159.71865374604999
 21
196.6699879581229
 31
0.0
  0
LINE
  5
99D8
  8
5
 10
159.71865374604999
 20
198.16998727272289
 30
0.0
 11
159.71865374604999
 21
201.9699882681229
 31
0.0
  0
LINE
  5
99D9
  8
5
 10
147.5813466590499
 20
201.9699882681229
 30
0.0
 11
140.28134625414981
 21
201.9699882681229
 31
0.0
  0
LINE
  5
99DA
  8
5
 10
159.71865374605011
 20
198.16998727272289
 30
0.0
 11
140.28134625414981
 21
198.16998727272289
 31
0.0
  0
LINE
  5
99DB
  8
5
 10
147.5813466590499
 20
192.86998696272281
 30
0.0
 11
140.28134625414981
 21
192.86998696272281
 31
0.0
  0
LINE
  5
99DC
  8
5
 10
159.71865374604999
 20
196.6699879581229
 30
0.0
 11
140.28134625414981
 21
196.6699879581229
 31
0.0
  0
LINE
  5
99DF
  8
5
 10
159.71865374604999
 20
201.9699882681229
 30
0.0
 11
152.41865334105
 21
201.9699882681229
 31
0.0
  0
LINE
  5
99E0
  8
5
 10
152.41865334104949
 20
192.86998696272289
 30
0.0
 11
159.71865374594961
 21
192.8699869627234
 31
0.0
  0
LINE
  5
99E1
  8
5
 10
143.47815988589991
 20
255.3262317439229
 30
0.0
 11
141.05950631199991
 21
251.1370012423229
 31
0.0
  0
LINE
  5
99E2
  8
5
 10
147.58134665899999
 20
239.840843051523
 30
0.0
 11
152.4186533409999
 21
239.840843051523
 31
0.0
  0
LINE
  5
99E3
  8
5
 10
158.94049368799989
 20
251.1370012423229
 30
0.0
 11
156.5218401141
 21
255.3262317439229
 31
0.0
  0
ARC
  5
99E4
  8
5
 10
150.0
 20
250.86802534592289
 30
0.0
 40
6.7000000000000179
 50
35.137848249000768
 51
144.8621517509992
  0
LINE
  5
99E5
  8
5
 10
156.5218401141
 20
255.3262317439229
 30
0.0
 11
155.3706904722728
 21
254.66161523916159
 31
0.0
  0
LINE
  5
99E6
  8
5
 10
144.62930952772709
 20
254.66161523916151
 30
0.0
 11
143.47815988589991
 21
255.3262317439229
 31
0.0
  0
ARC
  5
99E7
  8
5
 10
150.0
 20
250.86802534592289
 30
0.0
 40
7.9000000000000137
 50
34.355772626999723
 51
145.64422737300021
  0
ARC
  5
99E8
  8
5
 10
151.8186533478999
 20
247.71802534592291
 30
0.0
 40
6.699999999999994
 50
275.1378482489983
 51
24.862151751000141
  0
LINE
  5
99E9
  8
5
 10
157.789343814929
 20
250.47238473261311
 30
0.0
 11
158.94049368799989
 21
251.1370012423229
 31
0.0
  0
ARC
  5
99EA
  8
5
 10
151.8186533478999
 20
247.71802534592291
 30
0.0
 40
7.9000000000000137
 50
274.35577262700048
 51
25.644227372999762
  0
LINE
  5
99EB
  8
5
 10
152.4186533409999
 20
239.840843051523
 30
0.0
 11
152.4186533409999
 21
241.1700760175674
 31
0.0
  0
LINE
  5
99EC
  8
5
 10
141.05950631199991
 20
251.1370012423229
 30
0.0
 11
142.21065618515931
 21
250.47238473256209
 31
0.0
  0
ARC
  5
99ED
  8
5
 10
148.1813466520999
 20
247.71802534592291
 30
0.0
 40
6.7000000000000286
 50
155.1378482489998
 51
264.86215175100159
  0
LINE
  5
99EE
  8
5
 10
147.58134665899999
 20
241.17007601759829
 30
0.0
 11
147.58134665899999
 21
239.840843051523
 31
0.0
  0
ARC
  5
99EF
  8
5
 10
148.1813466520999
 20
247.71802534592291
 30
0.0
 40
7.8999999999999968
 50
154.35577262700019
 51
265.64422737299952
  0
LINE
  5
99F0
  8
5
 10
62.100000381500031
 20
203.46198938432281
 30
0.0
 11
62.100000381500031
 21
201.9699882681229
 31
0.0
  0
LINE
  5
99F1
  8
5
 10
77.899999618500033
 20
201.9699882681229
 30
0.0
 11
77.899999618500033
 21
203.46198938432281
 31
0.0
  0
ARC
  5
99F2
  8
5
 10
63.100000000000023
 20
203.46198780032279
 30
0.0
 40
1.0000000000000071
 50
149.9999999999994
 51
180.0
  0
LINE
  5
99F3
  8
5
 10
77.76602560660001
 20
203.96198667232281
 30
0.0
 11
76.456624250900006
 21
206.22993595552279
 31
0.0
  0
LINE
  5
99F4
  8
5
 10
63.543375749200038
 20
206.22993595552279
 30
0.0
 11
62.233974393500027
 21
203.96198667232281
 31
0.0
  0
ARC
  5
99F5
  8
5
 10
76.900000000000034
 20
203.46198780032279
 30
0.0
 40
1.0
 50
0.0
 51
30.000000000000551
  0
ARC
  5
99F6
  8
5
 10
75.590598923300035
 20
205.7299369927228
 30
0.0
 40
1.0000000000000071
 50
30.000000000000551
 51
90.0
  0
ARC
  5
99F7
  8
5
 10
64.409401076800009
 20
205.7299369927228
 30
0.0
 40
1.0
 50
90.0
 51
149.9999999999994
  0
LINE
  5
99F8
  8
5
 10
67.518065385499995
 20
203.46198938432281
 30
0.0
 11
67.518065385499995
 21
202.72993631312281
 31
0.0
  0
LINE
  5
99F9
  8
5
 10
67.518065385499995
 20
202.72993631312281
 30
0.0
 11
72.481934614500005
 21
202.72993631312281
 31
0.0
  0
LINE
  5
99FA
  8
5
 10
72.481934614500005
 20
202.72993631312281
 30
0.0
 11
72.481934614500005
 21
203.46198938432281
 31
0.0
  0
ARC
  5
99FB
  8
5
 10
68.126175318800051
 20
203.36218377622291
 30
0.0
 40
0.616245771108409
 50
103.2653879679017
 51
170.67946671939879
  0
ARC
  5
99FC
  8
5
 10
70.0
 20
199.66726428972291
 30
0.0
 40
4.7440268203701041
 50
64.862436142398323
 51
115.13756385760161
  0
ARC
  5
99FD
  8
5
 10
71.855208100200002
 20
203.34480677662279
 30
0.0
 40
0.6375875526001726
 50
10.59063072379884
 51
75.464514588799915
  0
LINE
  5
99FE
  8
5
 10
64.409400969800004
 20
206.72993696872291
 30
0.0
 11
75.590599030300041
 21
206.72993696872291
 31
0.0
  0
LINE
  5
99FF
  8
5
 10
222.10000038154999
 20
203.46198938432281
 30
0.0
 11
222.10000038154999
 21
201.9699882681229
 31
0.0
  0
LINE
  5
9A00
  8
5
 10
237.89999961855011
 20
201.9699882681229
 30
0.0
 11
237.89999961855011
 21
203.46198938432281
 31
0.0
  0
ARC
  5
9A01
  8
5
 10
223.10000000004999
 20
203.46198780032279
 30
0.0
 40
1.0000000000000071
 50
149.9999999999994
 51
180.0
  0
LINE
  5
9A02
  8
5
 10
237.76602560665
 20
203.96198667232281
 30
0.0
 11
236.45662425095
 21
206.22993595552279
 31
0.0
  0
LINE
  5
9A03
  8
5
 10
223.54337574925009
 20
206.22993595552279
 30
0.0
 11
222.23397439355011
 21
203.96198667232281
 31
0.0
  0
ARC
  5
9A04
  8
5
 10
236.90000000005011
 20
203.46198780032279
 30
0.0
 40
1.0
 50
0.0
 51
30.000000000000551
  0
ARC
  5
9A05
  8
5
 10
235.59059892335009
 20
205.7299369927228
 30
0.0
 40
1.0000000000000071
 50
30.000000000000551
 51
90.0
  0
ARC
  5
9A06
  8
5
 10
224.40940107685
 20
205.7299369927228
 30
0.0
 40
1.0
 50
90.0
 51
149.9999999999994
  0
LINE
  5
9A07
  8
5
 10
227.51806538554999
 20
203.46198938432281
 30
0.0
 11
227.51806538554999
 21
202.72993631312281
 31
0.0
  0
LINE
  5
9A08
  8
5
 10
227.51806538554999
 20
202.72993631312281
 30
0.0
 11
232.48193461455
 21
202.72993631312281
 31
0.0
  0
LINE
  5
9A09
  8
5
 10
232.48193461455
 20
202.72993631312281
 30
0.0
 11
232.48193461455
 21
203.46198938432281
 31
0.0
  0
ARC
  5
9A0A
  8
5
 10
228.1261753188501
 20
203.36218377622291
 30
0.0
 40
0.616245771108409
 50
103.2653879679017
 51
170.67946671939879
  0
ARC
  5
9A0B
  8
5
 10
230.00000000004999
 20
199.66726428972291
 30
0.0
 40
4.7440268203701041
 50
64.862436142401904
 51
115.1375638575981
  0
ARC
  5
9A0C
  8
5
 10
231.85520810025
 20
203.34480677662279
 30
0.0
 40
0.6375875526001726
 50
10.59063072379884
 51
75.464514588799915
  0
LINE
  5
9A0D
  8
5
 10
224.40940096985
 20
206.72993696872291
 30
0.0
 11
235.59059903035009
 21
206.72993696872291
 31
0.0
  0
ARC
  5
9A10
  8
5
 10
141.0331680439499
 20
197.41998937572291
 30
0.0
 40
0.7500115351514913
 50
89.654473903705991
 51
270.29760803129778
  0
ARC
  5
9A11
  8
5
 10
158.96683195614989
 20
197.41998937572291
 30
0.0
 40
0.7500115351514913
 50
269.70239196870222
 51
90.345526096293995
  0
LINE
  5
9A12
  8
5
 10
142.10000038154999
 20
202.72993631312281
 30
0.0
 11
142.10000038154999
 21
201.9699882681229
 31
0.0
  0
LINE
  5
9A13
  8
5
 10
157.89999961854991
 20
201.9699882681229
 30
0.0
 11
157.89999961854991
 21
202.72993631312281
 31
0.0
  0
LINE
  5
9A14
  8
5
 10
157.4999998324499
 20
204.42275665352281
 30
0.0
 11
156.45662425094989
 21
206.22993595552279
 31
0.0
  0
LINE
  5
9A15
  8
5
 10
143.5433757491499
 20
206.22993595552279
 30
0.0
 11
142.50000016765
 21
204.42275665352281
 31
0.0
  0
ARC
  5
9A16
  8
5
 10
155.59059892334989
 20
205.7299369927228
 30
0.0
 40
1.0000000000000071
 50
30.000000000000551
 51
90.0
  0
ARC
  5
9A17
  8
5
 10
144.40940107684989
 20
205.7299369927228
 30
0.0
 40
1.0000000000000071
 50
90.0
 51
149.9999999999994
  0
LINE
  5
9A18
  8
5
 10
157.89999961854991
 20
202.72993631312281
 30
0.0
 11
157.4999998324499
 21
202.72993631312281
 31
0.0
  0
LINE
  5
9A19
  8
5
 10
142.10000038154999
 20
202.72993631312281
 30
0.0
 11
142.50000016765
 21
202.72993631312281
 31
0.0
  0
LINE
  5
9A1A
  8
5
 10
157.4999998324499
 20
202.72993631312281
 30
0.0
 11
157.4999998324499
 21
204.4227082247229
 31
0.0
  0
LINE
  5
9A1B
  8
5
 10
142.50000016765
 20
202.72993631312281
 30
0.0
 11
142.50000016765
 21
204.4227082247229
 31
0.0
  0
LINE
  5
9A1C
  8
5
 10
144.40940096984991
 20
206.72993696872291
 30
0.0
 11
155.59059903034989
 21
206.72993696872291
 31
0.0
  0
LINE
  5
9A1F
  8
5
 10
147.5813466590499
 20
201.9699882681229
 30
0.0
 11
147.5813466590499
 21
198.16998727272289
 31
0.0
  0
LINE
  5
9A20
  8
5
 10
152.41865334105
 20
201.9699882681229
 30
0.0
 11
152.41865334105
 21
198.16998727272289
 31
0.0
  0
LINE
  5
9A21
  8
5
 10
147.5813466590499
 20
196.6699879581229
 30
0.0
 11
147.5813466590499
 21
192.86998696272289
 31
0.0
  0
LINE
  5
9A22
  8
5
 10
152.41865334105
 20
196.6699879581229
 30
0.0
 11
152.41865334105
 21
192.86998696272289
 31
0.0
  0
LINE
  5
9A23
  8
5
 10
239.99999977655011
 20
192.86998696272281
 30
0.0
 11
239.99999977655011
 21
196.6699879581229
 31
0.0
  0
LINE
  5
9A24
  8
5
 10
239.99999977655011
 20
198.16998727272289
 30
0.0
 11
239.99999977655011
 21
201.9699882681229
 31
0.0
  0
LINE
  5
9A26
  8
5
 10
239.99999977655011
 20
196.6699879581229
 30
0.0
 11
221.07281770565021
 21
196.6699879581229
 31
0.0
  0
LINE
  5
9A30
  8
5
 10
239.99999977655011
 20
198.16998727272289
 30
0.0
 11
221.0728177056501
 21
198.16998727272289
 31
0.0
  0
LINE
  5
9A32
  8
5
 10
221.0728177056501
 20
196.6699879581229
 30
0.0
 11
221.0728177056501
 21
192.86998696272281
 31
0.0
  0
LINE
  5
9A33
  8
5
 10
232.36897589645011
 20
196.6699879581229
 30
0.0
 11
232.36897589645011
 21
192.86998696272281
 31
0.0
  0
LINE
  5
9A34
  8
5
 10
232.36897589645011
 20
192.86998696272281
 30
0.0
 11
221.0728177056501
 21
192.86998696272281
 31
0.0
  0
LINE
  5
9A35
  8
5
 10
221.0728177056501
 20
201.9699882681229
 30
0.0
 11
221.0728177056501
 21
198.16998727272289
 31
0.0
  0
LINE
  5
9A36
  8
5
 10
232.36897589645011
 20
201.9699882681229
 30
0.0
 11
221.0728177056501
 21
201.9699882681229
 31
0.0
  0
LINE
  5
9A37
  8
5
 10
232.36897589645011
 20
201.9699882681229
 30
0.0
 11
232.36897589645011
 21
198.16998727272289
 31
0.0
  0
ARC
  5
9A38
  8
5
 10
221.8228158106501
 20
197.4199876155229
 30
0.0
 40
0.749999657276007
 50
89.999845846202064
 51
270.00015415379801
  0
ARC
  5
9A39
  8
5
 10
239.24999939655001
 20
197.4199884434228
 30
0.0
 40
0.7499999999999979
 50
270.0189756323993
 51
90.029286670303236
  0
LINE
  5
9A8B
  8
5
 10
239.99999977655011
 20
201.9699882681229
 30
0.0
 11
235.9561547823501
 21
201.9699882681229
 31
0.0
  0
LINE
  5
9A93
  8
5
 10
234.72333142535021
 20
199.51999149872279
 30
0.0
 11
235.9561547823501
 21
201.9699882681229
 31
0.0
  0
LINE
  5
9A94
  8
5
 10
234.72333142535021
 20
199.51999149872279
 30
0.0
 11
234.72333142535021
 21
198.1699909980228
 31
0.0
  0
LINE
  5
9AA3
  8
5
 10
239.9999997765502
 20
192.86998696272281
 30
0.0
 11
235.95615524815
 21
192.86998696272281
 31
0.0
  0
LINE
  5
9AA4
  8
5
 10
235.95615524815
 20
192.86998696272281
 30
0.0
 11
234.72333189115011
 21
195.3199874574228
 31
0.0
  0
LINE
  5
9AA5
  8
5
 10
234.72333189115011
 20
196.66998795812279
 30
0.0
 11
234.72333189115011
 21
195.3199874574228
 31
0.0
  0
LINE
  5
9AA7
  8
5
 10
236.55820593245019
 20
201.9699882681229
 30
0.0
 11
236.55820593245019
 21
198.16998727272281
 31
0.0
  0
LINE
  5
9AA8
  8
5
 10
236.55820593245019
 20
196.6699879582228
 30
0.0
 11
236.55820593245019
 21
192.86998696282279
 31
0.0
  0
LINE
  5
9AAF
  8
5
 10
60.000000223267762
 20
192.8699869629227
 30
0.0
 11
60.000000223343697
 21
196.66998795832271
 31
0.0
  0
LINE
  5
9AB0
  8
5
 10
60.000000223373661
 20
198.1699872729227
 30
0.0
 11
60.000000223449597
 21
201.96998826832271
 31
0.0
  0
LINE
  5
9AB1
  8
5
 10
60.000000223343697
 20
196.66998795832271
 30
0.0
 11
78.927182294243593
 21
196.66998795794439
 31
0.0
  0
LINE
  5
9AB2
  8
5
 10
60.000000223373661
 20
198.1699872729227
 30
0.0
 11
78.927182294273678
 21
198.16998727254449
 31
0.0
  0
LINE
  5
9AB3
  8
5
 10
78.927182294243721
 20
196.66998795794439
 30
0.0
 11
78.927182294167778
 21
192.8699869625444
 31
0.0
  0
LINE
  5
9AB4
  8
5
 10
67.631024103367736
 20
192.86998696277021
 30
0.0
 11
78.927182294167778
 21
192.8699869625444
 31
0.0
  0
LINE
  5
9AB5
  8
5
 10
78.92718229434962
 20
201.96998826794439
 30
0.0
 11
78.927182294273678
 21
198.1699872725444
 31
0.0
  0
LINE
  5
9AB6
  8
5
 10
67.631024103549564
 20
201.9699882681702
 30
0.0
 11
78.92718229434962
 21
201.96998826794439
 31
0.0
  0
ARC
  5
9AB7
  8
5
 10
78.177184189258696
 20
197.4199876153595
 30
0.0
 40
0.749999657276007
 50
269.99984584505557
 51
90.000154152651504
  0
ARC
  5
9AB8
  8
5
 10
60.750000603358778
 20
197.41998844360771
 30
0.0
 40
0.7499999999999979
 50
89.97071332855036
 51
269.98102436645428
  0
LINE
  5
9AB9
  8
5
 10
60.000000223449597
 20
201.96998826832271
 30
0.0
 11
64.043845217649562
 21
201.96998826824191
 31
0.0
  0
LINE
  5
9ABA
  8
5
 10
65.276668574600535
 20
199.51999149881721
 30
0.0
 11
64.043845217649562
 21
201.96998826824191
 31
0.0
  0
LINE
  5
9ABB
  8
5
 10
65.276668574600535
 20
199.51999149881721
 30
0.0
 11
65.276668574573534
 21
198.1699909981171
 31
0.0
  0
LINE
  5
9ABC
  8
5
 10
60.000000223267648
 20
192.8699869629227
 30
0.0
 11
64.043844751667848
 21
192.86998696284189
 31
0.0
  0
LINE
  5
9ABD
  8
5
 10
64.043844751667848
 20
192.86998696284189
 30
0.0
 11
65.276668108716706
 21
195.31998745751719
 31
0.0
  0
LINE
  5
9ABE
  8
5
 10
65.276668108743706
 20
196.66998795821709
 30
0.0
 11
65.276668108716706
 21
195.31998745751719
 31
0.0
  0
LINE
  5
9ABF
  8
5
 10
63.441794067549552
 20
201.9699882682539
 30
0.0
 11
63.441794067473609
 21
198.16998727285389
 31
0.0
  0
LINE
  5
9AC0
  8
5
 10
63.441794067443652
 20
196.66998795835389
 30
0.0
 11
63.441794067367702
 21
192.8699869629539
 31
0.0
  0
LINE
  5
9AC1
  8
5
 10
67.631024103443679
 20
196.6699879581702
 30
0.0
 11
67.631024103367736
 21
192.86998696277021
 31
0.0
  0
LINE
  5
9AC2
  8
5
 10
67.631024103549564
 20
201.9699882681702
 30
0.0
 11
67.631024103473635
 21
198.16998727277019
 31
0.0
  0
LINE
  5
9B0A
  8
1
 10
164.0
 20
234.76802534592289
 30
0.0
 11
171.9999998808
 21
234.76802534592289
 31
0.0
  0
LINE
  5
9B0B
  8
1
 10
167.99999994039999
 20
230.76802540552279
 30
0.0
 11
167.99999994039999
 21
238.76802528632291
 31
0.0
  0
LINE
  5
9B0C
  8
1
 10
164.00000005960001
 20
262.76802534592281
 30
0.0
 11
171.99999994039999
 21
262.76802534592281
 31
0.0
  0
LINE
  5
9B0D
  8
1
 10
168.0
 20
258.76802540552279
 30
0.0
 11
168.0
 21
266.76802528632282
 31
0.0
  0
LINE
  5
9B12
  8
1
 10
164.40000000000001
 20
114.00000000002279
 30
0.0
 11
171.59999999999999
 21
114.00000000002279
 31
0.0
  0
LINE
  5
9B13
  8
1
 10
168.0
 20
110.4000000000228
 30
0.0
 11
168.0
 21
117.6000000000228
 31
0.0
  0
LINE
  5
9B14
  8
1
 10
164.40000000000001
 20
86.000000000022837
 30
0.0
 11
171.59999999999999
 21
86.000000000022837
 31
0.0
  0
LINE
  5
9B15
  8
1
 10
168.0
 20
82.400000000022814
 30
0.0
 11
168.0
 21
89.600000000022874
 31
0.0
  0
LINE
  5
9B1A
  8
1
 10
231.97500000004999
 20
173.01003713562281
 30
0.0
 11
238.02500000004991
 21
173.01003713562281
 31
0.0
  0
LINE
  5
9B1B
  8
1
 10
235.00000000004991
 20
169.9850371356228
 30
0.0
 11
235.00000000004991
 21
176.03503713562279
 31
0.0
  0
LINE
  5
9B1C
  8
1
 10
221.9750000000499
 20
155.01003713562281
 30
0.0
 11
228.02500000004991
 21
155.01003713562281
 31
0.0
  0
LINE
  5
9B1D
  8
1
 10
225.00000000004991
 20
151.9850371356228
 30
0.0
 11
225.00000000004991
 21
158.03503713562279
 31
0.0
  0
LINE
  5
9B1F
  8
2
 10
165.90000071380001
 20
185.21003760052281
 30
0.0
 11
165.10000021010001
 21
186.0100362415229
 31
0.0
  0
LINE
  5
9B20
  8
2
 10
165.90000071380001
 20
156.01003691212281
 30
0.0
 11
165.90000071380001
 21
185.21003760052281
 31
0.0
  0
LINE
  5
9B21
  8
2
 10
170.09999916699991
 20
185.21003760052281
 30
0.0
 11
165.90000071380001
 21
185.21003760052281
 31
0.0
  0
LINE
  5
9B22
  8
2
 10
170.09999916699991
 20
185.21003760052281
 30
0.0
 11
170.09999916699991
 21
156.01003691212281
 31
0.0
  0
LINE
  5
9B23
  8
2
 10
170.8999996707
 20
186.0100362415229
 30
0.0
 11
170.09999916699991
 21
185.21003760052281
 31
0.0
  0
LINE
  5
9B24
  8
2
 10
170.5000003502
 20
185.61003692102281
 30
0.0
 11
170.5000003502
 21
176.01003646502281
 31
0.0
  0
LINE
  5
9B25
  8
2
 10
165.49999953060001
 20
176.01003646502281
 30
0.0
 11
165.49999953060001
 21
185.61003692102281
 31
0.0
  0
LINE
  5
9B26
  8
2
 10
165.49999953059989
 20
176.01003646502281
 30
0.0
 11
170.5000003502
 21
176.01003646502281
 31
0.0
  0
LINE
  5
9B29
  8
1
 10
167.99999992421019
 20
187.51003624152281
 30
0.0
 11
168.00000015649991
 21
154.5100369121229
 31
0.0
  0
LINE
  5
9B2A
  8
1
 10
215.9999999191005
 20
187.51003624152281
 30
0.0
 11
216.00000015139031
 21
154.5100369121229
 31
0.0
  0
LINE
  5
9B2B
  8
1
 10
243.99999390275039
 20
187.51003624152281
 30
0.0
 11
243.99999413504011
 21
154.5100369121229
 31
0.0
  0
LINE
  5
9B78
  8
1
 10
174.9999998808
 20
99.999999999972815
 30
0.0
 11
129.0
 21
100.00000000002279
 31
0.0
  0
LINE
  5
9B7F
  8
1
 10
150.0
 20
227.76802612082281
 30
0.0
 11
150.0
 21
269.76802457102292
 31
0.0
  0
LINE
  5
9B80
  8
1
 10
174.9999998808
 20
248.76802534592289
 30
0.0
 11
129.0
 21
248.76802534597289
 31
0.0
  0
LINE
  5
9BD4
  8
1
 10
150.0
 20
79.00000077487276
 30
0.0
 11
150.0
 21
120.9999992250729
 31
0.0
  0
ENDSEC
  0
EOF
