  0
SECTION
  2
HEADER
  9
$ACADVER
  1
AC1009
  9
$INSBASE
 10
0.0
 20
0.0
 30
0.0
  9
$EXTMIN
 10
0.0
 20
-2.960436562073669
 30
0.0
  9
$EXTMAX
 10
219.47348378544999
 20
130.64211294523921
 30
0.0
  9
$LIMMIN
 10
0.0
 20
0.0
  9
$LIMMAX
 10
275.0
 20
175.0
  9
$ORTHOMODE
 70
     1
  9
$REGENMODE
 70
     1
  9
$FILLMODE
 70
     1
  9
$QTEXTMODE
 70
     0
  9
$MIRRTEXT
 70
     0
  9
$DRAGMODE
 70
     2
  9
$LTSCALE
 40
10.0
  9
$OSMODE
 70
  3071
  9
$ATTMODE
 70
     1
  9
$TEXTSIZE
 40
0.2
  9
$TRACEWID
 40
0.05
  9
$TEXTSTYLE
  7
STANDARD
  9
$CLAYER
  8
0
  9
$CELTYPE
  6
BYLAYER
  9
$CECOLOR
 62
   256
  9
$DIMSCALE
 40
1.0
  9
$DIMASZ
 40
3.0
  9
$DIMEXO
 40
1.0
  9
$DIMDLI
 40
6.0
  9
$DIMRND
 40
0.0
  9
$DIMDLE
 40
0.0
  9
$DIMEXE
 40
1.0
  9
$DIMTP
 40
495.0
  9
$DIMTM
 40
0.0
  9
$DIMTXT
 40
3.0
  9
$DIMCEN
 40
0.0
  9
$DIMTSZ
 40
0.0
  9
$DIMTOL
 70
     0
  9
$DIMLIM
 70
     0
  9
$DIMTIH
 70
     0
  9
$DIMTOH
 70
     0
  9
$DIMSE1
 70
     0
  9
$DIMSE2
 70
     0
  9
$DIMTAD
 70
     1
  9
$DIMZIN
 70
     0
  9
$DIMBLK
  1

  9
$DIMASO
 70
     0
  9
$DIMSHO
 70
     0
  9
$DIMPOST
  1

  9
$DIMAPOST
  1

  9
$DIMALT
 70
     0
  9
$DIMALTD
 70
     2
  9
$DIMALTF
 40
25.399999999999999
  9
$DIMLFAC
 40
1.0
  9
$DIMTOFL
 70
     1
  9
$DIMTVP
 40
0.0
  9
$DIMTIX
 70
     1
  9
$DIMSOXD
 70
     0
  9
$DIMSAH
 70
     0
  9
$DIMBLK1
  1

  9
$DIMBLK2
  1

  9
$DIMSTYLE
  2
STANDARD
  9
$DIMCLRD
 70
     0
  9
$DIMCLRE
 70
     0
  9
$DIMCLRT
 70
     4
  9
$DIMTFAC
 40
1.0
  9
$DIMGAP
 40
1.0
  9
$LUNITS
 70
     2
  9
$LUPREC
 70
     4
  9
$SKETCHINC
 40
0.1
  9
$FILLETRAD
 40
0.0
  9
$AUNITS
 70
     0
  9
$AUPREC
 70
     0
  9
$MENU
  1
E:\r13\win\SUPPORT\ACAD
  9
$ELEVATION
 40
0.0
  9
$PELEVATION
 40
0.0
  9
$THICKNESS
 40
0.0
  9
$LIMCHECK
 70
     0
  9
$BLIPMODE
 70
     0
  9
$CHAMFERA
 40
0.0
  9
$CHAMFERB
 40
0.0
  9
$SKPOLY
 70
     0
  9
$TDCREATE
 40
2450653.5278402781
  9
$TDUPDATE
 40
2456597.5006787968
  9
$TDINDWG
 40
0.0534546644
  9
$TDUSRTIMER
 40
0.0534546644
  9
$USRTIMER
 70
     1
  9
$ANGBASE
 50
0.0
  9
$ANGDIR
 70
     0
  9
$PDMODE
 70
     0
  9
$PDSIZE
 40
0.0
  9
$PLINEWID
 40
0.0
  9
$COORDS
 70
     1
  9
$SPLFRAME
 70
     0
  9
$SPLINETYPE
 70
     6
  9
$SPLINESEGS
 70
     8
  9
$ATTDIA
 70
     0
  9
$ATTREQ
 70
     1
  9
$HANDLING
 70
     1
  9
$HANDSEED
  5
32B
  9
$SURFTAB1
 70
     6
  9
$SURFTAB2
 70
     6
  9
$SURFTYPE
 70
     6
  9
$SURFU
 70
     6
  9
$SURFV
 70
     6
  9
$UCSNAME
  2

  9
$UCSORG
 10
0.0
 20
0.0
 30
0.0
  9
$UCSXDIR
 10
1.0
 20
0.0
 30
0.0
  9
$UCSYDIR
 10
0.0
 20
1.0
 30
0.0
  9
$PUCSNAME
  2

  9
$PUCSORG
 10
0.0
 20
0.0
 30
0.0
  9
$PUCSXDIR
 10
1.0
 20
0.0
 30
0.0
  9
$PUCSYDIR
 10
0.0
 20
1.0
 30
0.0
  9
$USERI1
 70
     4
  9
$USERI2
 70
     1
  9
$USERI3
 70
     1
  9
$USERI4
 70
     0
  9
$USERI5
 70
     0
  9
$USERR1
 40
1.0
  9
$USERR2
 40
3.0
  9
$USERR3
 40
3.0
  9
$USERR4
 40
3.0
  9
$USERR5
 40
10.0
  9
$WORLDVIEW
 70
     1
  9
$SHADEDGE
 70
     3
  9
$SHADEDIF
 70
    70
  9
$TILEMODE
 70
     1
  9
$MAXACTVP
 70
    16
  9
$PLIMCHECK
 70
     0
  9
$PEXTMIN
 10
1.0000000000000000E+020
 20
1.0000000000000000E+020
 30
1.0000000000000000E+020
  9
$PEXTMAX
 10
-1.0000000000000000E+020
 20
-1.0000000000000000E+020
 30
-1.0000000000000000E+020
  9
$PLIMMIN
 10
0.0
 20
0.0
  9
$PLIMMAX
 10
12.0
 20
9.0
  9
$UNITMODE
 70
     0
  9
$VISRETAIN
 70
     0
  9
$PLINEGEN
 70
     0
  9
$PSLTSCALE
 70
     0
  0
ENDSEC
  0
SECTION
  2
TABLES
  0
TABLE
  2
VPORT
 70
     1
  0
VPORT
  2
*ACTIVE
 70
     0
 10
0.0
 20
0.0
 11
1.0
 21
1.0
 12
137.495804153145
 22
105.14973110994291
 13
0.0
 23
0.0
 14
5.0
 24
5.0
 15
10.0
 25
10.0
 16
0.0
 26
0.0
 36
1.0
 17
0.0
 27
0.0
 37
0.0
 40
218.28380694200069
 41
1.9089595375722539
 42
50.0
 43
0.0
 44
0.0
 50
0.0
 51
0.0
 71
     0
 72
   100
 73
     1
 74
     0
 75
     0
 76
     0
 77
     0
 78
     0
  0
ENDTAB
  0
TABLE
  2
LTYPE
 70
     4
  0
LTYPE
  2
CONTINUOUS
 70
     0
  3
Solid Line
 72
    65
 73
     0
 40
0.0
  0
LTYPE
  2
CENTER
 70
     0
  3
____ _ ____ _ ____ _ ____ _ ____ _ ____ _ ____
 72
    65
 73
     4
 40
2.0
 49
1.25
 49
-0.25
 49
0.25
 49
-0.25
  0
LTYPE
  2
HIDDEN
 70
     0
  3
Hidden __ __ __ __ __ __ __ __ __ __ __ __ __ _
 72
    65
 73
     2
 40
0.375
 49
0.25
 49
-0.125
  0
LTYPE
  2
PHANTOM2
 70
     0
  3
___ _ _ ___ _ _ ___ _ _ ___ _ _
 72
    65
 73
     6
 40
1.25
 49
0.625
 49
-0.125
 49
0.125
 49
-0.125
 49
0.125
 49
-0.125
  0
ENDTAB
  0
TABLE
  2
LAYER
 70
     4
  0
LAYER
  2
0
 70
     0
 62
     7
  6
CONTINUOUS
  0
LAYER
  2
1
 70
     0
 62
     1
  6
CENTER
  0
LAYER
  2
2
 70
     0
 62
     2
  6
HIDDEN
  0
LAYER
  2
3
 70
     0
 62
     3
  6
CONTINUOUS
  0
ENDTAB
  0
TABLE
  2
STYLE
 70
     2
  0
STYLE
  2
STANDARD
 70
     0
 40
0.0
 41
1.0
 50
0.0
 71
     0
 42
0.2
  3
simplex
  4
bigfont
  0
STYLE
  2
STANDARD1
 70
     0
 40
0.0
 41
1.0
 50
0.0
 71
     0
 42
3.0
  3
txt
  4

  0
ENDTAB
  0
TABLE
  2
VIEW
 70
     0
  0
ENDTAB
  0
TABLE
  2
UCS
 70
     0
  0
ENDTAB
  0
TABLE
  2
APPID
 70
     3
  0
APPID
  2
ACAD
 70
     0
  0
APPID
  2
ACAD_MLEADERVER
 70
     0
  0
APPID
  2
ACAD_NAV_VCDISPLAY
 70
     0
  0
ENDTAB
  0
TABLE
  2
DIMSTYLE
 70
     1
  0
DIMSTYLE
  2
STANDARD
 70
     0
  3

  4

  5

  6

  7

 40
1.0
 41
0.18
 42
0.0625
 43
0.38
 44
0.18
 45
0.0
 46
0.0
 47
0.0
 48
0.0
140
0.18
141
0.09
142
0.0
143
25.399999999999999
144
1.0
145
0.0
146
1.0
147
0.09
 71
     0
 72
     0
 73
     1
 74
     1
 75
     0
 76
     0
 77
     0
 78
     0
170
     0
171
     2
172
     0
173
     0
174
     0
175
     0
176
     0
177
     0
178
     0
  0
ENDTAB
  0
ENDSEC
  0
SECTION
  2
BLOCKS
  0
BLOCK
  8
0
  2
$MODEL_SPACE
 70
     0
 10
0.0
 20
0.0
 30
0.0
  3
$MODEL_SPACE
  1

  0
ENDBLK
  5
7
  8
0
  0
BLOCK
 67
     1
  8
0
  2
$PAPER_SPACE
 70
     0
 10
0.0
 20
0.0
 30
0.0
  3
$PAPER_SPACE
  1

  0
ENDBLK
  5
A
 67
     1
  8
0
  0
ENDSEC
  0
SECTION
  2
ENTITIES
  0
LINE
  5
177
  8
0
 10
112.89506454972511
 20
103.0087811946543
 30
0.0
 11
141.7832736154497
 21
96.950794311825859
 31
0.0
  0
LINE
  5
17A
  8
0
 10
112.89506454972511
 20
119.27544469582401
 30
0.0
 11
141.7832736154497
 21
125.33343157865249
 31
0.0
  0
LINE
  5
17B
  8
1
 10
161.55954832577461
 20
111.14211294523911
 30
0.0
 11
108.8952295126372
 21
111.14211294523921
 31
0.0
  0
CIRCLE
  5
17D
  8
0
 10
70.481294052961857
 20
111.14211294523921
 30
0.0
 40
14.5
  0
ARC
  5
17F
  8
0
 10
113.0592567210697
 20
118.4924753919116
 30
0.0
 40
0.8
 50
101.8435613161331
 51
180.0
  0
ARC
  5
182
  8
0
 10
113.0592567210697
 20
103.7917504985668
 30
0.0
 40
0.8
 50
180.0
 51
258.15643868386678
  0
LINE
  5
185
  8
0
 10
112.2592567210697
 20
118.4924753919116
 30
0.0
 11
112.2592567210697
 21
103.7917504985668
 31
0.0
  0
ARC
  5
188
  8
0
 10
144.7592567210697
 20
111.14211294523921
 30
0.0
 40
14.5
 50
258.15643868386678
 51
101.8435613161331
  0
LINE
  5
18D
  8
1
 10
70.481294052961857
 20
130.64211294523921
 30
0.0
 11
70.481294052961857
 21
91.642112945239205
 31
0.0
  0
LINE
  5
18E
  8
1
 10
89.981294052961857
 20
111.14211294523921
 30
0.0
 11
50.981294052961857
 21
111.14211294523921
 31
0.0
  0
LINE
  5
18F
  8
1
 10
180.47348378544999
 20
111.14211294523921
 30
0.0
 11
219.47348378544999
 21
111.14211294523921
 31
0.0
  0
LINE
  5
190
  8
1
 10
199.97348378544999
 20
130.64211294523921
 30
0.0
 11
199.97348378544999
 21
91.642112945239205
 31
0.0
  0
CIRCLE
  5
191
  8
0
 10
199.97348378544999
 20
111.14211294523921
 30
0.0
 40
14.5
  0
CIRCLE
  5
195
  8
0
 10
70.481294052961857
 20
111.14211294523921
 30
0.0
 40
4.2500000000001128
  0
CIRCLE
  5
196
  8
3
 10
70.481294052961857
 20
111.14211294523921
 30
0.0
 40
4.0000000000001128
  0
CIRCLE
  5
197
  8
0
 10
70.481294052961857
 20
111.14211294523921
 30
0.0
 40
3.3865650000001888
  0
CIRCLE
  5
198
  8
0
 10
70.481294052961857
 20
111.14211294523921
 30
0.0
 40
8.0
  0
LINE
  5
1E0
  8
2
 10
115.7587567210697
 20
106.14211294523921
 30
0.0
 11
140.2592567210697
 21
106.14211294523921
 31
0.0
  0
LINE
  5
1E1
  8
2
 10
115.7587567210697
 20
106.7555479452391
 30
0.0
 11
142.2592567210697
 21
106.7555479452392
 31
0.0
  0
LINE
  5
1E2
  8
2
 10
115.7587567210697
 20
115.52867794523939
 30
0.0
 11
142.25925672106979
 21
115.52867794523929
 31
0.0
  0
LINE
  5
1E3
  8
2
 10
115.7587567210697
 20
116.1421129452393
 30
0.0
 11
140.2592567210697
 21
116.1421129452393
 31
0.0
  0
LINE
  5
1E5
  8
2
 10
112.2587567210697
 20
105.89211294523921
 30
0.0
 11
115.7592567210697
 21
105.89211294523921
 31
0.0
  0
LINE
  5
1E7
  8
2
 10
112.2587567210697
 20
116.3921129452393
 30
0.0
 11
115.7592567210697
 21
116.3921129452393
 31
0.0
  0
LINE
  5
1E8
  8
2
 10
142.2592567210697
 20
106.7555479452392
 30
0.0
 11
142.25925672106979
 21
115.52867794523929
 31
0.0
  0
LINE
  5
1E9
  8
2
 10
140.2592567210697
 20
106.14211294523921
 30
0.0
 11
140.25925672106979
 21
116.1421129452393
 31
0.0
  0
LINE
  5
1EA
  8
2
 10
115.7592567210697
 20
116.3921129452393
 30
0.0
 11
115.7592567210697
 21
105.89211294523921
 31
0.0
  0
TEXT
  5
29D
  8
0
 62
     3
 10
0.0
 20
0.0
 30
0.0
 40
10.0
  1
OVG2-50A
  7
STANDARD1
  0
ENDSEC
  0
EOF
