  0
SECTION
  2
HEADER
  9
$ACADVER
  1
AC1009
  9
$INSBASE
 10
0.0
 20
0.0
 30
0.0
  9
$EXTMIN
 10
0.0
 20
-2.960436562073669
 30
0.0
  9
$EXTMAX
 10
282.09956015656309
 20
166.45153240873401
 30
0.0
  9
$LIMMIN
 10
0.0
 20
0.0
  9
$LIMMAX
 10
275.0
 20
175.0
  9
$ORTHOMODE
 70
     1
  9
$REGENMODE
 70
     1
  9
$FILLMODE
 70
     1
  9
$QTEXTMODE
 70
     0
  9
$MIRRTEXT
 70
     0
  9
$DRAGMODE
 70
     2
  9
$LTSCALE
 40
10.0
  9
$OSMODE
 70
  3071
  9
$ATTMODE
 70
     1
  9
$TEXTSIZE
 40
0.2
  9
$TRACEWID
 40
0.05
  9
$TEXTSTYLE
  7
STANDARD
  9
$CLAYER
  8
0
  9
$CELTYPE
  6
BYLAYER
  9
$CECOLOR
 62
   256
  9
$DIMSCALE
 40
1.0
  9
$DIMASZ
 40
3.0
  9
$DIMEXO
 40
1.0
  9
$DIMDLI
 40
6.0
  9
$DIMRND
 40
0.0
  9
$DIMDLE
 40
0.0
  9
$DIMEXE
 40
1.0
  9
$DIMTP
 40
495.0
  9
$DIMTM
 40
0.0
  9
$DIMTXT
 40
3.0
  9
$DIMCEN
 40
0.0
  9
$DIMTSZ
 40
0.0
  9
$DIMTOL
 70
     0
  9
$DIMLIM
 70
     0
  9
$DIMTIH
 70
     0
  9
$DIMTOH
 70
     0
  9
$DIMSE1
 70
     0
  9
$DIMSE2
 70
     0
  9
$DIMTAD
 70
     1
  9
$DIMZIN
 70
     0
  9
$DIMBLK
  1

  9
$DIMASO
 70
     0
  9
$DIMSHO
 70
     0
  9
$DIMPOST
  1

  9
$DIMAPOST
  1

  9
$DIMALT
 70
     0
  9
$DIMALTD
 70
     2
  9
$DIMALTF
 40
25.399999999999999
  9
$DIMLFAC
 40
1.0
  9
$DIMTOFL
 70
     1
  9
$DIMTVP
 40
0.0
  9
$DIMTIX
 70
     1
  9
$DIMSOXD
 70
     0
  9
$DIMSAH
 70
     0
  9
$DIMBLK1
  1

  9
$DIMBLK2
  1

  9
$DIMSTYLE
  2
STANDARD
  9
$DIMCLRD
 70
     0
  9
$DIMCLRE
 70
     0
  9
$DIMCLRT
 70
     4
  9
$DIMTFAC
 40
1.0
  9
$DIMGAP
 40
1.0
  9
$LUNITS
 70
     2
  9
$LUPREC
 70
     4
  9
$SKETCHINC
 40
0.1
  9
$FILLETRAD
 40
0.0
  9
$AUNITS
 70
     0
  9
$AUPREC
 70
     0
  9
$MENU
  1
E:\r13\win\SUPPORT\ACAD
  9
$ELEVATION
 40
0.0
  9
$PELEVATION
 40
0.0
  9
$THICKNESS
 40
0.0
  9
$LIMCHECK
 70
     0
  9
$BLIPMODE
 70
     0
  9
$CHAMFERA
 40
0.0
  9
$CHAMFERB
 40
0.0
  9
$SKPOLY
 70
     0
  9
$TDCREATE
 40
2450653.5278402781
  9
$TDUPDATE
 40
2456597.5019836691
  9
$TDINDWG
 40
0.0602621991
  9
$TDUSRTIMER
 40
0.0602621991
  9
$USRTIMER
 70
     1
  9
$ANGBASE
 50
0.0
  9
$ANGDIR
 70
     0
  9
$PDMODE
 70
     0
  9
$PDSIZE
 40
0.0
  9
$PLINEWID
 40
0.0
  9
$COORDS
 70
     1
  9
$SPLFRAME
 70
     0
  9
$SPLINETYPE
 70
     6
  9
$SPLINESEGS
 70
     8
  9
$ATTDIA
 70
     0
  9
$ATTREQ
 70
     1
  9
$HANDLING
 70
     1
  9
$HANDSEED
  5
26C
  9
$SURFTAB1
 70
     6
  9
$SURFTAB2
 70
     6
  9
$SURFTYPE
 70
     6
  9
$SURFU
 70
     6
  9
$SURFV
 70
     6
  9
$UCSNAME
  2

  9
$UCSORG
 10
0.0
 20
0.0
 30
0.0
  9
$UCSXDIR
 10
1.0
 20
0.0
 30
0.0
  9
$UCSYDIR
 10
0.0
 20
1.0
 30
0.0
  9
$PUCSNAME
  2

  9
$PUCSORG
 10
0.0
 20
0.0
 30
0.0
  9
$PUCSXDIR
 10
1.0
 20
0.0
 30
0.0
  9
$PUCSYDIR
 10
0.0
 20
1.0
 30
0.0
  9
$USERI1
 70
     4
  9
$USERI2
 70
     1
  9
$USERI3
 70
     1
  9
$USERI4
 70
     0
  9
$USERI5
 70
     0
  9
$USERR1
 40
1.0
  9
$USERR2
 40
3.0
  9
$USERR3
 40
3.0
  9
$USERR4
 40
3.0
  9
$USERR5
 40
10.0
  9
$WORLDVIEW
 70
     1
  9
$SHADEDGE
 70
     3
  9
$SHADEDIF
 70
    70
  9
$TILEMODE
 70
     1
  9
$MAXACTVP
 70
    16
  9
$PLIMCHECK
 70
     0
  9
$PEXTMIN
 10
1.0000000000000000E+020
 20
1.0000000000000000E+020
 30
1.0000000000000000E+020
  9
$PEXTMAX
 10
-1.0000000000000000E+020
 20
-1.0000000000000000E+020
 30
-1.0000000000000000E+020
  9
$PLIMMIN
 10
0.0
 20
0.0
  9
$PLIMMAX
 10
12.0
 20
9.0
  9
$UNITMODE
 70
     0
  9
$VISRETAIN
 70
     0
  9
$PLINEGEN
 70
     0
  9
$PSLTSCALE
 70
     0
  0
ENDSEC
  0
SECTION
  2
TABLES
  0
TABLE
  2
VPORT
 70
     1
  0
VPORT
  2
*ACTIVE
 70
     0
 10
0.0
 20
0.0
 11
1.0
 21
1.0
 12
141.04978073509579
 22
105.14973110994291
 13
0.0
 23
0.0
 14
5.0
 24
5.0
 15
10.0
 25
10.0
 16
0.0
 26
0.0
 36
1.0
 17
0.0
 27
0.0
 37
0.0
 40
218.28380694200069
 41
1.9089595375722539
 42
50.0
 43
0.0
 44
0.0
 50
0.0
 51
0.0
 71
     0
 72
   100
 73
     1
 74
     0
 75
     0
 76
     0
 77
     0
 78
     0
  0
ENDTAB
  0
TABLE
  2
LTYPE
 70
     4
  0
LTYPE
  2
CONTINUOUS
 70
     0
  3
Solid Line
 72
    65
 73
     0
 40
0.0
  0
LTYPE
  2
CENTER
 70
     0
  3
____ _ ____ _ ____ _ ____ _ ____ _ ____ _ ____
 72
    65
 73
     4
 40
2.0
 49
1.25
 49
-0.25
 49
0.25
 49
-0.25
  0
LTYPE
  2
HIDDEN
 70
     0
  3
Hidden __ __ __ __ __ __ __ __ __ __ __ __ __ _
 72
    65
 73
     2
 40
0.375
 49
0.25
 49
-0.125
  0
LTYPE
  2
PHANTOM2
 70
     0
  3
___ _ _ ___ _ _ ___ _ _ ___ _ _
 72
    65
 73
     6
 40
1.25
 49
0.625
 49
-0.125
 49
0.125
 49
-0.125
 49
0.125
 49
-0.125
  0
ENDTAB
  0
TABLE
  2
LAYER
 70
     4
  0
LAYER
  2
0
 70
     0
 62
     7
  6
CONTINUOUS
  0
LAYER
  2
1
 70
     0
 62
     1
  6
CENTER
  0
LAYER
  2
2
 70
     0
 62
     2
  6
HIDDEN
  0
LAYER
  2
3
 70
     0
 62
     3
  6
CONTINUOUS
  0
ENDTAB
  0
TABLE
  2
STYLE
 70
     2
  0
STYLE
  2
STANDARD
 70
     0
 40
0.0
 41
1.0
 50
0.0
 71
     0
 42
0.2
  3
simplex
  4
bigfont
  0
STYLE
  2
STANDARD1
 70
     0
 40
0.0
 41
1.0
 50
0.0
 71
     0
 42
3.0
  3
txt
  4

  0
ENDTAB
  0
TABLE
  2
VIEW
 70
     0
  0
ENDTAB
  0
TABLE
  2
UCS
 70
     0
  0
ENDTAB
  0
TABLE
  2
APPID
 70
     3
  0
APPID
  2
ACAD
 70
     0
  0
APPID
  2
ACAD_MLEADERVER
 70
     0
  0
APPID
  2
ACAD_NAV_VCDISPLAY
 70
     0
  0
ENDTAB
  0
TABLE
  2
DIMSTYLE
 70
     1
  0
DIMSTYLE
  2
STANDARD
 70
     0
  3

  4

  5

  6

  7

 40
1.0
 41
0.18
 42
0.0625
 43
0.38
 44
0.18
 45
0.0
 46
0.0
 47
0.0
 48
0.0
140
0.18
141
0.09
142
0.0
143
25.399999999999999
144
1.0
145
0.0
146
1.0
147
0.09
 71
     0
 72
     0
 73
     1
 74
     1
 75
     0
 76
     0
 77
     0
 78
     0
170
     0
171
     2
172
     0
173
     0
174
     0
175
     0
176
     0
177
     0
178
     0
  0
ENDTAB
  0
ENDSEC
  0
SECTION
  2
BLOCKS
  0
BLOCK
  8
0
  2
$MODEL_SPACE
 70
     0
 10
0.0
 20
0.0
 30
0.0
  3
$MODEL_SPACE
  1

  0
ENDBLK
  5
7
  8
0
  0
BLOCK
 67
     1
  8
0
  2
$PAPER_SPACE
 70
     0
 10
0.0
 20
0.0
 30
0.0
  3
$PAPER_SPACE
  1

  0
ENDBLK
  5
A
 67
     1
  8
0
  0
ENDSEC
  0
SECTION
  2
ENTITIES
  0
LINE
  5
9B
  8
0
 10
179.54942554863399
 20
133.7701034724227
 30
0.0
 11
148.15332599221091
 21
139.8728870099188
 31
0.0
  0
LINE
  5
9E
  8
1
 10
221.24773095315791
 20
146.9515324087339
 30
0.0
 11
142.6960590796028
 21
146.95153240873401
 31
0.0
  0
LINE
  5
9F
  8
0
 10
179.54942554863399
 20
160.1329613450452
 30
0.0
 11
148.15332599221091
 21
154.03017780754919
 31
0.0
  0
ARC
  5
A0
  8
0
 10
148.24873048989909
 20
153.5393642158254
 30
0.0
 40
0.5
 50
100.9999999999998
 51
180.0
  0
CIRCLE
  5
A1
  8
0
 10
101.3442298761976
 20
146.95153240873401
 30
0.0
 40
14.5
  0
LINE
  5
A5
  8
0
 10
147.7487304898992
 20
146.9515324087339
 30
0.0
 11
147.7487304898992
 21
140.36370060164259
 31
0.0
  0
LINE
  5
A6
  8
0
 10
147.7487304898992
 20
146.95153240873401
 30
0.0
 11
147.7487304898992
 21
153.5393642158254
 31
0.0
  0
ARC
  5
A7
  8
0
 10
148.24873048989909
 20
140.36370060164259
 30
0.0
 40
0.5
 50
180.0
 51
259.00000000000023
  0
ARC
  5
A8
  8
0
 10
205.2487304898992
 20
146.9515324087339
 30
0.0
 40
11.5
 50
0.0
 51
50.463709568626108
  0
ARC
  5
A9
  8
0
 10
192.7487304898992
 20
123.451532408734
 30
0.0
 40
38.0
 50
59.174306476655751
 51
90.0
  0
ARC
  5
AA
  8
0
 10
193.2876732157452
 20
89.455804136813455
 30
0.0
 40
72.0
 50
90.428880999403205
 51
100.9999999999998
  0
ARC
  5
AB
  8
0
 10
208.7003305670886
 20
151.05383390359449
 30
0.0
 40
6.1392507768196687
 50
50.935569486393661
 51
55.00758254648467
  0
ARC
  5
AC
  8
0
 10
192.7487304898992
 20
170.45153240873401
 30
0.0
 40
38.0
 50
270.0
 51
300.82569352334423
  0
ARC
  5
B7
  8
0
 10
193.2876732157452
 20
204.44726068065449
 30
0.0
 40
72.0
 50
259.00000000000023
 51
269.57111900059681
  0
ARC
  5
B8
  8
0
 10
205.2487304898992
 20
146.9515324087339
 30
0.0
 40
11.5
 50
309.53629043137391
 51
0.0
  0
ARC
  5
B9
  8
0
 10
208.7003305670886
 20
142.84923091387341
 30
0.0
 40
6.1392507768196687
 50
304.99241745351532
 51
309.06443051360628
  0
LINE
  5
C1
  8
1
 10
101.3442298761976
 20
166.45153240873401
 30
0.0
 11
101.3442298761976
 21
127.451532408734
 31
0.0
  0
LINE
  5
C2
  8
1
 10
120.8442298761976
 20
146.95153240873401
 30
0.0
 11
81.84422987619763
 21
146.95153240873401
 31
0.0
  0
LINE
  5
C3
  8
1
 10
262.59956015656309
 20
166.45153240873401
 30
0.0
 11
262.59956015656309
 21
127.451532408734
 31
0.0
  0
CIRCLE
  5
C4
  8
0
 10
262.59956015656309
 20
146.95153240873401
 30
0.0
 40
14.5
  0
LINE
  5
C5
  8
1
 10
243.09956015656309
 20
146.95153240873401
 30
0.0
 11
282.09956015656309
 21
146.95153240873401
 31
0.0
  0
CIRCLE
  5
CA
  8
0
 10
101.3442298761976
 20
146.95153240873401
 30
0.0
 40
7.0
  0
LINE
  5
104
  8
2
 10
147.7487304898992
 20
152.2015324087341
 30
0.0
 11
162.7487304898992
 21
152.2015324087341
 31
0.0
  0
LINE
  5
105
  8
2
 10
147.7487304898992
 20
141.70153240873401
 30
0.0
 11
162.7487304898992
 21
141.70153240873401
 31
0.0
  0
LINE
  5
117
  8
2
 10
162.74873048989929
 20
151.9515324087341
 30
0.0
 11
192.74873048989929
 21
151.9515324087341
 31
0.0
  0
LINE
  5
118
  8
2
 10
162.7487304898992
 20
151.1847386587342
 30
0.0
 11
195.74873048989929
 21
151.18473865873409
 31
0.0
  0
LINE
  5
119
  8
2
 10
162.7487304898992
 20
142.7183261587339
 30
0.0
 11
195.74873048989929
 21
142.7183261587339
 31
0.0
  0
LINE
  5
11A
  8
2
 10
162.74873048989929
 20
141.95153240873401
 30
0.0
 11
192.74873048989929
 21
141.95153240873401
 31
0.0
  0
LINE
  5
11C
  8
2
 10
162.7487304898992
 20
141.70153240873401
 30
0.0
 11
162.74873048989929
 21
151.9515324087341
 31
0.0
  0
LINE
  5
11E
  8
2
 10
195.74873048989929
 20
142.7183261587339
 30
0.0
 11
195.74873048989929
 21
151.18473865873409
 31
0.0
  0
LINE
  5
11F
  8
2
 10
192.74873048989929
 20
141.95153240873401
 30
0.0
 11
192.74873048989929
 21
151.95153240873401
 31
0.0
  0
CIRCLE
  5
129
  8
0
 10
101.3442298761976
 20
146.95153240873401
 30
0.0
 40
5.2500000000001128
  0
CIRCLE
  5
12A
  8
3
 10
101.3442298761976
 20
146.95153240873401
 30
0.0
 40
5.0000000000001128
  0
CIRCLE
  5
12B
  8
0
 10
101.3442298761976
 20
146.95153240873401
 30
0.0
 40
4.233206250000193
  0
TEXT
  5
1DE
  8
0
 62
     3
 10
0.0
 20
0.0
 30
0.0
 40
10.0
  1
OVG1-70A
  7
STANDARD1
  0
ENDSEC
  0
EOF
