  0
SECTION
  2
HEADER
  9
$ACADVER
  1
AC1009
  9
$INSBASE
 10
0.0
 20
0.0
 30
0.0
  9
$EXTMIN
 10
0.0
 20
-2.960436562073669
 30
0.0
  9
$EXTMAX
 10
1315.74422605519
 20
999.59582334132438
 30
0.0
  9
$LIMMIN
 10
0.0
 20
0.0
  9
$LIMMAX
 10
1500.0
 20
1080.0
  9
$ORTHOMODE
 70
     1
  9
$REGENMODE
 70
     1
  9
$FILLMODE
 70
     1
  9
$QTEXTMODE
 70
     0
  9
$MIRRTEXT
 70
     0
  9
$DRAGMODE
 70
     2
  9
$LTSCALE
 40
40.0
  9
$OSMODE
 70
  3071
  9
$ATTMODE
 70
     1
  9
$TEXTSIZE
 40
0.2
  9
$TRACEWID
 40
0.05
  9
$TEXTSTYLE
  7
K50
  9
$CLAYER
  8
0
  9
$CELTYPE
  6
BYLAYER
  9
$CECOLOR
 62
   256
  9
$DIMSCALE
 40
4.0
  9
$DIMASZ
 40
3.0
  9
$DIMEXO
 40
2.0
  9
$DIMDLI
 40
0.3799999999999999
  9
$DIMRND
 40
0.0
  9
$DIMDLE
 40
0.0
  9
$DIMEXE
 40
2.0
  9
$DIMTP
 40
0.0
  9
$DIMTM
 40
0.0
  9
$DIMTXT
 40
3.2000000000000002
  9
$DIMCEN
 40
0.09
  9
$DIMTSZ
 40
0.0
  9
$DIMTOL
 70
     0
  9
$DIMLIM
 70
     0
  9
$DIMTIH
 70
     0
  9
$DIMTOH
 70
     0
  9
$DIMSE1
 70
     0
  9
$DIMSE2
 70
     0
  9
$DIMTAD
 70
     1
  9
$DIMZIN
 70
     0
  9
$DIMBLK
  1

  9
$DIMASO
 70
     1
  9
$DIMSHO
 70
     0
  9
$DIMPOST
  1

  9
$DIMAPOST
  1

  9
$DIMALT
 70
     0
  9
$DIMALTD
 70
     2
  9
$DIMALTF
 40
25.399999999999999
  9
$DIMLFAC
 40
1.0
  9
$DIMTOFL
 70
     0
  9
$DIMTVP
 40
1.6000000000000001
  9
$DIMTIX
 70
     1
  9
$DIMSOXD
 70
     0
  9
$DIMSAH
 70
     0
  9
$DIMBLK1
  1

  9
$DIMBLK2
  1

  9
$DIMSTYLE
  2
STANDARD
  9
$DIMCLRD
 70
     0
  9
$DIMCLRE
 70
     0
  9
$DIMCLRT
 70
     0
  9
$DIMTFAC
 40
1.0
  9
$DIMGAP
 40
0.09
  9
$LUNITS
 70
     2
  9
$LUPREC
 70
     4
  9
$SKETCHINC
 40
0.1
  9
$FILLETRAD
 40
0.0
  9
$AUNITS
 70
     0
  9
$AUPREC
 70
     0
  9
$MENU
  1
E:\r13\win\SUPPORT\ACAD
  9
$ELEVATION
 40
0.0
  9
$PELEVATION
 40
0.0
  9
$THICKNESS
 40
0.0
  9
$LIMCHECK
 70
     0
  9
$BLIPMODE
 70
     0
  9
$CHAMFERA
 40
0.0
  9
$CHAMFERB
 40
0.0
  9
$SKPOLY
 70
     0
  9
$TDCREATE
 40
2449840.598055555
  9
$TDUPDATE
 40
2456597.6963138431
  9
$TDINDWG
 40
0.0017386458
  9
$TDUSRTIMER
 40
0.0017386458
  9
$USRTIMER
 70
     1
  9
$ANGBASE
 50
0.0
  9
$ANGDIR
 70
     0
  9
$PDMODE
 70
     0
  9
$PDSIZE
 40
0.0
  9
$PLINEWID
 40
0.0
  9
$COORDS
 70
     1
  9
$SPLFRAME
 70
     0
  9
$SPLINETYPE
 70
     6
  9
$SPLINESEGS
 70
     8
  9
$ATTDIA
 70
     0
  9
$ATTREQ
 70
     1
  9
$HANDLING
 70
     1
  9
$HANDSEED
  5
35F
  9
$SURFTAB1
 70
     6
  9
$SURFTAB2
 70
     6
  9
$SURFTYPE
 70
     6
  9
$SURFU
 70
     6
  9
$SURFV
 70
     6
  9
$UCSNAME
  2

  9
$UCSORG
 10
0.0
 20
0.0
 30
0.0
  9
$UCSXDIR
 10
1.0
 20
0.0
 30
0.0
  9
$UCSYDIR
 10
0.0
 20
1.0
 30
0.0
  9
$PUCSNAME
  2

  9
$PUCSORG
 10
0.0
 20
0.0
 30
0.0
  9
$PUCSXDIR
 10
1.0
 20
0.0
 30
0.0
  9
$PUCSYDIR
 10
0.0
 20
1.0
 30
0.0
  9
$USERI1
 70
     0
  9
$USERI2
 70
     1
  9
$USERI3
 70
     1
  9
$USERI4
 70
     0
  9
$USERI5
 70
     0
  9
$USERR1
 40
0.0
  9
$USERR2
 40
0.0
  9
$USERR3
 40
0.0
  9
$USERR4
 40
0.0
  9
$USERR5
 40
0.0
  9
$WORLDVIEW
 70
     1
  9
$SHADEDGE
 70
     3
  9
$SHADEDIF
 70
    70
  9
$TILEMODE
 70
     1
  9
$MAXACTVP
 70
    16
  9
$PLIMCHECK
 70
     0
  9
$PEXTMIN
 10
1.0000000000000000E+020
 20
1.0000000000000000E+020
 30
1.0000000000000000E+020
  9
$PEXTMAX
 10
-1.0000000000000000E+020
 20
-1.0000000000000000E+020
 30
-1.0000000000000000E+020
  9
$PLIMMIN
 10
0.0
 20
0.0
  9
$PLIMMAX
 10
12.0
 20
9.0
  9
$UNITMODE
 70
     0
  9
$VISRETAIN
 70
     0
  9
$PLINEGEN
 70
     0
  9
$PSLTSCALE
 70
     0
  0
ENDSEC
  0
SECTION
  2
TABLES
  0
TABLE
  2
VPORT
 70
     1
  0
VPORT
  2
*ACTIVE
 70
     0
 10
0.0
 20
0.0
 11
1.0
 21
1.0
 12
749.97711356260947
 22
540.84485020887462
 13
0.0
 23
0.0
 14
40.0
 24
40.0
 15
40.0
 25
40.0
 16
0.0
 26
0.0
 36
1.0
 17
0.0
 27
0.0
 37
0.0
 40
1100.136497966404
 41
2.304913294797688
 42
50.0
 43
0.0
 44
0.0
 50
0.0
 51
0.0
 71
     0
 72
   500
 73
     1
 74
     0
 75
     0
 76
     0
 77
     0
 78
     2
  0
ENDTAB
  0
TABLE
  2
LTYPE
 70
     4
  0
LTYPE
  2
CONTINUOUS
 70
     0
  3
Solid Line
 72
    65
 73
     0
 40
0.0
  0
LTYPE
  2
CENTER
 70
     0
  3
____ _ ____ _ ____ _ ____ _ ____ _ ____ _ ____
 72
    65
 73
     4
 40
2.0
 49
1.25
 49
-0.25
 49
0.25
 49
-0.25
  0
LTYPE
  2
HIDDEN
 70
     0
  3
_ _ _ _ _ _ _ _ _ _ _ _ _ _ _ _ _ _ _ _ _ _ _
 72
    65
 73
     2
 40
0.375
 49
0.25
 49
-0.125
  0
LTYPE
  2
PHANTOM2
 70
     0
  3
___ _ _ ___ _ _ ___ _ _ ___ _ _
 72
    65
 73
     6
 40
1.25
 49
0.625
 49
-0.125
 49
0.125
 49
-0.125
 49
0.125
 49
-0.125
  0
ENDTAB
  0
TABLE
  2
LAYER
 70
     4
  0
LAYER
  2
0
 70
     0
 62
     7
  6
CONTINUOUS
  0
LAYER
  2
1
 70
     0
 62
     1
  6
CENTER
  0
LAYER
  2
3
 70
     0
 62
     3
  6
CONTINUOUS
  0
LAYER
  2
2
 70
     0
 62
     2
  6
HIDDEN
  0
ENDTAB
  0
TABLE
  2
STYLE
 70
     4
  0
STYLE
  2
STANDARD
 70
     0
 40
0.0
 41
1.0
 50
0.0
 71
     0
 42
0.2
  3
romans.shx
  4

  0
STYLE
  2
K70
 70
     0
 40
0.0
 41
1.0
 50
0.0
 71
     0
 42
0.2
  3
romans.shx
  4

  0
STYLE
  2
K50
 70
     0
 40
0.0
 41
1.0
 50
0.0
 71
     0
 42
0.2
  3
romans.shx
  4

  0
STYLE
  2
STANDARD1
 70
     0
 40
0.0
 41
1.0
 50
0.0
 71
     0
 42
3.0
  3
txt
  4

  0
ENDTAB
  0
TABLE
  2
VIEW
 70
     1
  0
VIEW
  2
ALL
 70
     0
 40
1080.0
 10
883.96638655462118
 20
540.0
 41
0.0
 11
0.0
 21
0.0
 31
1.0
 12
0.0
 22
0.0
 32
0.0
 42
0.0
 43
0.0
 44
0.0
 50
0.0
 71
     0
  0
ENDTAB
  0
TABLE
  2
UCS
 70
     0
  0
ENDTAB
  0
TABLE
  2
APPID
 70
     3
  0
APPID
  2
ACAD
 70
     0
  0
APPID
  2
ACAD_MLEADERVER
 70
     0
  0
APPID
  2
ACAD_NAV_VCDISPLAY
 70
     0
  0
ENDTAB
  0
TABLE
  2
DIMSTYLE
 70
     1
  0
DIMSTYLE
  2
STANDARD
 70
     0
  3

  4

  5

  6

  7

 40
1.0
 41
0.18
 42
0.0625
 43
0.38
 44
0.18
 45
0.0
 46
0.0
 47
0.0
 48
0.0
140
0.18
141
0.09
142
0.0
143
25.399999999999999
144
1.0
145
0.0
146
1.0
147
0.09
 71
     0
 72
     0
 73
     1
 74
     1
 75
     0
 76
     0
 77
     0
 78
     0
170
     0
171
     2
172
     0
173
     0
174
     0
175
     0
176
     0
177
     0
178
     0
  0
ENDTAB
  0
ENDSEC
  0
SECTION
  2
BLOCKS
  0
BLOCK
  8
0
  2
$MODEL_SPACE
 70
     0
 10
0.0
 20
0.0
 30
0.0
  3
$MODEL_SPACE
  1

  0
ENDBLK
  5
1C7
  8
0
  0
BLOCK
 67
     1
  8
0
  2
$PAPER_SPACE
 70
     0
 10
0.0
 20
0.0
 30
0.0
  3
$PAPER_SPACE
  1

  0
ENDBLK
  5
1C5
 67
     1
  8
0
  0
ENDSEC
  0
SECTION
  2
ENTITIES
  0
LINE
  5
38
  8
1
 10
344.08328770292331
 20
635.17136290967233
 30
0.0
 11
289.08328770292218
 21
635.17136290967233
 31
0.0
  0
ARC
  5
39
  8
0
 10
316.58328770292292
 20
535.17136290967198
 30
0.0
 40
29.999999999999549
 50
193.03393607355
 51
202.96606392645049
  0
ARC
  5
3A
  8
0
 10
283.4592413913611
 20
527.50340647073517
 30
0.0
 40
4.0
 50
13.03393607355004
 51
70.237589283579595
  0
ARC
  5
3B
  8
0
 10
285.27825960437798
 20
521.90504406270963
 30
0.0
 40
4.0
 50
325.76241071641982
 51
22.966063926450111
  0
LINE
  5
3C
  8
0
 10
284.81172369616422
 20
531.26781766177078
 30
0.0
 11
235.0864032009257
 21
549.13319226022634
 31
0.0
  0
ARC
  5
3D
  8
0
 10
231.70519743891811
 20
539.72216428263698
 30
0.0
 40
10.0
 50
70.237589283579695
 51
176.9309830782413
  0
ARC
  5
3E
  8
0
 10
316.58328770292292
 20
535.17136290967233
 30
0.0
 40
95.00000000000415
 50
176.93098307824141
 51
219.0690169217587
  0
LINE
  5
3F
  8
0
 10
288.5851061552105
 20
519.65454058809632
 30
0.0
 11
258.85748053947498
 21
475.97333887445421
 31
0.0
  0
ARC
  5
40
  8
0
 10
250.5903641623936
 20
481.5995975609876
 30
0.0
 40
10.0
 50
219.0690169217591
 51
325.76241071642062
  0
ARC
  5
41
  8
0
 10
316.58328770292292
 20
535.17136290967187
 30
0.0
 40
29.999999999999549
 50
121.03393607355
 51
130.9660639264504
  0
ARC
  5
42
  8
0
 10
299.05473453226909
 20
564.30467414858697
 30
0.0
 40
4.0
 50
301.03393607355002
 51
358.23758928357961
  0
ARC
  5
43
  8
0
 10
294.29248302443432
 20
560.84469589908804
 30
0.0
 40
4.0
 50
253.76241071641979
 51
310.96606392645009
  0
LINE
  5
44
  8
0
 10
303.0528423422935
 20
564.18165407127537
 30
0.0
 11
304.67785418643899
 21
616.99394851493412
 31
0.0
  0
ARC
  5
45
  8
0
 10
294.68258466137792
 20
617.30149870821299
 30
0.0
 40
10.0
 50
358.23758928357972
 51
104.9309830782413
  0
ARC
  5
46
  8
0
 10
316.58328770292297
 20
535.17136290967198
 30
0.0
 40
95.00000000000415
 50
104.9309830782414
 51
147.06901692175859
  0
LINE
  5
47
  8
0
 10
293.17399881195581
 20
557.00425411897515
 30
0.0
 11
242.44436576491529
 21
571.77867251056773
 31
0.0
  0
ARC
  5
48
  8
0
 10
245.2405762961115
 20
581.37977696084965
 30
0.0
 40
10.0
 50
147.06901692175899
 51
253.76241071642059
  0
ARC
  5
49
  8
0
 10
316.58328770292269
 20
535.17136290967198
 30
0.0
 40
29.999999999999549
 50
49.033936073550038
 51
58.966063926450417
  0
ARC
  5
4A
  8
0
 10
338.87409238141072
 20
560.84469589908781
 30
0.0
 40
4.0
 50
229.03393607355011
 51
286.23758928357961
  0
ARC
  5
4B
  8
0
 10
334.11184087357651
 20
564.30467414858754
 30
0.0
 40
4.0
 50
181.76241071641979
 51
238.96606392645009
  0
LINE
  5
4C
  8
0
 10
339.99257659388923
 20
557.00425411897504
 30
0.0
 11
390.72220964093071
 21
571.77867251056773
 31
0.0
  0
ARC
  5
4D
  8
0
 10
387.92599910973451
 20
581.37977696084988
 30
0.0
 40
10.0
 50
286.23758928357972
 51
32.930983078241269
  0
ARC
  5
4E
  8
0
 10
316.58328770292292
 20
535.17136290967187
 30
0.0
 40
95.00000000000415
 50
32.930983078241432
 51
75.069016921758674
  0
LINE
  5
4F
  8
0
 10
330.11373306355222
 20
564.18165407127617
 30
0.0
 11
328.48872121940673
 21
616.99394851493366
 31
0.0
  0
ARC
  5
50
  8
0
 10
338.48399074446769
 20
617.30149870821265
 30
0.0
 40
10.0
 50
75.06901692175903
 51
181.7624107164205
  0
ARC
  5
51
  8
0
 10
316.58328770292269
 20
535.17136290967221
 30
0.0
 40
29.999999999999549
 50
337.03393607355002
 51
346.96606392645037
  0
ARC
  5
52
  8
0
 10
347.88831580146717
 20
521.9050440627102
 30
0.0
 40
4.0
 50
157.03393607355
 51
214.23758928357961
  0
ARC
  5
53
  8
0
 10
349.70733401448501
 20
527.50340647073529
 30
0.0
 40
4.0
 50
109.76241071641979
 51
166.96606392645009
  0
LINE
  5
54
  8
0
 10
344.5814692506346
 20
519.65454058809667
 30
0.0
 11
374.3090948663708
 21
475.97333887445399
 31
0.0
  0
ARC
  5
55
  8
0
 10
382.57621124345212
 20
481.59959756098732
 30
0.0
 40
10.0
 50
214.23758928357969
 51
320.93098307824118
  0
ARC
  5
56
  8
0
 10
316.58328770292258
 20
535.17136290967198
 30
0.0
 40
95.00000000000415
 50
320.93098307824141
 51
3.0690169217586791
  0
LINE
  5
57
  8
0
 10
348.35485170968212
 20
531.26781766177089
 30
0.0
 11
398.08017220491951
 21
549.133192260226
 31
0.0
  0
ARC
  5
58
  8
0
 10
401.4613779669271
 20
539.72216428263687
 30
0.0
 40
10.0
 50
3.0690169217590348
 51
109.7624107164205
  0
ARC
  5
59
  8
0
 10
319.52652099774008
 20
501.29899396724011
 30
0.0
 40
4.0
 50
37.762410716419787
 51
94.966063926450104
  0
ARC
  5
5A
  8
0
 10
313.64005440810593
 20
501.29899396724062
 30
0.0
 40
4.0
 50
85.033936073550066
 51
142.23758928357961
  0
ARC
  5
5B
  8
0
 10
286.02644606113142
 20
455.8537770356732
 30
0.0
 40
10.0
 50
142.23758928357969
 51
248.9309830782413
  0
ARC
  5
5C
  8
0
 10
347.14012934471401
 20
455.85377703567349
 30
0.0
 40
10.0
 50
291.06901692175899
 51
37.762410716420533
  0
LINE
  5
5D
  8
0
 10
322.68874877421348
 20
503.74854810824212
 30
0.0
 11
355.0456987858974
 21
461.97766238817871
 31
0.0
  0
LINE
  5
5E
  8
0
 10
310.47782663163252
 20
503.74854810824257
 30
0.0
 11
278.12087661994798
 21
461.97766238817837
 31
0.0
  0
ARC
  5
5F
  8
0
 10
338.56451090449872
 20
634.26261290967216
 30
0.0
 40
10.0
 50
77.492713247682403
 51
177.6326201023868
  0
ARC
  5
60
  8
0
 10
294.60206450134689
 20
634.26261290967216
 30
0.0
 40
10.0
 50
2.3673798976131
 51
102.5072867523174
  0
ARC
  5
61
  8
0
 10
316.5832877029228
 20
635.17136290967233
 30
0.0
 40
12.0
 50
182.36737989761309
 51
357.63262010238691
  0
CIRCLE
  5
62
  8
0
 10
316.5832877029228
 20
535.17136290967198
 30
0.0
 40
18.999999999998352
  0
CIRCLE
  5
63
  8
0
 10
316.5832877029228
 20
635.17136290967221
 30
0.0
 40
5.052999999999999
  0
CIRCLE
  5
64
  8
3
 10
316.5832877029228
 20
635.17136290967221
 30
0.0
 40
6.0
  0
CIRCLE
  5
65
  8
0
 10
316.5832877029228
 20
635.17136290967221
 30
0.0
 40
7.5
  0
CIRCLE
  5
66
  8
0
 10
316.58328770292292
 20
535.17136290967221
 30
0.0
 40
124.9999999999971
  0
ARC
  5
67
  8
0
 10
316.58328770292292
 20
535.17136290967221
 30
0.0
 40
29.999999999999549
 50
265.03393607355002
 51
274.96606392645037
  0
ARC
  5
68
  8
0
 10
316.58328770292269
 20
535.17136290967221
 30
0.0
 40
95.00000000000415
 50
248.93098307824141
 51
291.0690169217587
  0
CIRCLE
  5
69
  8
0
 10
316.5832877029228
 20
535.17136290967221
 30
0.0
 40
111.5
  0
LINE
  5
6A
  8
0
 10
762.39605944263803
 20
608.56570931830595
 30
0.0
 11
775.91288820847069
 21
563.6113061948779
 31
0.0
  0
ARC
  5
6B
  8
2
 10
763.39605944263815
 20
509.17136290967272
 30
0.0
 40
4.0
 50
180.0
 51
269.99999999999841
  0
LINE
  5
6C
  8
2
 10
768.39605944263815
 20
565.17136290966607
 30
0.0
 11
763.39605944263826
 21
565.17136290966607
 31
0.0
  0
LINE
  5
6D
  8
2
 10
768.39605944261075
 20
505.17136290967272
 30
0.0
 11
763.39605944263815
 21
505.17136290967272
 31
0.0
  0
LINE
  5
6E
  8
0
 10
781.39605944263803
 20
560.17136290967198
 30
0.0
 11
781.39605944263803
 21
510.17136290967159
 31
0.0
  0
ARC
  5
6F
  8
0
 10
768.16580003065644
 20
545.17268843851707
 30
0.0
 40
20.0
 50
48.584637147500253
 51
67.210017164389726
  0
ARC
  5
70
  8
2
 10
768.16580003065644
 20
525.17003738082713
 30
0.0
 40
20.0
 50
270.65965919833837
 51
287.50201861753737
  0
LINE
  5
71
  8
2
 10
759.39605944263815
 20
509.17136290967272
 30
0.0
 11
759.39605944263826
 21
561.17136290966607
 31
0.0
  0
ARC
  5
72
  8
0
 10
749.89605944263792
 20
647.67136290966891
 30
0.0
 40
12.5
 50
0.0000000000002544
 51
179.99999999999969
  0
ARC
  5
73
  8
0
 10
749.89605944263792
 20
422.67136290967562
 30
0.0
 40
12.5
 50
180.0000000000002
 51
359.99999999999972
  0
LINE
  5
74
  8
0
 10
762.39605944263815
 20
647.67136290966891
 30
0.0
 11
762.39605944263803
 21
422.67136290967551
 31
0.0
  0
LINE
  5
75
  8
1
 10
749.89605944263792
 20
670.17136290967699
 30
0.0
 11
749.89605944263792
 21
390.17136290967471
 31
0.0
  0
LINE
  5
76
  8
1
 10
722.39605944263792
 20
635.1713629096721
 30
0.0
 11
777.39605944263815
 21
635.1713629096721
 31
0.0
  0
LINE
  5
77
  8
0
 10
799.39605944263815
 20
514.17136290967233
 30
0.0
 11
799.39605944263815
 21
556.17136290967233
 31
0.0
  0
LINE
  5
78
  8
0
 10
798.39605944263815
 20
557.17136290967233
 30
0.0
 11
781.39605944263815
 21
557.1713629096721
 31
0.0
  0
LINE
  5
79
  8
0
 10
798.39605944263815
 20
557.17136290967233
 30
0.0
 11
799.39605944263815
 21
556.17136290967233
 31
0.0
  0
LINE
  5
7A
  8
0
 10
798.39605944263815
 20
513.17136290967233
 30
0.0
 11
799.39605944263815
 21
514.17136290967233
 31
0.0
  0
LINE
  5
7B
  8
0
 10
798.39605944263815
 20
513.17136290967233
 30
0.0
 11
781.39605944263803
 21
513.17136290967233
 31
0.0
  0
LINE
  5
7C
  8
0
 10
737.39605944263792
 20
647.67136290966891
 30
0.0
 11
737.39605944263792
 21
422.67136290967551
 31
0.0
  0
LINE
  5
7D
  8
1
 10
717.39605944263781
 20
535.17136290967198
 30
0.0
 11
819.39605944263803
 21
535.17136290967198
 31
0.0
  0
CIRCLE
  5
7E
  8
0
 10
1170.74422605519
 20
635.17136290968858
 30
0.0
 40
7.5
  0
CIRCLE
  5
7F
  8
3
 10
1170.74422605519
 20
635.17136290968858
 30
0.0
 40
6.0
  0
LINE
  5
80
  8
1
 10
1198.2442260551941
 20
635.17136290968858
 30
0.0
 11
1143.24422605519
 21
635.17136290968858
 31
0.0
  0
CIRCLE
  5
81
  8
0
 10
1170.74422605519
 20
635.17136290968858
 30
0.0
 40
5.052999999999999
  0
ARC
  5
82
  8
0
 10
1170.74422605519
 20
635.17136290968858
 30
0.0
 40
12.0
 50
182.36737989761309
 51
357.63262010238691
  0
ARC
  5
83
  8
0
 10
1148.7630028536139
 20
634.26261290968876
 30
0.0
 40
10.0
 50
2.3673798976131
 51
102.5072867523174
  0
ARC
  5
84
  8
0
 10
1192.7254492567661
 20
634.26261290968876
 30
0.0
 40
10.0
 50
77.492713247682403
 51
177.6326201023868
  0
ARC
  5
85
  8
0
 10
1192.644929096735
 20
617.30149870822913
 30
0.0
 40
10.0
 50
75.06901692175903
 51
181.7624107164205
  0
ARC
  5
86
  8
0
 10
1170.74422605519
 20
535.17136290968836
 30
0.0
 40
95.00000000000415
 50
32.930983078241432
 51
75.069016921758674
  0
ARC
  5
87
  8
0
 10
1242.0869374620011
 20
581.37977696086637
 30
0.0
 40
10.0
 50
286.23758928357972
 51
32.930983078241269
  0
LINE
  5
88
  8
0
 10
1184.2746714158191
 20
564.18165407129254
 30
0.0
 11
1182.649659571674
 21
616.99394851495026
 31
0.0
  0
ARC
  5
89
  8
0
 10
1188.2727792258429
 20
564.30467414860414
 30
0.0
 40
4.0
 50
181.76241071641979
 51
238.96606392645009
  0
LINE
  5
8A
  8
0
 10
1194.1535149461561
 20
557.00425411899141
 30
0.0
 11
1244.883147993198
 21
571.77867251058433
 31
0.0
  0
ARC
  5
8B
  8
0
 10
1193.035030733678
 20
560.84469589910418
 30
0.0
 40
4.0
 50
229.03393607355011
 51
286.23758928357961
  0
ARC
  5
8C
  8
0
 10
1170.74422605519
 20
535.17136290968847
 30
0.0
 40
29.999999999999549
 50
49.033936073550038
 51
58.966063926450417
  0
ARC
  5
8D
  8
0
 10
1203.8682723667521
 20
527.50340647075177
 30
0.0
 40
4.0
 50
109.76241071641979
 51
166.96606392645009
  0
ARC
  5
8E
  8
0
 10
1202.049254153734
 20
521.90504406272646
 30
0.0
 40
4.0
 50
157.03393607355
 51
214.23758928357961
  0
ARC
  5
8F
  8
0
 10
1170.74422605519
 20
535.17136290968858
 30
0.0
 40
29.999999999999549
 50
337.03393607355002
 51
346.96606392645037
  0
ARC
  5
90
  8
0
 10
1236.7371495957191
 20
481.59959756100392
 30
0.0
 40
10.0
 50
214.23758928357969
 51
320.93098307824118
  0
LINE
  5
91
  8
0
 10
1198.742407602901
 20
519.65454058811315
 30
0.0
 11
1228.470033218638
 21
475.97333887447041
 31
0.0
  0
ARC
  5
92
  8
0
 10
1255.6223163191939
 20
539.72216428265347
 30
0.0
 40
10.0
 50
3.0690169217590348
 51
109.7624107164205
  0
LINE
  5
93
  8
0
 10
1202.515790061949
 20
531.26781766178749
 30
0.0
 11
1252.2411105571859
 21
549.13319226024259
 31
0.0
  0
ARC
  5
94
  8
0
 10
1170.74422605519
 20
535.17136290968836
 30
0.0
 40
95.00000000000415
 50
320.93098307824141
 51
3.0690169217586791
  0
ARC
  5
95
  8
0
 10
1170.74422605519
 20
535.17136290968858
 30
0.0
 40
29.999999999999549
 50
270.0
 51
274.96606392645037
  0
ARC
  5
96
  8
0
 10
1173.687459350007
 20
501.29899396725648
 30
0.0
 40
4.0
 50
37.762410716419787
 51
94.966063926450104
  0
ARC
  5
97
  8
0
 10
1170.74422605519
 20
535.17136290968858
 30
0.0
 40
95.00000000000415
 50
270.00000000000023
 51
291.0690169217587
  0
LINE
  5
98
  8
0
 10
1176.8496871264799
 20
503.7485481082586
 30
0.0
 11
1209.2066371381641
 21
461.9776623881952
 31
0.0
  0
ARC
  5
99
  8
0
 10
1201.3010676969809
 20
455.85377703568997
 30
0.0
 40
10.0
 50
291.06901692175899
 51
37.762410716420533
  0
TEXT
  5
9A
  8
0
 10
1229.109480303119
 20
550.78187566509257
 30
0.0
 40
6.3499999999999988
  1
2
 50
18.0
 41
0.7
  7
K70
 72
     1
 11
1231.122549929278
 21
551.43596163651955
 31
0.0
  0
TEXT
  5
9B
  8
0
 10
1233.615668502546
 20
552.24602496601835
 30
0.0
 40
6.3499999999999988
  1
5
 50
18.0
 41
0.7
  7
K70
 72
     1
 11
1235.6287381287041
 21
552.90011093744533
 31
0.0
  0
TEXT
  5
9C
  8
0
 10
1237.9045212649371
 20
553.63955770276198
 30
0.0
 40
6.3499999999999988
  1
0
 50
18.0
 41
0.7
  7
K70
 72
     1
 11
1239.917590891095
 21
554.29364367418896
 31
0.0
  0
TEXT
  5
9D
  8
0
 10
1222.3895491380231
 20
548.05894341548242
 30
0.0
 40
6.9000000000000004
  1
P
 50
18.0
 41
0.7
  7
K70
 72
     1
 11
1224.79572212425
 21
548.84075641125105
 31
0.0
  0
TEXT
  5
9E
  8
0
 10
1218.0282512299541
 20
546.64187182401133
 30
0.0
 40
6.9000000000000004
  1
R
 50
18.0
 41
0.7
  7
K70
 72
     1
 11
1220.4344242161801
 21
547.42368481977985
 31
0.0
  0
LINE
  5
9F
  8
0
 10
1228.0681778817379
 20
553.79704392402357
 30
0.0
 11
1225.928300720074
 21
553.10175568668024
 31
0.0
  0
ARC
  5
A0
  8
0
 10
1148.8435230136449
 20
617.30149870822913
 30
0.0
 40
10.0
 50
358.2375892835795
 51
104.930983078241
  0
ARC
  5
A1
  8
0
 10
1170.74422605519
 20
535.17136290968836
 30
0.0
 40
95.00000000000415
 50
104.9309830782413
 51
147.06901692175859
  0
LINE
  5
A2
  8
0
 10
1157.2137806945609
 20
564.18165407129254
 30
0.0
 11
1158.838792538706
 21
616.99394851495026
 31
0.0
  0
ARC
  5
A3
  8
0
 10
1153.2156728845359
 20
564.30467414860414
 30
0.0
 40
4.0
 50
301.03393607355002
 51
358.23758928358018
  0
ARC
  5
A4
  8
0
 10
1170.74422605519
 20
535.17136290968847
 30
0.0
 40
29.999999999999549
 50
121.0339360735496
 51
130.96606392645
  0
ARC
  5
A5
  8
0
 10
1148.453421376702
 20
560.84469589910418
 30
0.0
 40
4.0
 50
253.7624107164205
 51
310.96606392644998
  0
LINE
  5
A6
  8
0
 10
1147.3349371642239
 20
557.00425411899141
 30
0.0
 11
1096.605304117182
 21
571.77867251058433
 31
0.0
  0
ARC
  5
A7
  8
0
 10
1099.401514648378
 20
581.37977696086637
 30
0.0
 40
10.0
 50
147.0690169217587
 51
253.76241071642039
  0
LINE
  5
A8
  8
0
 10
1138.9726620484309
 20
531.26781766178749
 30
0.0
 11
1089.2473415531931
 21
549.13319226024259
 31
0.0
  0
ARC
  5
A9
  8
0
 10
1170.74422605519
 20
535.17136290968858
 30
0.0
 40
29.999999999999549
 50
193.0339360735496
 51
202.96606392645
  0
LINE
  5
AA
  8
0
 10
1142.746044507478
 20
519.65454058811315
 30
0.0
 11
1113.0184188917419
 21
475.97333887447041
 31
0.0
  0
ARC
  5
AB
  8
0
 10
1085.866135791186
 20
539.72216428265347
 30
0.0
 40
10.0
 50
70.237589283579496
 51
176.9309830782409
  0
ARC
  5
AC
  8
0
 10
1170.74422605519
 20
535.17136290968836
 30
0.0
 40
95.00000000000415
 50
176.9309830782413
 51
219.06901692175859
  0
ARC
  5
AD
  8
0
 10
1104.7513025146609
 20
481.59959756100392
 30
0.0
 40
10.0
 50
219.06901692175879
 51
325.76241071642039
  0
ARC
  5
AE
  8
0
 10
1140.1873844133979
 20
455.85377703568997
 30
0.0
 40
10.0
 50
142.2375892835795
 51
248.93098307824101
  0
LINE
  5
AF
  8
0
 10
1164.6387649838989
 20
503.7485481082586
 30
0.0
 11
1132.281814972215
 21
461.9776623881952
 31
0.0
  0
ARC
  5
B0
  8
0
 10
1170.74422605519
 20
535.17136290968858
 30
0.0
 40
95.00000000000415
 50
248.93098307824141
 51
269.99999999999989
  0
ARC
  5
B1
  8
0
 10
1167.800992760373
 20
501.29899396725648
 30
0.0
 40
4.0
 50
85.033936073549896
 51
142.23758928358021
  0
ARC
  5
B2
  8
0
 10
1170.74422605519
 20
535.17136290968858
 30
0.0
 40
29.999999999999549
 50
265.03393607354963
 51
270.00000000000011
  0
ARC
  5
B3
  8
0
 10
1139.439197956646
 20
521.90504406272646
 30
0.0
 40
4.0
 50
325.76241071642039
 51
22.966063926449959
  0
ARC
  5
B4
  8
0
 10
1137.6201797436279
 20
527.50340647075177
 30
0.0
 40
4.0
 50
13.03393607354989
 51
70.237589283580235
  0
CIRCLE
  5
B5
  8
0
 10
1170.74422605519
 20
535.17136290967198
 30
0.0
 40
125.0
  0
CIRCLE
  5
B6
  8
0
 10
1170.74422605519
 20
535.17136290967198
 30
0.0
 40
111.5
  0
LINE
  5
B7
  8
1
 10
1315.74422605519
 20
535.17136290967198
 30
0.0
 11
1025.74422605519
 21
535.17136290967198
 31
0.0
  0
LINE
  5
B8
  8
1
 10
1170.74422605519
 20
680.17136290967198
 30
0.0
 11
1170.74422605519
 21
390.1713629096721
 31
0.0
  0
CIRCLE
  5
B9
  8
0
 10
1170.74422605519
 20
535.17136290967221
 30
0.0
 40
25.0
  0
CIRCLE
  5
BA
  8
0
 10
1170.74422605519
 20
535.17136290967221
 30
0.0
 40
22.0
  0
CIRCLE
  5
BB
  8
0
 10
1170.74422605519
 20
535.17136290967221
 30
0.0
 40
21.0
  0
LINE
  5
BC
  8
1
 10
461.58328770292002
 20
535.17136290967221
 30
0.0
 11
171.5832877029257
 21
535.17136290967221
 31
0.0
  0
LINE
  5
BD
  8
1
 10
316.58328770292292
 20
680.17136290966937
 30
0.0
 11
316.58328770292292
 21
390.17136290967511
 31
0.0
  0
ARC
  5
C7
  8
2
 10
763.39605944263826
 20
561.17136290966607
 30
0.0
 40
4.0
 50
90.0
 51
179.99999999999989
  0
LINE
  5
C8
  8
0
 10
798.39605944263815
 20
557.17136290967233
 30
0.0
 11
798.39605944263815
 21
513.17136290967233
 31
0.0
  0
POLYLINE
  5
C9
  8
0
 66
     1
 10
0.0
 20
0.0
 30
0.0
  0
VERTEX
  5
CA
  8
0
 10
768.39605944263815
 20
561.91144280217054
 30
0.0
 42
0.0233537825489853
  0
VERTEX
  5
CB
  8
0
 10
771.49346881567681
 20
562.05619419938705
 30
0.0
 42
0.0322617037692372
  0
VERTEX
  5
CC
  8
0
 10
773.71126003597647
 20
562.4093212628037
 30
0.0
 42
0.0694439019490547
 70
     2
 50
12.7425942281312
  0
VERTEX
  5
CD
  8
0
 10
775.70212867244902
 20
563.16111247774711
 30
0.0
 42
0.3276306284829465
 50
12.7425942281312
  0
VERTEX
  5
CE
  8
0
 10
775.91288820837963
 20
563.6113061948779
 30
0.0
 42
0.2743549688810195
  0
SEQEND
  5
CF
  8
0
  0
ARC
  5
D0
  8
2
 10
768.16580003065644
 20
545.17268843851707
 30
0.0
 40
20.0
 50
67.210017164389726
 51
89.340340801661554
  0
LINE
  5
D1
  8
0
 10
762.39605944263803
 20
479.89816274503693
 30
0.0
 11
775.46516729186612
 21
508.95161066623041
 31
0.0
  0
POLYLINE
  5
D2
  8
0
 66
     1
 10
0.0
 20
0.0
 30
0.0
  0
VERTEX
  5
D3
  8
0
 10
775.77942130583006
 20
512.89639475556078
 30
0.0
 42
0.0378513059527604
  0
VERTEX
  5
D4
  8
0
 10
775.30884338957537
 20
515.11254385196787
 30
0.0
 42
0.0828228282431443
  0
VERTEX
  5
D5
  8
0
 10
773.71126003597647
 20
518.41837808966773
 30
0.0
 42
0.1067570954106749
 70
     2
 50
125.26188808633
  0
VERTEX
  5
D6
  8
0
 10
771.12613855019913
 20
520.79142632822345
 30
0.0
 42
0.1332664293095277
 50
125.26188808633
  0
VERTEX
  5
D7
  8
0
 10
768.39605944263815
 20
521.5322389048041
 30
0.0
 42
0.1332664293095421
  0
SEQEND
  5
D8
  8
0
  0
POLYLINE
  5
D9
  8
0
 66
     1
 10
0.0
 20
0.0
 30
0.0
  0
VERTEX
  5
DA
  8
0
 10
768.39605944263815
 20
521.5322389048041
 30
0.0
 42
0.1435672647906566
  0
VERTEX
  5
DB
  8
0
 10
765.94412345868545
 20
520.81338675562995
 30
0.0
 42
0.1071767114426694
  0
VERTEX
  5
DC
  8
0
 10
763.54197537595769
 20
518.41837808966773
 30
0.0
 42
0.055908682048512
 70
     2
 50
237.14957155011831
  0
VERTEX
  5
DD
  8
0
 10
762.39605944263803
 20
516.11503785986724
 30
0.0
 42
0.0654285487639601
 50
237.14957155011831
  0
SEQEND
  5
DE
  8
0
  0
ARC
  5
DF
  8
0
 10
768.16580003065644
 20
525.17003738082713
 30
0.0
 40
20.0
 50
287.50201861753737
 51
311.41536285249981
  0
LINE
  5
E0
  8
0
 10
762.39605944263803
 20
535.94553390059809
 30
0.0
 11
764.39150152276954
 21
533.16658513063442
 31
0.0
  0
LINE
  5
E1
  8
0
 10
762.39605944263803
 20
563.74960770898213
 30
0.0
 11
772.11459523741814
 21
554.79353875994275
 31
0.0
  0
POLYLINE
  5
E2
  8
0
 66
     1
 10
0.0
 20
0.0
 30
0.0
  0
VERTEX
  5
E3
  8
0
 10
764.39150152276954
 20
533.16658513063646
 30
0.0
 42
0.0622449701770243
 70
     2
 50
296.21450750258708
  0
VERTEX
  5
E4
  8
0
 10
766.07852725378132
 20
531.34502064189951
 30
0.0
 42
0.1766527411489686
 50
296.21450750258708
  0
VERTEX
  5
E5
  8
0
 10
768.39605944263815
 20
530.49984923382385
 30
0.0
 42
0.1766527411489604
  0
SEQEND
  5
E6
  8
0
  0
POLYLINE
  5
E7
  8
0
 66
     1
 10
0.0
 20
0.0
 30
0.0
  0
VERTEX
  5
E8
  8
0
 10
768.39605944263815
 20
530.49984923382385
 30
0.0
 42
0.1652534876442858
  0
VERTEX
  5
E9
  8
0
 10
770.98459972577746
 20
531.37939923364752
 30
0.0
 42
0.1056981601202317
  0
VERTEX
  5
EA
  8
0
 10
773.71126003597647
 20
534.58337337559021
 30
0.0
 42
0.0687973997356378
 70
     2
 50
61.668715426143748
  0
VERTEX
  5
EB
  8
0
 10
775.29314582839936
 20
538.82332108118908
 30
0.0
 42
0.0355434240506591
 50
61.668715426143748
  0
VERTEX
  5
EC
  8
0
 10
775.83530350405101
 20
542.44336493957883
 30
0.0
 42
0.0549846953440544
  0
SEQEND
  5
ED
  8
0
  0
POLYLINE
  5
EE
  8
0
 66
     1
 10
0.0
 20
0.0
 30
0.0
  0
VERTEX
  5
EF
  8
0
 10
775.80684769750133
 20
546.43904640051073
 30
0.0
 42
0.0373315443023482
  0
VERTEX
  5
F0
  8
0
 10
775.30134698778875
 20
549.20568675293487
 30
0.0
 42
0.0769004073601363
  0
VERTEX
  5
F1
  8
0
 10
773.71126003597635
 20
552.87573478084994
 30
0.0
 42
0.0660606784103543
 70
     2
 50
122.2200090642626
  0
VERTEX
  5
F2
  8
0
 10
772.11459523741814
 20
554.79353875994047
 30
0.0
 42
0.1700023876473516
 50
122.2200090642626
  0
SEQEND
  5
F3
  8
0
  0
POLYLINE
  5
F4
  8
0
 66
     1
 10
0.0
 20
0.0
 30
0.0
  0
VERTEX
  5
F5
  8
0
 10
763.46751521284375
 20
562.7622129042046
 30
0.0
 42
0.0040042693569871
  0
VERTEX
  5
F6
  8
0
 10
763.54197537595769
 20
562.7311584112399
 30
0.0
 42
0.0550119729336432
 70
     2
 50
337.81969814859548
  0
VERTEX
  5
F7
  8
0
 10
765.59857722209563
 20
562.14598964779702
 30
0.0
 42
0.0418476477636255
 50
337.81969814859548
  0
VERTEX
  5
F8
  8
0
 10
768.39605944263815
 20
561.91144280217054
 30
0.0
 42
0.0418476477636221
  0
SEQEND
  5
F9
  8
0
  0
LINE
  5
FA
  8
0
 10
798.39605944263815
 20
832.59582334132688
 30
0.0
 11
798.39605944263815
 21
876.59582334132676
 31
0.0
  0
LINE
  5
FB
  8
1
 10
717.39605944263781
 20
854.5958233413271
 30
0.0
 11
819.39605944263803
 21
854.5958233413271
 31
0.0
  0
LINE
  5
FC
  8
0
 10
737.39605944263792
 20
742.09582334133017
 30
0.0
 11
737.39605944263792
 21
967.09582334132358
 31
0.0
  0
LINE
  5
FD
  8
0
 10
799.39605944263815
 20
875.59582334132676
 30
0.0
 11
799.39605944263815
 21
833.59582334132676
 31
0.0
  0
LINE
  5
FE
  8
1
 10
749.89605944263792
 20
719.5958233413221
 30
0.0
 11
749.89605944263792
 21
999.59582334132438
 31
0.0
  0
LINE
  5
FF
  8
0
 10
762.39605944263815
 20
742.09582334133017
 30
0.0
 11
762.39605944263803
 21
967.09582334132358
 31
0.0
  0
ARC
  5
100
  8
0
 10
749.89605944263792
 20
967.09582334132335
 30
0.0
 40
12.5
 50
0.0000000000002685
 51
179.9999999999998
  0
ARC
  5
101
  8
0
 10
749.89605944263792
 20
742.09582334133017
 30
0.0
 40
12.5
 50
180.00000000000031
 51
359.99999999999972
  0
LINE
  5
102
  8
2
 10
759.39605944263815
 20
880.59582334132642
 30
0.0
 11
759.39605944263826
 21
828.59582334133302
 31
0.0
  0
LINE
  5
103
  8
0
 10
781.39605944263803
 20
829.5958233413271
 30
0.0
 11
781.39605944263803
 21
879.59582334132745
 31
0.0
  0
POLYLINE
  5
104
  8
0
 66
     1
 10
0.0
 20
0.0
 30
0.0
  0
VERTEX
  5
105
  8
0
 10
774.54873715129452
 20
192.8823280353563
 30
0.0
 42
0.0505126198924368
 70
     2
 50
50.40140842431218
  0
VERTEX
  5
106
  8
0
 10
775.32140745242646
 20
194.56243197159409
 30
0.0
 42
0.0827158962560239
 50
50.40140842431218
  0
VERTEX
  5
107
  8
0
 10
775.91288820847069
 20
198.11334490924301
 30
0.0
 42
0.082715896255991
  0
SEQEND
  5
108
  8
0
  0
POLYLINE
  5
109
  8
0
 66
     1
 10
0.0
 20
0.0
 30
0.0
  0
VERTEX
  5
10A
  8
0
 10
768.39605944263815
 20
211.0323507266904
 30
0.0
 42
0.1670617146136003
  0
VERTEX
  5
10B
  8
0
 10
766.03945088587398
 20
210.22234566369531
 30
0.0
 42
0.1054483411535438
  0
VERTEX
  5
10C
  8
0
 10
763.54197537595041
 20
207.2484615289485
 30
0.0
 42
0.0361064897834233
 70
     2
 50
242.0153733148874
  0
VERTEX
  5
10D
  8
0
 10
762.64176174792965
 20
205.2121151180333
 30
0.0
 42
0.0542141372540676
 50
242.0153733148874
  0
SEQEND
  5
10E
  8
0
  0
LINE
  5
10F
  8
0
 10
762.39605944263815
 20
204.52639384337419
 30
0.0
 11
762.64176174792965
 21
205.2121151180485
 31
0.0
  0
LINE
  5
110
  8
0
 10
762.39605944263815
 20
172.23538838567879
 30
0.0
 11
774.54873715129452
 21
192.88232803533461
 31
0.0
  0
POLYLINE
  5
111
  8
0
 66
     1
 10
0.0
 20
0.0
 30
0.0
  0
VERTEX
  5
112
  8
0
 10
775.91288820847069
 20
198.11334490924301
 30
0.0
 42
0.0591932482740621
  0
VERTEX
  5
113
  8
0
 10
775.29688872457461
 20
203.2984051801995
 30
0.0
 42
0.0727440279551554
  0
VERTEX
  5
114
  8
0
 10
773.71126003597647
 20
207.2484615289485
 30
0.0
 42
0.1066938847241266
 70
     2
 50
120.19267093926111
  0
VERTEX
  5
115
  8
0
 10
770.85945905009953
 20
210.37455997691021
 30
0.0
 42
0.1807973155212762
 50
120.19267093926111
  0
VERTEX
  5
116
  8
0
 10
768.39605944263815
 20
211.0323507267014
 30
0.0
 42
0.1559121509251523
  0
SEQEND
  5
117
  8
0
  0
ARC
  5
118
  8
2
 10
763.39605944263815
 20
189.746902478018
 30
0.0
 40
4.0
 50
180.0
 51
270.0
  0
LINE
  5
119
  8
2
 10
768.39605944261075
 20
185.746902478018
 30
0.0
 11
763.39605944263815
 21
185.746902478018
 31
0.0
  0
LINE
  5
11A
  8
0
 10
781.39605944263803
 20
240.7469024780174
 30
0.0
 11
781.39605944263803
 21
190.74690247801689
 31
0.0
  0
LINE
  5
11B
  8
2
 10
759.39605944263815
 20
189.746902478018
 30
0.0
 11
759.39605944263826
 21
241.74690247801141
 31
0.0
  0
ARC
  5
11C
  8
0
 10
749.89605944263792
 20
328.24690247801419
 30
0.0
 40
12.5
 50
0.0000000000002544
 51
179.99999999999969
  0
ARC
  5
11D
  8
0
 10
749.89605944263792
 20
103.2469024780209
 30
0.0
 40
12.5
 50
180.0000000000002
 51
359.99999999999972
  0
LINE
  5
11E
  8
0
 10
762.39605944263815
 20
328.24690247801419
 30
0.0
 11
762.39605944263803
 21
103.2469024780208
 31
0.0
  0
LINE
  5
11F
  8
1
 10
749.89605944263792
 20
350.74690247802238
 30
0.0
 11
749.89605944263792
 21
70.74690247801999
 31
0.0
  0
LINE
  5
120
  8
0
 10
799.39605944263815
 20
194.7469024780176
 30
0.0
 11
799.39605944263815
 21
236.7469024780176
 31
0.0
  0
LINE
  5
121
  8
0
 10
798.39605944263815
 20
193.7469024780176
 30
0.0
 11
799.39605944263815
 21
194.7469024780176
 31
0.0
  0
LINE
  5
122
  8
0
 10
798.39605944263815
 20
193.7469024780176
 30
0.0
 11
781.39605944263803
 21
193.7469024780176
 31
0.0
  0
LINE
  5
123
  8
0
 10
737.39605944263792
 20
328.24690247801419
 30
0.0
 11
737.39605944263792
 21
103.2469024780208
 31
0.0
  0
LINE
  5
124
  8
1
 10
717.39605944263781
 20
215.7469024780174
 30
0.0
 11
819.39605944263803
 21
215.7469024780174
 31
0.0
  0
LINE
  5
125
  8
0
 10
798.39605944263815
 20
237.7469024780176
 30
0.0
 11
798.39605944263815
 21
193.7469024780176
 31
0.0
  0
ARC
  5
126
  8
2
 10
768.16580003065644
 20
205.7455769491724
 30
0.0
 40
20.0
 50
270.65965919826021
 51
276.48112177121533
  0
ARC
  5
127
  8
0
 10
768.16580003065644
 20
205.7455769491724
 30
0.0
 40
20.0
 50
276.48112177121533
 51
311.41536285249981
  0
ARC
  5
128
  8
0
 10
768.16580003065644
 20
225.74822800686229
 30
0.0
 40
20.0
 50
48.58463714750026
 51
83.518878228784715
  0
ARC
  5
129
  8
2
 10
768.16580003065644
 20
225.74822800686229
 30
0.0
 40
20.0
 50
83.518878228784715
 51
89.340340801739785
  0
LINE
  5
12A
  8
0
 10
798.39605944263815
 20
237.7469024780172
 30
0.0
 11
781.39605944263803
 21
237.7469024780172
 31
0.0
  0
LINE
  5
12B
  8
0
 10
798.39605944263815
 20
237.7469024780172
 30
0.0
 11
799.39605944263815
 21
236.74690247801709
 31
0.0
  0
LINE
  5
12C
  8
2
 10
768.39605944261075
 20
245.74690247801669
 30
0.0
 11
763.39605944263815
 21
245.74690247801669
 31
0.0
  0
ARC
  5
12D
  8
2
 10
763.39605944263815
 20
241.74690247801669
 30
0.0
 40
4.0
 50
90.000000000000014
 51
180.0
  0
POLYLINE
  5
12E
  8
0
 66
     1
 10
0.0
 20
0.0
 30
0.0
  0
VERTEX
  5
12F
  8
0
 10
775.91288820847069
 20
233.3804600467918
 30
0.0
 42
-0.0591932482740621
  0
VERTEX
  5
130
  8
0
 10
775.29688872457461
 20
228.1953997758352
 30
0.0
 42
-0.0727440279551554
  0
VERTEX
  5
131
  8
0
 10
773.71126003597647
 20
224.24534342708631
 30
0.0
 42
-0.1066938847241266
 70
     2
 50
239.80732906073891
  0
VERTEX
  5
132
  8
0
 10
770.85945905009953
 20
221.1192449791246
 30
0.0
 42
-0.1807973155212762
  0
VERTEX
  5
133
  8
0
 10
768.39605944263815
 20
220.4614542293333
 30
0.0
 42
-0.1559121509251523
  0
SEQEND
  5
134
  8
0
  0
LINE
  5
135
  8
0
 10
762.39605944263815
 20
259.25841657035579
 30
0.0
 11
774.54873715129452
 21
238.61147692070011
 31
0.0
  0
LINE
  5
136
  8
0
 10
762.39605944263815
 20
226.96741111266061
 30
0.0
 11
762.64176174792965
 21
226.28168983798619
 31
0.0
  0
POLYLINE
  5
137
  8
0
 66
     1
 10
0.0
 20
0.0
 30
0.0
  0
VERTEX
  5
138
  8
0
 10
768.39605944263815
 20
220.46145422934441
 30
0.0
 42
-0.1670617146136003
  0
VERTEX
  5
139
  8
0
 10
766.03945088587398
 20
221.2714592923395
 30
0.0
 42
-0.1054483411535438
  0
VERTEX
  5
13A
  8
0
 10
763.54197537595041
 20
224.24534342708631
 30
0.0
 42
-0.0361064897834233
 70
     2
 50
117.9846266851127
  0
VERTEX
  5
13B
  8
0
 10
762.64176174792965
 20
226.28168983800151
 30
0.0
 42
-0.0542141372540676
  0
SEQEND
  5
13C
  8
0
  0
POLYLINE
  5
13D
  8
0
 66
     1
 10
0.0
 20
0.0
 30
0.0
  0
VERTEX
  5
13E
  8
0
 10
774.54873715129452
 20
238.6114769206784
 30
0.0
 42
-0.0505126198924368
 70
     2
 50
309.59859157568781
  0
VERTEX
  5
13F
  8
0
 10
775.32140745242646
 20
236.9313729844406
 30
0.0
 42
-0.0827158962560239
  0
VERTEX
  5
140
  8
0
 10
775.91288820847069
 20
233.3804600467918
 30
0.0
 42
-0.082715896255991
  0
SEQEND
  5
141
  8
0
  0
ARC
  5
142
  8
2
 10
768.16580003065644
 20
864.59714887017196
 30
0.0
 40
20.0
 50
67.211849424932907
 51
89.340340801739785
  0
LINE
  5
143
  8
0
 10
798.39605944263815
 20
876.59582334132676
 30
0.0
 11
781.39605944263803
 21
876.59582334132676
 31
0.0
  0
LINE
  5
144
  8
0
 10
798.39605944263815
 20
876.59582334132676
 30
0.0
 11
799.39605944263815
 21
875.59582334132676
 31
0.0
  0
LINE
  5
145
  8
2
 10
768.39605944261075
 20
884.59582334132654
 30
0.0
 11
763.39605944263815
 21
884.59582334132654
 31
0.0
  0
ARC
  5
146
  8
2
 10
763.39605944263815
 20
880.59582334132642
 30
0.0
 40
4.0
 50
90.000000000000014
 51
180.0
  0
POLYLINE
  5
147
  8
0
 66
     1
 10
0.0
 20
0.0
 30
0.0
  0
VERTEX
  5
148
  8
0
 10
775.91288820847069
 20
883.12751883018143
 30
0.0
 42
-0.1010927548382086
  0
VERTEX
  5
149
  8
0
 10
775.34406786792715
 20
880.34291204719545
 30
0.0
 42
-0.0995311171035952
  0
VERTEX
  5
14A
  8
0
 10
773.71126003597647
 20
877.96345315317706
 30
0.0
 42
-0.097399406342826
 70
     2
 50
224.17372148930181
  0
VERTEX
  5
14B
  8
0
 10
771.06781218584285
 20
876.24364973881006
 30
0.0
 42
-0.1139717207482245
  0
VERTEX
  5
14C
  8
0
 10
768.39605944263815
 20
875.82442711276622
 30
0.0
 42
-0.0959438503452841
  0
SEQEND
  5
14D
  8
0
  0
LINE
  5
14E
  8
0
 10
762.39605944263826
 20
925.34632158915565
 30
0.0
 11
775.55717861516587
 21
885.34669913014238
 31
0.0
  0
POLYLINE
  5
14F
  8
0
 66
     1
 10
0.0
 20
0.0
 30
0.0
  0
VERTEX
  5
150
  8
0
 10
775.55717861516587
 20
885.34669913015921
 30
0.0
 42
-0.0796360971234759
  0
VERTEX
  5
151
  8
0
 10
775.91288820847069
 20
883.12751883018143
 30
0.0
 42
-0.1010927548382086
  0
SEQEND
  5
152
  8
0
  0
LINE
  5
153
  8
0
 10
762.39605944263815
 20
867.52193246057482
 30
0.0
 11
768.39605944263815
 21
868.19612213742619
 31
0.0
  0
POLYLINE
  5
154
  8
0
 66
     1
 10
0.0
 20
0.0
 30
0.0
  0
VERTEX
  5
155
  8
0
 10
768.39605944263815
 20
868.19612213740857
 30
0.0
 42
-0.1621860283554694
  0
VERTEX
  5
156
  8
0
 10
770.99827419141661
 20
867.32923348131101
 30
0.0
 42
-0.1060806816701391
  0
VERTEX
  5
157
  8
0
 10
773.71126003597647
 20
864.21268684619963
 30
0.0
 42
-0.025137401486799
 70
     2
 50
298.9292469003467
  0
VERTEX
  5
158
  8
0
 10
774.41288820847069
 20
862.77727318164875
 30
0.0
 42
-0.0563234015197202
  0
SEQEND
  5
159
  8
0
  0
POLYLINE
  5
15A
  8
0
 66
     1
 10
0.0
 20
0.0
 30
0.0
  0
VERTEX
  5
15B
  8
0
 10
768.39605944263803
 20
875.82442711277645
 30
0.0
 42
-0.1041400564558798
  0
VERTEX
  5
15C
  8
0
 10
765.78991468736911
 20
876.37318661654615
 30
0.0
 42
-0.1006544273591242
  0
VERTEX
  5
15D
  8
0
 10
763.5419753759503
 20
877.96345315317706
 30
0.0
 42
-0.0612044441268699
 70
     2
 50
133.22771932443939
  0
VERTEX
  5
15E
  8
0
 10
762.39605944263815
 20
879.5278338756375
 30
0.0
 42
-0.0248289351401802
  0
SEQEND
  5
15F
  8
0
  0
ARC
  5
160
  8
0
 10
768.16580003065644
 20
864.59714887017196
 30
0.0
 40
20.0
 50
48.58463714750026
 51
67.211849424932907
  0
ARC
  5
161
  8
0
 10
768.16580003065644
 20
844.59449781248213
 30
0.0
 40
20.0
 50
292.78815057506711
 51
311.41536285249981
  0
POLYLINE
  5
162
  8
0
 66
     1
 10
0.0
 20
0.0
 30
0.0
  0
VERTEX
  5
163
  8
0
 10
768.39605944263803
 20
833.36721956987765
 30
0.0
 42
0.1041400564558798
  0
VERTEX
  5
164
  8
0
 10
765.78991468736911
 20
832.81846006610795
 30
0.0
 42
0.1006544273591242
  0
VERTEX
  5
165
  8
0
 10
763.5419753759503
 20
831.22819352947704
 30
0.0
 42
0.0612044441268699
 70
     2
 50
226.77228067556061
  0
VERTEX
  5
166
  8
0
 10
762.39605944263815
 20
829.66381280701648
 30
0.0
 42
0.0248289351401802
  0
SEQEND
  5
167
  8
0
  0
POLYLINE
  5
168
  8
0
 66
     1
 10
0.0
 20
0.0
 30
0.0
  0
VERTEX
  5
169
  8
0
 10
768.39605944263815
 20
840.99552454524542
 30
0.0
 42
0.1621860283554694
  0
VERTEX
  5
16A
  8
0
 10
770.99827419141661
 20
841.86241320134297
 30
0.0
 42
0.1060806816701391
  0
VERTEX
  5
16B
  8
0
 10
773.71126003597647
 20
844.97895983645435
 30
0.0
 42
0.025137401486799
 70
     2
 50
61.070753099653373
  0
VERTEX
  5
16C
  8
0
 10
774.41288820847069
 20
846.41437350100523
 30
0.0
 42
0.0563234015197202
  0
SEQEND
  5
16D
  8
0
  0
LINE
  5
16E
  8
0
 10
762.39605944263815
 20
841.66971422207916
 30
0.0
 11
768.39605944263815
 21
840.99552454522791
 31
0.0
  0
POLYLINE
  5
16F
  8
0
 66
     1
 10
0.0
 20
0.0
 30
0.0
  0
VERTEX
  5
170
  8
0
 10
775.55717861516587
 20
823.84494755249477
 30
0.0
 42
0.0796360971234759
  0
VERTEX
  5
171
  8
0
 10
775.91288820847069
 20
826.06412785247255
 30
0.0
 42
0.1010927548382086
  0
SEQEND
  5
172
  8
0
  0
LINE
  5
173
  8
0
 10
762.39605944263826
 20
783.84532509349845
 30
0.0
 11
775.55717861516587
 21
823.84494755251171
 31
0.0
  0
POLYLINE
  5
174
  8
0
 66
     1
 10
0.0
 20
0.0
 30
0.0
  0
VERTEX
  5
175
  8
0
 10
775.91288820847069
 20
826.06412785247255
 30
0.0
 42
0.1010927548382086
  0
VERTEX
  5
176
  8
0
 10
775.34406786792715
 20
828.84873463545853
 30
0.0
 42
0.0995311171035952
  0
VERTEX
  5
177
  8
0
 10
773.71126003597647
 20
831.22819352947704
 30
0.0
 42
0.097399406342826
 70
     2
 50
135.8262785106983
  0
VERTEX
  5
178
  8
0
 10
771.06781218584285
 20
832.94799694384392
 30
0.0
 42
0.1139717207482245
  0
VERTEX
  5
179
  8
0
 10
768.39605944263815
 20
833.36721956988765
 30
0.0
 42
0.0959438503452841
  0
SEQEND
  5
17A
  8
0
  0
ARC
  5
17B
  8
2
 10
763.39605944263815
 20
828.59582334132767
 30
0.0
 40
4.0
 50
180.0
 51
270.0
  0
LINE
  5
17C
  8
2
 10
768.39605944261075
 20
824.59582334132756
 30
0.0
 11
763.39605944263815
 21
824.59582334132756
 31
0.0
  0
LINE
  5
17D
  8
0
 10
798.39605944263815
 20
832.59582334132722
 30
0.0
 11
799.39605944263815
 21
833.59582334132745
 31
0.0
  0
LINE
  5
17E
  8
0
 10
798.39605944263815
 20
832.59582334132722
 30
0.0
 11
781.39605944263803
 21
832.59582334132722
 31
0.0
  0
ARC
  5
17F
  8
2
 10
768.16580003065644
 20
844.59449781248213
 30
0.0
 40
20.0
 50
270.65965919826021
 51
292.78815057506711
  0
LINE
  5
180
  8
0
 10
762.39605944263826
 20
286.49740072584598
 30
0.0
 11
775.55717861516598
 21
246.49777826683271
 31
0.0
  0
POLYLINE
  5
181
  8
0
 66
     1
 10
0.0
 20
0.0
 30
0.0
  0
VERTEX
  5
182
  8
0
 10
775.55717861516598
 20
246.49777826684951
 30
0.0
 42
-0.0796360971234759
  0
VERTEX
  5
183
  8
0
 10
775.91288820847069
 20
244.27859796687181
 30
0.0
 42
-0.1010927548382086
  0
SEQEND
  5
184
  8
0
  0
POLYLINE
  5
185
  8
0
 66
     1
 10
0.0
 20
0.0
 30
0.0
  0
VERTEX
  5
186
  8
0
 10
775.55717861516598
 20
184.99602668918519
 30
0.0
 42
0.0796360971234759
 50
44.173721489301791
  0
VERTEX
  5
187
  8
0
 10
775.91288820847069
 20
187.21520698916291
 30
0.0
 42
0.1010927548382086
  0
SEQEND
  5
188
  8
0
  0
LINE
  5
189
  8
0
 10
762.39605944263826
 20
144.99640423018869
 30
0.0
 11
775.55717861516598
 21
184.99602668920201
 31
0.0
  0
POLYLINE
  5
18A
  8
0
 66
     1
 10
0.0
 20
0.0
 30
0.0
  0
VERTEX
  5
18B
  8
0
 10
775.91288820847069
 20
244.27859796687181
 30
0.0
 42
-0.0032219519999287
  0
VERTEX
  5
18C
  8
0
 10
775.91229855633503
 20
244.1870934977666
 30
0.0
 42
-0.0995311171035952
  0
SEQEND
  5
18D
  8
0
  0
POLYLINE
  5
18E
  8
0
 66
     1
 10
0.0
 20
0.0
 30
0.0
  0
VERTEX
  5
18F
  8
0
 10
775.91288820847069
 20
187.21520698916291
 30
0.0
 42
0.0032219519999287
  0
VERTEX
  5
190
  8
0
 10
775.91229855633503
 20
187.3067114582681
 30
0.0
 42
0.0995311171035952
  0
SEQEND
  5
191
  8
0
  0
TEXT
  5
2D1
  8
0
 62
     3
 10
0.0
 20
0.0
 30
0.0
 40
10.0
  1
NRP250-SUS
  7
STANDARD1
  0
ENDSEC
  0
EOF
