  0
SECTION
  2
HEADER
  9
$ACADVER
  1
AC1009
  9
$INSBASE
 10
0.0
 20
0.0
 30
0.0
  9
$EXTMIN
 10
0.0
 20
-1.4802182810368341
 30
0.0
  9
$EXTMAX
 10
126.56547956541429
 20
77.309757559875379
 30
0.0
  9
$LIMMIN
 10
0.0
 20
0.0
  9
$LIMMAX
 10
385.0
 20
270.0
  9
$ORTHOMODE
 70
     1
  9
$REGENMODE
 70
     1
  9
$FILLMODE
 70
     1
  9
$QTEXTMODE
 70
     0
  9
$MIRRTEXT
 70
     0
  9
$DRAGMODE
 70
     2
  9
$LTSCALE
 40
5.0
  9
$OSMODE
 70
  3071
  9
$ATTMODE
 70
     1
  9
$TEXTSIZE
 40
4.000000000000048
  9
$TRACEWID
 40
0.05
  9
$TEXTSTYLE
  7
STANDARD
  9
$CLAYER
  8
0
  9
$CELTYPE
  6
BYLAYER
  9
$CECOLOR
 62
   256
  9
$DIMSCALE
 40
1.0
  9
$DIMASZ
 40
3.0
  9
$DIMEXO
 40
2.0
  9
$DIMDLI
 40
0.38
  9
$DIMRND
 40
0.0
  9
$DIMDLE
 40
0.0
  9
$DIMEXE
 40
2.0
  9
$DIMTP
 40
0.0
  9
$DIMTM
 40
0.0
  9
$DIMTXT
 40
3.0
  9
$DIMCEN
 40
0.0
  9
$DIMTSZ
 40
0.0
  9
$DIMTOL
 70
     0
  9
$DIMLIM
 70
     0
  9
$DIMTIH
 70
     0
  9
$DIMTOH
 70
     0
  9
$DIMSE1
 70
     0
  9
$DIMSE2
 70
     0
  9
$DIMTAD
 70
     1
  9
$DIMZIN
 70
     0
  9
$DIMBLK
  1

  9
$DIMASO
 70
     0
  9
$DIMSHO
 70
     0
  9
$DIMPOST
  1

  9
$DIMAPOST
  1

  9
$DIMALT
 70
     0
  9
$DIMALTD
 70
     2
  9
$DIMALTF
 40
25.399999999999999
  9
$DIMLFAC
 40
1.0
  9
$DIMTOFL
 70
     1
  9
$DIMTVP
 40
1.6000000000000001
  9
$DIMTIX
 70
     1
  9
$DIMSOXD
 70
     0
  9
$DIMSAH
 70
     0
  9
$DIMBLK1
  1

  9
$DIMBLK2
  1

  9
$DIMSTYLE
  2
STANDARD
  9
$DIMCLRD
 70
     0
  9
$DIMCLRE
 70
     0
  9
$DIMCLRT
 70
     0
  9
$DIMTFAC
 40
1.0
  9
$DIMGAP
 40
1.0
  9
$LUNITS
 70
     2
  9
$LUPREC
 70
     4
  9
$SKETCHINC
 40
0.1
  9
$FILLETRAD
 40
0.0
  9
$AUNITS
 70
     0
  9
$AUPREC
 70
     4
  9
$MENU
  1
E:\r13\win\SUPPORT\ACAD
  9
$ELEVATION
 40
0.0
  9
$PELEVATION
 40
0.0
  9
$THICKNESS
 40
0.0
  9
$LIMCHECK
 70
     0
  9
$BLIPMODE
 70
     0
  9
$CHAMFERA
 40
0.0
  9
$CHAMFERB
 40
0.0
  9
$SKPOLY
 70
     0
  9
$TDCREATE
 40
2450280.598206134
  9
$TDUPDATE
 40
2456597.6892353361
  9
$TDINDWG
 40
0.1511462616
  9
$TDUSRTIMER
 40
0.1511462616
  9
$USRTIMER
 70
     1
  9
$ANGBASE
 50
0.0
  9
$ANGDIR
 70
     0
  9
$PDMODE
 70
     0
  9
$PDSIZE
 40
0.0
  9
$PLINEWID
 40
0.0
  9
$COORDS
 70
     1
  9
$SPLFRAME
 70
     0
  9
$SPLINETYPE
 70
     6
  9
$SPLINESEGS
 70
     8
  9
$ATTDIA
 70
     0
  9
$ATTREQ
 70
     1
  9
$HANDLING
 70
     1
  9
$HANDSEED
  5
F1E
  9
$SURFTAB1
 70
     6
  9
$SURFTAB2
 70
     6
  9
$SURFTYPE
 70
     6
  9
$SURFU
 70
     6
  9
$SURFV
 70
     6
  9
$UCSNAME
  2

  9
$UCSORG
 10
0.0
 20
0.0
 30
0.0
  9
$UCSXDIR
 10
1.0
 20
0.0
 30
0.0
  9
$UCSYDIR
 10
0.0
 20
1.0
 30
0.0
  9
$PUCSNAME
  2

  9
$PUCSORG
 10
0.0
 20
0.0
 30
0.0
  9
$PUCSXDIR
 10
1.0
 20
0.0
 30
0.0
  9
$PUCSYDIR
 10
0.0
 20
1.0
 30
0.0
  9
$USERI1
 70
     3
  9
$USERI2
 70
     1
  9
$USERI3
 70
     1
  9
$USERI4
 70
     0
  9
$USERI5
 70
     0
  9
$USERR1
 40
1.0
  9
$USERR2
 40
3.0
  9
$USERR3
 40
3.0
  9
$USERR4
 40
3.0
  9
$USERR5
 40
10.0
  9
$WORLDVIEW
 70
     1
  9
$SHADEDGE
 70
     3
  9
$SHADEDIF
 70
    70
  9
$TILEMODE
 70
     1
  9
$MAXACTVP
 70
    16
  9
$PLIMCHECK
 70
     0
  9
$PEXTMIN
 10
1.0000000000000000E+020
 20
1.0000000000000000E+020
 30
1.0000000000000000E+020
  9
$PEXTMAX
 10
-1.0000000000000000E+020
 20
-1.0000000000000000E+020
 30
-1.0000000000000000E+020
  9
$PLIMMIN
 10
0.0
 20
0.0
  9
$PLIMMAX
 10
12.0
 20
9.0
  9
$UNITMODE
 70
     0
  9
$VISRETAIN
 70
     0
  9
$PLINEGEN
 70
     0
  9
$PSLTSCALE
 70
     0
  0
ENDSEC
  0
SECTION
  2
TABLES
  0
TABLE
  2
VPORT
 70
     1
  0
VPORT
  2
*ACTIVE
 70
     0
 10
0.0
 20
0.0
 11
1.0
 21
1.0
 12
192.49412581440311
 22
134.84202934784381
 13
0.0
 23
0.0
 14
5.0
 24
5.0
 15
10.0
 25
10.0
 16
0.0
 26
0.0
 36
1.0
 17
0.0
 27
0.0
 37
0.0
 40
275.78743625673241
 41
2.304913294797688
 42
50.0
 43
0.0
 44
0.0
 50
0.0
 51
0.0
 71
     0
 72
   500
 73
     1
 74
     0
 75
     0
 76
     0
 77
     0
 78
     2
  0
ENDTAB
  0
TABLE
  2
LTYPE
 70
     4
  0
LTYPE
  2
CONTINUOUS
 70
     0
  3
Solid Line
 72
    65
 73
     0
 40
0.0
  0
LTYPE
  2
CENTER
 70
     0
  3
____ _ ____ _ ____ _ ____ _ ____ _ ____ _ ____
 72
    65
 73
     4
 40
2.0
 49
1.25
 49
-0.25
 49
0.25
 49
-0.25
  0
LTYPE
  2
HIDDEN
 70
     0
  3
_ _ _ _ _ _ _ _ _ _ _ _ _ _ _ _ _ _ _ _ _ _ _
 72
    65
 73
     2
 40
0.375
 49
0.25
 49
-0.125
  0
LTYPE
  2
PHANTOM2
 70
     0
  3
___ _ _ ___ _ _ ___ _ _ ___ _ _
 72
    65
 73
     6
 40
1.25
 49
0.625
 49
-0.125
 49
0.125
 49
-0.125
 49
0.125
 49
-0.125
  0
ENDTAB
  0
TABLE
  2
LAYER
 70
     4
  0
LAYER
  2
0
 70
     0
 62
     7
  6
CONTINUOUS
  0
LAYER
  2
1
 70
     0
 62
     1
  6
CENTER
  0
LAYER
  2
3
 70
     0
 62
     3
  6
CONTINUOUS
  0
LAYER
  2
2
 70
     0
 62
     2
  6
HIDDEN
  0
ENDTAB
  0
TABLE
  2
STYLE
 70
     2
  0
STYLE
  2
STANDARD
 70
     0
 40
0.0
 41
1.0
 50
0.0
 71
     0
 42
4.000000000000048
  3
SIMPLEX
  4
BIGFONT
  0
STYLE
  2
STANDARD1
 70
     0
 40
0.0
 41
1.0
 50
0.0
 71
     0
 42
3.0
  3
txt
  4

  0
ENDTAB
  0
TABLE
  2
VIEW
 70
     1
  0
VIEW
  2
OLE1
 70
     0
 40
100.4021213141917
 10
119.5958647627379
 20
30.845687992436051
 41
193.4756206346469
 11
0.0
 21
0.0
 31
1.0
 12
0.0
 22
0.0
 32
0.0
 42
50.0
 43
0.0
 44
0.0
 50
0.0
 71
     0
  0
ENDTAB
  0
TABLE
  2
UCS
 70
     0
  0
ENDTAB
  0
TABLE
  2
APPID
 70
     3
  0
APPID
  2
ACAD
 70
     0
  0
APPID
  2
ACAD_MLEADERVER
 70
     0
  0
APPID
  2
ACAD_NAV_VCDISPLAY
 70
     0
  0
ENDTAB
  0
TABLE
  2
DIMSTYLE
 70
     1
  0
DIMSTYLE
  2
STANDARD
 70
     0
  3

  4

  5

  6

  7

 40
1.0
 41
0.18
 42
0.0625
 43
0.38
 44
0.18
 45
0.0
 46
0.0
 47
0.0
 48
0.0
140
0.18
141
0.09
142
0.0
143
25.399999999999999
144
1.0
145
0.0
146
1.0
147
0.09
 71
     0
 72
     0
 73
     1
 74
     1
 75
     0
 76
     0
 77
     0
 78
     0
170
     0
171
     2
172
     0
173
     0
174
     0
175
     0
176
     0
177
     0
178
     0
  0
ENDTAB
  0
ENDSEC
  0
SECTION
  2
BLOCKS
  0
BLOCK
  8
0
  2
$MODEL_SPACE
 70
     0
 10
0.0
 20
0.0
 30
0.0
  3
$MODEL_SPACE
  1

  0
ENDBLK
  5
175
  8
0
  0
BLOCK
 67
     1
  8
0
  2
$PAPER_SPACE
 70
     0
 10
0.0
 20
0.0
 30
0.0
  3
$PAPER_SPACE
  1

  0
ENDBLK
  5
173
 67
     1
  8
0
  0
ENDSEC
  0
SECTION
  2
ENTITIES
  0
LINE
  5
6E0
  8
1
 10
19.03985577643914
 20
20.309757559875379
 30
0.0
 11
19.03985577643914
 21
40.309757559875379
 31
0.0
  0
LINE
  5
6E1
  8
1
 10
9.0398557764391398
 20
30.309757559875379
 30
0.0
 11
29.03985577643914
 21
30.309757559875379
 31
0.0
  0
CIRCLE
  5
70F
  8
0
 10
19.03985577643914
 20
30.309757559875379
 30
0.0
 40
7.0
  0
LINE
  5
77A
  8
1
 10
82.995612916820363
 20
30.309757559875379
 30
0.0
 11
45.078344329831829
 21
30.309757559875379
 31
0.0
  0
LINE
  5
77B
  8
0
 10
61.995612916820392
 20
33.309757559875379
 30
0.0
 11
61.995612916820392
 21
32.696257559875377
 31
0.0
  0
LINE
  5
77C
  8
3
 10
51.995612916820392
 20
32.696257559875392
 30
0.0
 11
56.495612916820392
 21
32.696257559875392
 31
0.0
  0
LINE
  5
77D
  8
0
 10
61.995612916820392
 20
27.309757559875379
 30
0.0
 11
61.995612916820392
 21
33.309757559875379
 31
0.0
  0
LINE
  5
77E
  8
0
 10
61.995612916820392
 20
27.309757559875379
 30
0.0
 11
61.995612916820392
 21
27.923257559875381
 31
0.0
  0
LINE
  5
77F
  8
3
 10
51.995612916820392
 20
27.923257559875399
 30
0.0
 11
56.495612916820377
 21
27.923257559875388
 31
0.0
  0
LINE
  5
780
  8
0
 10
68.723025096107392
 20
28.309757559875379
 30
0.0
 11
68.995612916820392
 21
28.309757559875379
 31
0.0
  0
LINE
  5
781
  8
0
 10
68.995612916820392
 20
32.309757559875379
 30
0.0
 11
68.723025096107307
 21
32.309757559875379
 31
0.0
  0
POLYLINE
  5
782
  8
0
 66
     1
 10
0.0
 20
0.0
 30
0.0
  0
VERTEX
  5
CBE
  8
0
 10
68.995612916820392
 20
26.845655944737629
 30
0.0
  0
VERTEX
  5
CBF
  8
0
 10
68.995322390556453
 20
26.877380947563651
 30
0.0
  0
VERTEX
  5
CC0
  8
0
 10
68.993016356554648
 20
26.940523247873841
 30
0.0
  0
VERTEX
  5
CC1
  8
0
 10
68.988446683394159
 20
27.003336244593299
 30
0.0
  0
VERTEX
  5
CC2
  8
0
 10
68.985324848411395
 20
27.034648795544669
 30
0.0
  0
VERTEX
  5
CC3
  8
0
 10
68.981650441522532
 20
27.0659140802703
 30
0.0
  0
VERTEX
  5
CC4
  8
0
 10
68.972657599786075
 20
27.128347933924129
 30
0.0
  0
VERTEX
  5
CC5
  8
0
 10
68.961491372157326
 20
27.190726528585099
 30
0.0
  0
VERTEX
  5
CC6
  8
0
 10
68.94816850625557
 20
27.253136604816451
 30
0.0
  0
VERTEX
  5
CC7
  8
0
 10
68.932699518618165
 20
27.315663366043349
 30
0.0
  0
VERTEX
  5
CC8
  8
0
 10
68.915088880795992
 20
27.378390900915889
 30
0.0
  0
VERTEX
  5
CC9
  8
0
 10
68.905480222903023
 20
27.409856031109459
 30
0.0
  0
VERTEX
  5
CCA
  8
0
 10
68.895335159571601
 20
27.44140258744638
 30
0.0
  0
VERTEX
  5
CCB
  8
0
 10
68.873431113904033
 20
27.504781483271561
 30
0.0
  0
VERTEX
  5
CCC
  8
0
 10
68.849363750580736
 20
27.56861070608478
 30
0.0
  0
VERTEX
  5
CCD
  8
0
 10
68.823114339981572
 20
27.632973808053809
 30
0.0
  0
VERTEX
  5
CCE
  8
0
 10
68.794658392826591
 20
27.697955147877661
 30
0.0
  0
VERTEX
  5
CCF
  8
0
 10
68.763965598269209
 20
27.763640264037829
 30
0.0
  0
VERTEX
  5
CD0
  8
0
 10
68.747769295264675
 20
27.79677388447675
 30
0.0
  0
VERTEX
  5
CD1
  8
0
 10
68.730999723204349
 20
27.830116252759321
 30
0.0
  0
VERTEX
  5
CD2
  8
0
 10
68.695718472173041
 20
27.89747215421643
 30
0.0
  0
VERTEX
  5
CD3
  8
0
 10
68.658073306753153
 20
27.965799350592629
 30
0.0
  0
VERTEX
  5
CD4
  8
0
 10
68.638347326912225
 20
28.000356483116882
 30
0.0
  0
SEQEND
  5
CD5
  8
0
  0
POLYLINE
  5
783
  8
0
 66
     1
 10
0.0
 20
0.0
 30
0.0
  0
VERTEX
  5
CD6
  8
0
 10
68.638347326912225
 20
28.000356483116882
 30
0.0
  0
VERTEX
  5
CD7
  8
0
 10
68.653316717132782
 20
28.052658683499931
 30
0.0
  0
VERTEX
  5
CD8
  8
0
 10
68.682218813320986
 20
28.156350103597681
 30
0.0
  0
VERTEX
  5
CD9
  8
0
 10
68.709758819808059
 20
28.258892315410751
 30
0.0
  0
VERTEX
  5
CDA
  8
0
 10
68.723025096107307
 20
28.309757559875379
 30
0.0
  0
SEQEND
  5
CDB
  8
0
  0
LINE
  5
784
  8
0
 10
68.995612916820392
 20
34.309757559875379
 30
0.0
 11
68.995612916820392
 21
32.009757559875382
 31
0.0
  0
LINE
  5
785
  8
0
 10
68.995612916820392
 20
32.009757559875382
 30
0.0
 11
64.995612916820392
 21
32.009757559875382
 31
0.0
  0
LINE
  5
786
  8
0
 10
64.995612916820392
 20
32.009757559875382
 30
0.0
 11
64.995612916820392
 21
28.60975755987538
 31
0.0
  0
LINE
  5
787
  8
0
 10
68.995612916820392
 20
28.60975755987538
 30
0.0
 11
64.995612916820392
 21
28.60975755987538
 31
0.0
  0
LINE
  5
788
  8
0
 10
68.995612916820392
 20
28.60975755987538
 30
0.0
 11
68.995612916820392
 21
26.309757559875379
 31
0.0
  0
POLYLINE
  5
789
  8
0
 66
     1
 10
0.0
 20
0.0
 30
0.0
  0
VERTEX
  5
CDC
  8
0
 10
68.995612916820392
 20
28.309757559875379
 30
0.0
  0
VERTEX
  5
CDD
  8
0
 10
68.952832601966037
 20
28.309757559875379
 30
0.0
  0
VERTEX
  5
CDE
  8
0
 10
68.864177915156404
 20
28.309757559875379
 30
0.0
  0
VERTEX
  5
CDF
  8
0
 10
68.77120656661765
 20
28.309757559875379
 30
0.0
  0
VERTEX
  5
CE0
  8
0
 10
68.723025096107392
 20
28.309757559875379
 30
0.0
  0
SEQEND
  5
CE1
  8
0
  0
LINE
  5
78A
  8
0
 10
68.723025096107392
 20
28.309757559875379
 30
0.0
 11
64.795612916820374
 21
28.309757559875379
 31
0.0
  0
POLYLINE
  5
78B
  8
0
 66
     1
 10
0.0
 20
0.0
 30
0.0
  0
VERTEX
  5
CE2
  8
0
 10
68.723025096107307
 20
32.309757559875379
 30
0.0
  0
VERTEX
  5
CE3
  8
0
 10
68.771206566617593
 20
32.309757559875379
 30
0.0
  0
VERTEX
  5
CE4
  8
0
 10
68.864177915156375
 20
32.309757559875379
 30
0.0
  0
VERTEX
  5
CE5
  8
0
 10
68.952832601966037
 20
32.309757559875379
 30
0.0
  0
VERTEX
  5
CE6
  8
0
 10
68.995612916820392
 20
32.309757559875379
 30
0.0
  0
SEQEND
  5
CE7
  8
0
  0
LINE
  5
78C
  8
0
 10
64.795612916820374
 20
32.309757559875379
 30
0.0
 11
68.723025096107307
 21
32.309757559875379
 31
0.0
  0
LINE
  5
78D
  8
0
 10
74.795612916820374
 20
34.309757559875379
 30
0.0
 11
74.795612916820374
 21
26.309757559875379
 31
0.0
  0
POLYLINE
  5
78E
  8
0
 66
     1
 10
0.0
 20
0.0
 30
0.0
  0
VERTEX
  5
CE8
  8
0
 10
68.723025096107392
 20
28.309757559875379
 30
0.0
  0
VERTEX
  5
CE9
  8
0
 10
68.709758819808059
 20
28.2588923154103
 30
0.0
  0
VERTEX
  5
CEA
  8
0
 10
68.682218813320873
 20
28.156350103596871
 30
0.0
  0
VERTEX
  5
CEB
  8
0
 10
68.653316717132697
 20
28.05265868349947
 30
0.0
  0
VERTEX
  5
CEC
  8
0
 10
68.638347326912225
 20
28.000356483116882
 30
0.0
  0
SEQEND
  5
CED
  8
0
  0
POLYLINE
  5
78F
  8
0
 66
     1
 10
0.0
 20
0.0
 30
0.0
  0
VERTEX
  5
CEE
  8
0
 10
68.638347326912225
 20
28.000356483116882
 30
0.0
  0
VERTEX
  5
CEF
  8
0
 10
68.658073306753153
 20
27.965799350592508
 30
0.0
  0
VERTEX
  5
CF0
  8
0
 10
68.695718472173013
 20
27.897472154216079
 30
0.0
  0
VERTEX
  5
CF1
  8
0
 10
68.73099972320432
 20
27.83011625275876
 30
0.0
  0
VERTEX
  5
CF2
  8
0
 10
68.747769295264646
 20
27.796773884476082
 30
0.0
  0
VERTEX
  5
CF3
  8
0
 10
68.763965598269181
 20
27.763640264037079
 30
0.0
  0
VERTEX
  5
CF4
  8
0
 10
68.794658392826534
 20
27.697955147876769
 30
0.0
  0
VERTEX
  5
CF5
  8
0
 10
68.823114339981544
 20
27.632973808052771
 30
0.0
  0
VERTEX
  5
CF6
  8
0
 10
68.849363750580721
 20
27.56861070608365
 30
0.0
  0
VERTEX
  5
CF7
  8
0
 10
68.873431113904019
 20
27.504781483270332
 30
0.0
  0
VERTEX
  5
CF8
  8
0
 10
68.895335159571573
 20
27.441402587445129
 30
0.0
  0
VERTEX
  5
CF9
  8
0
 10
68.905480222903023
 20
27.40985603110818
 30
0.0
  0
VERTEX
  5
CFA
  8
0
 10
68.915088880795992
 20
27.37839090091461
 30
0.0
  0
VERTEX
  5
CFB
  8
0
 10
68.932699518618165
 20
27.315663366042092
 30
0.0
  0
VERTEX
  5
CFC
  8
0
 10
68.94816850625557
 20
27.253136604815239
 30
0.0
  0
VERTEX
  5
CFD
  8
0
 10
68.961491372157283
 20
27.19072652858398
 30
0.0
  0
VERTEX
  5
CFE
  8
0
 10
68.972657599786075
 20
27.128347933923131
 30
0.0
  0
VERTEX
  5
CFF
  8
0
 10
68.981650441522532
 20
27.06591408026944
 30
0.0
  0
VERTEX
  5
D00
  8
0
 10
68.985324848411395
 20
27.034648795543919
 30
0.0
  0
VERTEX
  5
D01
  8
0
 10
68.988446683394159
 20
27.003336244592631
 30
0.0
  0
VERTEX
  5
D02
  8
0
 10
68.993016356554648
 20
26.940523247873401
 30
0.0
  0
VERTEX
  5
D03
  8
0
 10
68.995322390556453
 20
26.877380947563498
 30
0.0
  0
VERTEX
  5
D04
  8
0
 10
68.995612916820392
 20
26.845655944737629
 30
0.0
  0
SEQEND
  5
D05
  8
0
  0
POLYLINE
  5
7AE
  8
0
 66
     1
 10
0.0
 20
0.0
 30
0.0
  0
VERTEX
  5
D06
  8
0
 10
68.638347326912225
 20
32.619158636633877
 30
0.0
  0
VERTEX
  5
D07
  8
0
 10
68.653316717132782
 20
32.566856436250831
 30
0.0
  0
VERTEX
  5
D08
  8
0
 10
68.682218813320986
 20
32.463165016153091
 30
0.0
  0
VERTEX
  5
D09
  8
0
 10
68.709758819808059
 20
32.360622804340011
 30
0.0
  0
VERTEX
  5
D0A
  8
0
 10
68.723025096107307
 20
32.309757559875379
 30
0.0
  0
SEQEND
  5
D0B
  8
0
  0
LINE
  5
7AF
  8
0
 10
68.638347326912225
 20
32.619158636633877
 30
0.0
 11
63.995612916820392
 21
32.619158636633877
 31
0.0
  0
LINE
  5
7B0
  8
0
 10
68.638347326912225
 20
28.000356483116882
 30
0.0
 11
63.995612916820392
 21
28.000356483116882
 31
0.0
  0
LINE
  5
7B1
  8
0
 10
64.795612916820374
 20
28.309757559875379
 30
0.0
 11
64.795612916820374
 21
32.309757559875379
 31
0.0
  0
LINE
  5
7B2
  8
0
 10
63.995612916820392
 20
25.69095540635837
 30
0.0
 11
63.995612916820392
 21
34.928559713392389
 31
0.0
  0
LINE
  5
7B3
  8
0
 10
68.638347326912225
 20
25.69095540635837
 30
0.0
 11
63.995612916820392
 21
25.69095540635837
 31
0.0
  0
POLYLINE
  5
7B4
  8
0
 66
     1
 10
0.0
 20
0.0
 30
0.0
  0
VERTEX
  5
D0C
  8
0
 10
68.995612916820392
 20
26.845655944737629
 30
0.0
  0
VERTEX
  5
D0D
  8
0
 10
68.995322390556453
 20
26.8139309419116
 30
0.0
  0
VERTEX
  5
D0E
  8
0
 10
68.993016356554648
 20
26.750788641601421
 30
0.0
  0
VERTEX
  5
D0F
  8
0
 10
68.988446683394159
 20
26.687975644881941
 30
0.0
  0
VERTEX
  5
D10
  8
0
 10
68.985324848411395
 20
26.656663093930579
 30
0.0
  0
VERTEX
  5
D11
  8
0
 10
68.981650441522532
 20
26.625397809204959
 30
0.0
  0
VERTEX
  5
D12
  8
0
 10
68.972657599786075
 20
26.562963955551108
 30
0.0
  0
VERTEX
  5
D13
  8
0
 10
68.961491372157326
 20
26.500585360890138
 30
0.0
  0
VERTEX
  5
D14
  8
0
 10
68.94816850625557
 20
26.438175284658801
 30
0.0
  0
VERTEX
  5
D15
  8
0
 10
68.932699518618165
 20
26.375648523431892
 30
0.0
  0
VERTEX
  5
D16
  8
0
 10
68.915088880795992
 20
26.31292098855937
 30
0.0
  0
VERTEX
  5
D17
  8
0
 10
68.905480222903023
 20
26.281455858365788
 30
0.0
  0
VERTEX
  5
D18
  8
0
 10
68.895335159571601
 20
26.249909302028868
 30
0.0
  0
VERTEX
  5
D19
  8
0
 10
68.873431113904033
 20
26.186530406203701
 30
0.0
  0
VERTEX
  5
D1A
  8
0
 10
68.849363750580736
 20
26.122701183390461
 30
0.0
  0
VERTEX
  5
D1B
  8
0
 10
68.823114339981572
 20
26.058338081421439
 30
0.0
  0
VERTEX
  5
D1C
  8
0
 10
68.794658392826591
 20
25.99335674159758
 30
0.0
  0
VERTEX
  5
D1D
  8
0
 10
68.763965598269209
 20
25.92767162543743
 30
0.0
  0
VERTEX
  5
D1E
  8
0
 10
68.747769295264675
 20
25.894538004998509
 30
0.0
  0
VERTEX
  5
D1F
  8
0
 10
68.730999723204349
 20
25.86119563671593
 30
0.0
  0
VERTEX
  5
D20
  8
0
 10
68.695718472173041
 20
25.793839735258821
 30
0.0
  0
VERTEX
  5
D21
  8
0
 10
68.658073306753153
 20
25.725512538882629
 30
0.0
  0
VERTEX
  5
D22
  8
0
 10
68.638347326912225
 20
25.69095540635837
 30
0.0
  0
SEQEND
  5
D23
  8
0
  0
POLYLINE
  5
7B5
  8
0
 66
     1
 10
0.0
 20
0.0
 30
0.0
  0
VERTEX
  5
D24
  8
0
 10
68.638347326912225
 20
25.69095540635837
 30
0.0
  0
VERTEX
  5
D25
  8
0
 10
68.658073306753153
 20
25.725512538882739
 30
0.0
  0
VERTEX
  5
D26
  8
0
 10
68.695718472173013
 20
25.793839735259169
 30
0.0
  0
VERTEX
  5
D27
  8
0
 10
68.73099972320432
 20
25.861195636716491
 30
0.0
  0
VERTEX
  5
D28
  8
0
 10
68.747769295264646
 20
25.894538004999159
 30
0.0
  0
VERTEX
  5
D29
  8
0
 10
68.763965598269181
 20
25.927671625438169
 30
0.0
  0
VERTEX
  5
D2A
  8
0
 10
68.794658392826534
 20
25.99335674159849
 30
0.0
  0
VERTEX
  5
D2B
  8
0
 10
68.823114339981544
 20
26.05833808142248
 30
0.0
  0
VERTEX
  5
D2C
  8
0
 10
68.849363750580721
 20
26.122701183391609
 30
0.0
  0
VERTEX
  5
D2D
  8
0
 10
68.873431113904019
 20
26.186530406204909
 30
0.0
  0
VERTEX
  5
D2E
  8
0
 10
68.895335159571573
 20
26.24990930203014
 30
0.0
  0
VERTEX
  5
D2F
  8
0
 10
68.905480222903023
 20
26.281455858367071
 30
0.0
  0
VERTEX
  5
D30
  8
0
 10
68.915088880795992
 20
26.312920988560631
 30
0.0
  0
VERTEX
  5
D31
  8
0
 10
68.932699518618165
 20
26.37564852343316
 30
0.0
  0
VERTEX
  5
D32
  8
0
 10
68.94816850625557
 20
26.438175284660009
 30
0.0
  0
VERTEX
  5
D33
  8
0
 10
68.961491372157283
 20
26.500585360891279
 30
0.0
  0
VERTEX
  5
D34
  8
0
 10
68.972657599786075
 20
26.562963955552121
 30
0.0
  0
VERTEX
  5
D35
  8
0
 10
68.981650441522532
 20
26.625397809205811
 30
0.0
  0
VERTEX
  5
D36
  8
0
 10
68.985324848411395
 20
26.656663093931339
 30
0.0
  0
VERTEX
  5
D37
  8
0
 10
68.988446683394159
 20
26.687975644882609
 30
0.0
  0
VERTEX
  5
D38
  8
0
 10
68.993016356554648
 20
26.75078864160184
 30
0.0
  0
VERTEX
  5
D39
  8
0
 10
68.995322390556453
 20
26.81393094191175
 30
0.0
  0
VERTEX
  5
D3A
  8
0
 10
68.995612916820392
 20
26.845655944737629
 30
0.0
  0
SEQEND
  5
D3B
  8
0
  0
POLYLINE
  5
7B6
  8
0
 66
     1
 10
0.0
 20
0.0
 30
0.0
  0
VERTEX
  5
D3C
  8
0
 10
68.995612916820392
 20
33.773859175013129
 30
0.0
  0
VERTEX
  5
D3D
  8
0
 10
68.995322390556453
 20
33.742134172187107
 30
0.0
  0
VERTEX
  5
D3E
  8
0
 10
68.993016356554648
 20
33.678991871876917
 30
0.0
  0
VERTEX
  5
D3F
  8
0
 10
68.988446683394159
 20
33.616178875157459
 30
0.0
  0
VERTEX
  5
D40
  8
0
 10
68.985324848411395
 20
33.584866324206068
 30
0.0
  0
VERTEX
  5
D41
  8
0
 10
68.981650441522532
 20
33.553601039480462
 30
0.0
  0
VERTEX
  5
D42
  8
0
 10
68.972657599786075
 20
33.491167185826633
 30
0.0
  0
VERTEX
  5
D43
  8
0
 10
68.961491372157326
 20
33.428788591165663
 30
0.0
  0
VERTEX
  5
D44
  8
0
 10
68.94816850625557
 20
33.366378514934297
 30
0.0
  0
VERTEX
  5
D45
  8
0
 10
68.932699518618165
 20
33.303851753707413
 30
0.0
  0
VERTEX
  5
D46
  8
0
 10
68.915088880795992
 20
33.241124218834869
 30
0.0
  0
VERTEX
  5
D47
  8
0
 10
68.905480222903023
 20
33.209659088641303
 30
0.0
  0
VERTEX
  5
D48
  8
0
 10
68.895335159571601
 20
33.178112532304382
 30
0.0
  0
VERTEX
  5
D49
  8
0
 10
68.873431113904033
 20
33.114733636479201
 30
0.0
  0
VERTEX
  5
D4A
  8
0
 10
68.849363750580736
 20
33.050904413665982
 30
0.0
  0
VERTEX
  5
D4B
  8
0
 10
68.823114339981572
 20
32.986541311696953
 30
0.0
  0
VERTEX
  5
D4C
  8
0
 10
68.794658392826591
 20
32.921559971873101
 30
0.0
  0
VERTEX
  5
D4D
  8
0
 10
68.763965598269209
 20
32.855874855712933
 30
0.0
  0
VERTEX
  5
D4E
  8
0
 10
68.747769295264675
 20
32.822741235274009
 30
0.0
  0
VERTEX
  5
D4F
  8
0
 10
68.730999723204349
 20
32.789398866991441
 30
0.0
  0
VERTEX
  5
D50
  8
0
 10
68.695718472173041
 20
32.722042965534328
 30
0.0
  0
VERTEX
  5
D51
  8
0
 10
68.658073306753153
 20
32.653715769158133
 30
0.0
  0
VERTEX
  5
D52
  8
0
 10
68.638347326912225
 20
32.619158636633877
 30
0.0
  0
SEQEND
  5
D53
  8
0
  0
POLYLINE
  5
7B7
  8
0
 66
     1
 10
0.0
 20
0.0
 30
0.0
  0
VERTEX
  5
D54
  8
0
 10
68.638347326912225
 20
34.928559713392389
 30
0.0
  0
VERTEX
  5
D55
  8
0
 10
68.658073306753153
 20
34.894002580868012
 30
0.0
  0
VERTEX
  5
D56
  8
0
 10
68.695718472173013
 20
34.825675384491589
 30
0.0
  0
VERTEX
  5
D57
  8
0
 10
68.73099972320432
 20
34.758319483034271
 30
0.0
  0
VERTEX
  5
D58
  8
0
 10
68.747769295264646
 20
34.724977114751603
 30
0.0
  0
VERTEX
  5
D59
  8
0
 10
68.763965598269181
 20
34.691843494312593
 30
0.0
  0
VERTEX
  5
D5A
  8
0
 10
68.794658392826534
 20
34.626158378152269
 30
0.0
  0
VERTEX
  5
D5B
  8
0
 10
68.823114339981544
 20
34.561177038328282
 30
0.0
  0
VERTEX
  5
D5C
  8
0
 10
68.849363750580721
 20
34.49681393635916
 30
0.0
  0
VERTEX
  5
D5D
  8
0
 10
68.873431113904019
 20
34.432984713545849
 30
0.0
  0
VERTEX
  5
D5E
  8
0
 10
68.895335159571573
 20
34.369605817720618
 30
0.0
  0
VERTEX
  5
D5F
  8
0
 10
68.905480222903023
 20
34.338059261383691
 30
0.0
  0
VERTEX
  5
D60
  8
0
 10
68.915088880795992
 20
34.306594131190131
 30
0.0
  0
VERTEX
  5
D61
  8
0
 10
68.932699518618165
 20
34.243866596317602
 30
0.0
  0
VERTEX
  5
D62
  8
0
 10
68.94816850625557
 20
34.18133983509076
 30
0.0
  0
VERTEX
  5
D63
  8
0
 10
68.961491372157283
 20
34.11892975885948
 30
0.0
  0
VERTEX
  5
D64
  8
0
 10
68.972657599786075
 20
34.056551164198638
 30
0.0
  0
VERTEX
  5
D65
  8
0
 10
68.981650441522532
 20
33.994117310544951
 30
0.0
  0
VERTEX
  5
D66
  8
0
 10
68.985324848411395
 20
33.962852025819423
 30
0.0
  0
VERTEX
  5
D67
  8
0
 10
68.988446683394159
 20
33.931539474868153
 30
0.0
  0
VERTEX
  5
D68
  8
0
 10
68.993016356554648
 20
33.868726478148922
 30
0.0
  0
VERTEX
  5
D69
  8
0
 10
68.995322390556453
 20
33.805584177839009
 30
0.0
  0
VERTEX
  5
D6A
  8
0
 10
68.995612916820392
 20
33.773859175013129
 30
0.0
  0
SEQEND
  5
D6B
  8
0
  0
LINE
  5
7B8
  8
0
 10
68.638347326912225
 20
34.928559713392389
 30
0.0
 11
63.995612916820392
 21
34.928559713392389
 31
0.0
  0
POLYLINE
  5
7B9
  8
0
 66
     1
 10
0.0
 20
0.0
 30
0.0
  0
VERTEX
  5
D6C
  8
0
 10
68.995612916820392
 20
33.773859175013129
 30
0.0
  0
VERTEX
  5
D6D
  8
0
 10
68.995322390556453
 20
33.805584177839158
 30
0.0
  0
VERTEX
  5
D6E
  8
0
 10
68.993016356554648
 20
33.868726478149341
 30
0.0
  0
VERTEX
  5
D6F
  8
0
 10
68.988446683394159
 20
33.931539474868821
 30
0.0
  0
VERTEX
  5
D70
  8
0
 10
68.985324848411395
 20
33.962852025820183
 30
0.0
  0
VERTEX
  5
D71
  8
0
 10
68.981650441522532
 20
33.994117310545818
 30
0.0
  0
VERTEX
  5
D72
  8
0
 10
68.972657599786075
 20
34.056551164199647
 30
0.0
  0
VERTEX
  5
D73
  8
0
 10
68.961491372157326
 20
34.118929758860617
 30
0.0
  0
VERTEX
  5
D74
  8
0
 10
68.94816850625557
 20
34.181339835091961
 30
0.0
  0
VERTEX
  5
D75
  8
0
 10
68.932699518618165
 20
34.243866596318867
 30
0.0
  0
VERTEX
  5
D76
  8
0
 10
68.915088880795992
 20
34.306594131191389
 30
0.0
  0
VERTEX
  5
D77
  8
0
 10
68.905480222903023
 20
34.338059261384963
 30
0.0
  0
VERTEX
  5
D78
  8
0
 10
68.895335159571601
 20
34.36960581772189
 30
0.0
  0
VERTEX
  5
D79
  8
0
 10
68.873431113904033
 20
34.432984713547057
 30
0.0
  0
VERTEX
  5
D7A
  8
0
 10
68.849363750580736
 20
34.496813936360297
 30
0.0
  0
VERTEX
  5
D7B
  8
0
 10
68.823114339981572
 20
34.561177038329319
 30
0.0
  0
VERTEX
  5
D7C
  8
0
 10
68.794658392826591
 20
34.626158378153178
 30
0.0
  0
VERTEX
  5
D7D
  8
0
 10
68.763965598269209
 20
34.691843494313332
 30
0.0
  0
VERTEX
  5
D7E
  8
0
 10
68.747769295264675
 20
34.724977114752249
 30
0.0
  0
VERTEX
  5
D7F
  8
0
 10
68.730999723204349
 20
34.758319483034832
 30
0.0
  0
VERTEX
  5
D80
  8
0
 10
68.695718472173041
 20
34.825675384491937
 30
0.0
  0
VERTEX
  5
D81
  8
0
 10
68.658073306753153
 20
34.894002580868133
 30
0.0
  0
VERTEX
  5
D82
  8
0
 10
68.638347326912225
 20
34.928559713392389
 30
0.0
  0
SEQEND
  5
D83
  8
0
  0
POLYLINE
  5
7BA
  8
0
 66
     1
 10
0.0
 20
0.0
 30
0.0
  0
VERTEX
  5
D84
  8
0
 10
68.638347326912225
 20
32.619158636633877
 30
0.0
  0
VERTEX
  5
D85
  8
0
 10
68.658073306753153
 20
32.653715769158246
 30
0.0
  0
VERTEX
  5
D86
  8
0
 10
68.695718472173013
 20
32.722042965534683
 30
0.0
  0
VERTEX
  5
D87
  8
0
 10
68.73099972320432
 20
32.789398866992009
 30
0.0
  0
VERTEX
  5
D88
  8
0
 10
68.747769295264646
 20
32.822741235274677
 30
0.0
  0
VERTEX
  5
D89
  8
0
 10
68.763965598269181
 20
32.855874855713679
 30
0.0
  0
VERTEX
  5
D8A
  8
0
 10
68.794658392826534
 20
32.92155997187399
 30
0.0
  0
VERTEX
  5
D8B
  8
0
 10
68.823114339981544
 20
32.986541311697991
 30
0.0
  0
VERTEX
  5
D8C
  8
0
 10
68.849363750580721
 20
33.050904413667112
 30
0.0
  0
VERTEX
  5
D8D
  8
0
 10
68.873431113904019
 20
33.11473363648043
 30
0.0
  0
VERTEX
  5
D8E
  8
0
 10
68.895335159571573
 20
33.178112532305633
 30
0.0
  0
VERTEX
  5
D8F
  8
0
 10
68.905480222903023
 20
33.209659088642582
 30
0.0
  0
VERTEX
  5
D90
  8
0
 10
68.915088880795992
 20
33.241124218836148
 30
0.0
  0
VERTEX
  5
D91
  8
0
 10
68.932699518618165
 20
33.30385175370867
 30
0.0
  0
VERTEX
  5
D92
  8
0
 10
68.94816850625557
 20
33.366378514935519
 30
0.0
  0
VERTEX
  5
D93
  8
0
 10
68.961491372157283
 20
33.428788591166779
 30
0.0
  0
VERTEX
  5
D94
  8
0
 10
68.972657599786075
 20
33.491167185827628
 30
0.0
  0
VERTEX
  5
D95
  8
0
 10
68.981650441522532
 20
33.553601039481322
 30
0.0
  0
VERTEX
  5
D96
  8
0
 10
68.985324848411395
 20
33.584866324206843
 30
0.0
  0
VERTEX
  5
D97
  8
0
 10
68.988446683394159
 20
33.616178875158127
 30
0.0
  0
VERTEX
  5
D98
  8
0
 10
68.993016356554648
 20
33.678991871877358
 30
0.0
  0
VERTEX
  5
D99
  8
0
 10
68.995322390556453
 20
33.742134172187257
 30
0.0
  0
VERTEX
  5
D9A
  8
0
 10
68.995612916820392
 20
33.773859175013129
 30
0.0
  0
SEQEND
  5
D9B
  8
0
  0
POLYLINE
  5
7BB
  8
0
 66
     1
 10
0.0
 20
0.0
 30
0.0
  0
VERTEX
  5
D9C
  8
0
 10
68.723025096107392
 20
32.309757559875379
 30
0.0
  0
VERTEX
  5
D9D
  8
0
 10
68.709758819808059
 20
32.360622804340473
 30
0.0
  0
VERTEX
  5
D9E
  8
0
 10
68.682218813320873
 20
32.463165016153887
 30
0.0
  0
VERTEX
  5
D9F
  8
0
 10
68.653316717132697
 20
32.566856436251292
 30
0.0
  0
VERTEX
  5
DA0
  8
0
 10
68.638347326912225
 20
32.619158636633877
 30
0.0
  0
SEQEND
  5
DA1
  8
0
  0
LINE
  5
7BC
  8
0
 10
51.995612916820392
 20
32.696257559875392
 30
0.0
 11
51.995612916820392
 21
27.923257559875399
 31
0.0
  0
LINE
  5
7BD
  8
0
 10
52.609112916820379
 20
33.309757559875379
 30
0.0
 11
52.609112916820379
 21
27.309757559875379
 31
0.0
  0
LINE
  5
7C0
  8
0
 10
78.924758678233914
 20
37.309757559875379
 30
0.0
 11
78.924758678233914
 21
23.309757559875379
 31
0.0
  0
LINE
  5
7C1
  8
0
 10
79.19561291682038
 20
37.309757559875379
 30
0.0
 11
79.19561291682038
 21
23.309757559875379
 31
0.0
  0
LINE
  5
7C2
  8
0
 10
79.995612916820392
 20
36.509757559875382
 30
0.0
 11
79.995612916820392
 21
24.10975755987538
 31
0.0
  0
LINE
  5
7C3
  8
0
 10
74.795612916820374
 20
34.309757559875379
 30
0.0
 11
68.995612916820392
 21
34.309757559875379
 31
0.0
  0
LINE
  5
7C4
  8
0
 10
68.995612916820392
 20
26.309757559875379
 30
0.0
 11
74.795612916820374
 21
26.309757559875379
 31
0.0
  0
LINE
  5
7CB
  8
0
 10
68.995612916820392
 20
34.309757559875379
 30
0.0
 11
68.638347326912225
 21
34.928559713392389
 31
0.0
  0
LINE
  5
7CC
  8
0
 10
68.638347326912225
 20
25.69095540635837
 30
0.0
 11
68.995612916820392
 21
26.309757559875379
 31
0.0
  0
LINE
  5
7CD
  8
0
 10
52.609112916820379
 20
33.309757559875379
 30
0.0
 11
51.995612916820392
 21
32.696257559875392
 31
0.0
  0
LINE
  5
7CE
  8
0
 10
51.995612916820392
 20
27.923257559875399
 30
0.0
 11
52.609112916820379
 21
27.309757559875379
 31
0.0
  0
LINE
  5
7CF
  8
0
 10
63.995612916820392
 20
33.309757559875379
 30
0.0
 11
59.49561291682037
 21
33.309757559875379
 31
0.0
  0
LINE
  5
7D0
  8
0
 10
52.609112916820379
 20
27.309757559875379
 30
0.0
 11
56.495612916820377
 21
27.309757559875379
 31
0.0
  0
LINE
  5
7D5
  8
0
 10
78.924758678233914
 20
37.309757559875379
 30
0.0
 11
74.795612916820374
 21
34.309757559875379
 31
0.0
  0
LINE
  5
7D6
  8
0
 10
74.795612916820374
 20
26.309757559875379
 30
0.0
 11
78.924758678233914
 21
23.309757559875379
 31
0.0
  0
LINE
  5
7D7
  8
0
 10
79.19561291682038
 20
37.309757559875379
 30
0.0
 11
78.924758678233914
 21
37.309757559875379
 31
0.0
  0
LINE
  5
7D8
  8
0
 10
78.924758678233914
 20
23.309757559875379
 30
0.0
 11
79.19561291682038
 21
23.309757559875379
 31
0.0
  0
ARC
  5
7D9
  8
0
 10
79.195612916820394
 20
24.109757559875359
 30
0.0
 40
0.7999999999999999
 50
270.0
 51
0.0
  0
ARC
  5
7DA
  8
0
 10
79.195612916820394
 20
36.509757559875368
 30
0.0
 40
0.7999999999999991
 50
0.0
 51
90.0
  0
LINE
  5
7DB
  8
0
 10
79.995612916820392
 20
24.58376693712751
 30
0.0
 11
79.995612916820392
 21
36.035748182623252
 31
0.0
  0
ARC
  5
7DC
  8
2
 10
88.195612916820352
 20
30.309757559875379
 30
0.0
 40
9.9999999999999645
 50
145.0847937525561
 51
214.9152062474439
  0
LINE
  5
837
  8
1
 10
82.995612916820363
 20
70.309757559875365
 30
0.0
 11
45.878344329831812
 21
70.309757559875351
 31
0.0
  0
LINE
  5
838
  8
0
 10
61.995612916820392
 20
73.309757559875365
 30
0.0
 11
61.995612916820392
 21
72.696257559875363
 31
0.0
  0
LINE
  5
839
  8
3
 10
51.995612916820392
 20
72.696257559875363
 30
0.0
 11
56.495612916820399
 21
72.696257559875392
 31
0.0
  0
LINE
  5
83A
  8
0
 10
61.995612916820392
 20
67.309757559875379
 30
0.0
 11
61.995612916820392
 21
73.309757559875365
 31
0.0
  0
LINE
  5
83B
  8
0
 10
61.995612916820392
 20
67.309757559875379
 30
0.0
 11
61.995612916820392
 21
67.923257559875381
 31
0.0
  0
LINE
  5
83C
  8
3
 10
51.995612916820392
 20
67.923257559875381
 30
0.0
 11
56.495612916820399
 21
67.923257559875381
 31
0.0
  0
LINE
  5
841
  8
0
 10
68.995612916820392
 20
74.309757559875365
 30
0.0
 11
68.995612916820392
 21
66.309757559875379
 31
0.0
  0
POLYLINE
  5
845
  8
0
 66
     1
 10
0.0
 20
0.0
 30
0.0
  0
VERTEX
  5
DA2
  8
0
 10
68.995612916820392
 20
72.309757559875379
 30
0.0
  0
VERTEX
  5
DA3
  8
0
 10
68.995322390556453
 20
72.364706876640327
 30
0.0
  0
VERTEX
  5
DA4
  8
0
 10
68.993016356554648
 20
72.474072548884337
 30
0.0
  0
VERTEX
  5
DA5
  8
0
 10
68.988446683394159
 20
72.582867850578097
 30
0.0
  0
VERTEX
  5
DA6
  8
0
 10
68.985324848411395
 20
72.637102779740474
 30
0.0
  0
VERTEX
  5
DA7
  8
0
 10
68.981650441522532
 20
72.691255841398345
 30
0.0
  0
VERTEX
  5
DA8
  8
0
 10
68.972657599786075
 20
72.799394448039124
 30
0.0
  0
VERTEX
  5
DA9
  8
0
 10
68.961491372157326
 20
72.907437343296664
 30
0.0
  0
VERTEX
  5
DAA
  8
0
 10
68.948168506255584
 20
73.015534766233614
 30
0.0
  0
VERTEX
  5
DAB
  8
0
 10
68.932699518618165
 20
73.123834293511322
 30
0.0
  0
VERTEX
  5
DAC
  8
0
 10
68.915088880795992
 20
73.232481570944103
 30
0.0
  0
VERTEX
  5
DAD
  8
0
 10
68.905480222903066
 20
73.286980775106144
 30
0.0
  0
VERTEX
  5
DAE
  8
0
 10
68.895335159571601
 20
73.341621013485522
 30
0.0
  0
VERTEX
  5
DAF
  8
0
 10
68.873431113904033
 20
73.451396481182343
 30
0.0
  0
VERTEX
  5
DB0
  8
0
 10
68.849363750580736
 20
73.561951938102482
 30
0.0
  0
VERTEX
  5
DB1
  8
0
 10
68.823114339981572
 20
73.673432100845574
 30
0.0
  0
VERTEX
  5
DB2
  8
0
 10
68.794658392826591
 20
73.785983082964407
 30
0.0
  0
VERTEX
  5
DB3
  8
0
 10
68.763965598269209
 20
73.899753041454858
 30
0.0
  0
VERTEX
  5
DB4
  8
0
 10
68.747769295264675
 20
73.95714215549377
 30
0.0
  0
VERTEX
  5
DB5
  8
0
 10
68.730999723204349
 20
74.01489283140387
 30
0.0
  0
VERTEX
  5
DB6
  8
0
 10
68.695718472173041
 20
74.131556674917192
 30
0.0
  0
VERTEX
  5
DB7
  8
0
 10
68.658073306753153
 20
74.249902850579488
 30
0.0
  0
VERTEX
  5
DB8
  8
0
 10
68.638347326912225
 20
74.309757559875379
 30
0.0
  0
SEQEND
  5
DB9
  8
0
  0
LINE
  5
84D
  8
0
 10
74.795612916820374
 20
74.309757559875379
 30
0.0
 11
74.795612916820374
 21
66.309757559875379
 31
0.0
  0
POLYLINE
  5
84E
  8
0
 66
     1
 10
0.0
 20
0.0
 30
0.0
  0
VERTEX
  5
DBA
  8
0
 10
68.638347326912225
 20
66.309757559875379
 30
0.0
  0
VERTEX
  5
DBB
  8
0
 10
68.658073306753153
 20
66.369612269171483
 30
0.0
  0
VERTEX
  5
DBC
  8
0
 10
68.695718472173013
 20
66.487958444834192
 30
0.0
  0
VERTEX
  5
DBD
  8
0
 10
68.73099972320432
 20
66.604622288347869
 30
0.0
  0
VERTEX
  5
DBE
  8
0
 10
68.747769295264646
 20
66.66237296425814
 30
0.0
  0
VERTEX
  5
DBF
  8
0
 10
68.763965598269181
 20
66.719762078297194
 30
0.0
  0
VERTEX
  5
DC0
  8
0
 10
68.794658392826562
 20
66.833532036787915
 30
0.0
  0
VERTEX
  5
DC1
  8
0
 10
68.823114339981544
 20
66.946083018906975
 30
0.0
  0
VERTEX
  5
DC2
  8
0
 10
68.849363750580721
 20
67.057563181650238
 30
0.0
  0
VERTEX
  5
DC3
  8
0
 10
68.873431113904019
 20
67.168118638570519
 30
0.0
  0
VERTEX
  5
DC4
  8
0
 10
68.895335159571573
 20
67.277894106267411
 30
0.0
  0
VERTEX
  5
DC5
  8
0
 10
68.905480222903023
 20
67.332534344646817
 30
0.0
  0
VERTEX
  5
DC6
  8
0
 10
68.915088880795992
 20
67.387033548808859
 30
0.0
  0
VERTEX
  5
DC7
  8
0
 10
68.932699518618165
 20
67.49568082624161
 30
0.0
  0
VERTEX
  5
DC8
  8
0
 10
68.94816850625557
 20
67.603980353519248
 30
0.0
  0
VERTEX
  5
DC9
  8
0
 10
68.961491372157326
 20
67.712077776456042
 30
0.0
  0
VERTEX
  5
DCA
  8
0
 10
68.972657599786075
 20
67.820120671713383
 30
0.0
  0
VERTEX
  5
DCB
  8
0
 10
68.981650441522532
 20
67.928259278353863
 30
0.0
  0
VERTEX
  5
DCC
  8
0
 10
68.985324848411395
 20
67.982412340011606
 30
0.0
  0
VERTEX
  5
DCD
  8
0
 10
68.988446683394159
 20
68.036647269173812
 30
0.0
  0
VERTEX
  5
DCE
  8
0
 10
68.993016356554648
 20
68.145442570867175
 30
0.0
  0
VERTEX
  5
DCF
  8
0
 10
68.995322390556453
 20
68.254808243110702
 30
0.0
  0
VERTEX
  5
DD0
  8
0
 10
68.995612916820392
 20
68.309757559875365
 30
0.0
  0
SEQEND
  5
DD1
  8
0
  0
POLYLINE
  5
868
  8
0
 66
     1
 10
0.0
 20
0.0
 30
0.0
  0
VERTEX
  5
DD2
  8
0
 10
68.638347326912225
 20
66.309757559875379
 30
0.0
  0
VERTEX
  5
DD3
  8
0
 10
68.653316717132782
 20
66.309757559875379
 30
0.0
  0
VERTEX
  5
DD4
  8
0
 10
68.682218813320986
 20
66.309757559875379
 30
0.0
  0
VERTEX
  5
DD5
  8
0
 10
68.709758819808059
 20
66.309757559875379
 30
0.0
  0
VERTEX
  5
DD6
  8
0
 10
68.723025096107307
 20
66.309757559875379
 30
0.0
  0
SEQEND
  5
DD7
  8
0
  0
POLYLINE
  5
869
  8
0
 66
     1
 10
0.0
 20
0.0
 30
0.0
  0
VERTEX
  5
DD8
  8
0
 10
68.995612916820392
 20
68.309757559875365
 30
0.0
  0
VERTEX
  5
DD9
  8
0
 10
68.995322390556453
 20
68.364706876640327
 30
0.0
  0
VERTEX
  5
DDA
  8
0
 10
68.993016356554648
 20
68.474072548884337
 30
0.0
  0
VERTEX
  5
DDB
  8
0
 10
68.988446683394173
 20
68.582867850578097
 30
0.0
  0
VERTEX
  5
DDC
  8
0
 10
68.985324848411395
 20
68.637102779740474
 30
0.0
  0
VERTEX
  5
DDD
  8
0
 10
68.981650441522532
 20
68.691255841398359
 30
0.0
  0
VERTEX
  5
DDE
  8
0
 10
68.972657599786075
 20
68.799394448039124
 30
0.0
  0
VERTEX
  5
DDF
  8
0
 10
68.961491372157326
 20
68.907437343296664
 30
0.0
  0
VERTEX
  5
DE0
  8
0
 10
68.948168506255584
 20
69.015534766233614
 30
0.0
  0
VERTEX
  5
DE1
  8
0
 10
68.932699518618165
 20
69.123834293511322
 30
0.0
  0
VERTEX
  5
DE2
  8
0
 10
68.915088880795992
 20
69.232481570944103
 30
0.0
  0
VERTEX
  5
DE3
  8
0
 10
68.905480222903066
 20
69.286980775106144
 30
0.0
  0
VERTEX
  5
DE4
  8
0
 10
68.895335159571601
 20
69.341621013485522
 30
0.0
  0
VERTEX
  5
DE5
  8
0
 10
68.873431113904033
 20
69.451396481182343
 30
0.0
  0
VERTEX
  5
DE6
  8
0
 10
68.849363750580736
 20
69.561951938102482
 30
0.0
  0
VERTEX
  5
DE7
  8
0
 10
68.823114339981572
 20
69.673432100845574
 30
0.0
  0
VERTEX
  5
DE8
  8
0
 10
68.794658392826591
 20
69.785983082964407
 30
0.0
  0
VERTEX
  5
DE9
  8
0
 10
68.763965598269209
 20
69.899753041454844
 30
0.0
  0
VERTEX
  5
DEA
  8
0
 10
68.747769295264675
 20
69.95714215549377
 30
0.0
  0
VERTEX
  5
DEB
  8
0
 10
68.730999723204349
 20
70.014892831403856
 30
0.0
  0
VERTEX
  5
DEC
  8
0
 10
68.695718472173041
 20
70.131556674917192
 30
0.0
  0
VERTEX
  5
DED
  8
0
 10
68.658073306753153
 20
70.249902850579488
 30
0.0
  0
VERTEX
  5
DEE
  8
0
 10
68.638347326912225
 20
70.309757559875379
 30
0.0
  0
SEQEND
  5
DEF
  8
0
  0
POLYLINE
  5
86A
  8
0
 66
     1
 10
0.0
 20
0.0
 30
0.0
  0
VERTEX
  5
DF0
  8
0
 10
68.638347326912225
 20
70.309757559875379
 30
0.0
  0
VERTEX
  5
DF1
  8
0
 10
68.658073306753153
 20
70.369612269171483
 30
0.0
  0
VERTEX
  5
DF2
  8
0
 10
68.695718472173013
 20
70.487958444834192
 30
0.0
  0
VERTEX
  5
DF3
  8
0
 10
68.73099972320432
 20
70.604622288347855
 30
0.0
  0
VERTEX
  5
DF4
  8
0
 10
68.747769295264646
 20
70.66237296425814
 30
0.0
  0
VERTEX
  5
DF5
  8
0
 10
68.763965598269181
 20
70.719762078297194
 30
0.0
  0
VERTEX
  5
DF6
  8
0
 10
68.794658392826562
 20
70.833532036787915
 30
0.0
  0
VERTEX
  5
DF7
  8
0
 10
68.823114339981544
 20
70.946083018906975
 30
0.0
  0
VERTEX
  5
DF8
  8
0
 10
68.849363750580721
 20
71.057563181650238
 30
0.0
  0
VERTEX
  5
DF9
  8
0
 10
68.873431113904019
 20
71.168118638570505
 30
0.0
  0
VERTEX
  5
DFA
  8
0
 10
68.895335159571573
 20
71.277894106267411
 30
0.0
  0
VERTEX
  5
DFB
  8
0
 10
68.905480222903023
 20
71.332534344646817
 30
0.0
  0
VERTEX
  5
DFC
  8
0
 10
68.915088880795992
 20
71.387033548808859
 30
0.0
  0
VERTEX
  5
DFD
  8
0
 10
68.932699518618165
 20
71.49568082624161
 30
0.0
  0
VERTEX
  5
DFE
  8
0
 10
68.94816850625557
 20
71.603980353519233
 30
0.0
  0
VERTEX
  5
DFF
  8
0
 10
68.961491372157326
 20
71.712077776456042
 30
0.0
  0
VERTEX
  5
E00
  8
0
 10
68.972657599786075
 20
71.820120671713383
 30
0.0
  0
VERTEX
  5
E01
  8
0
 10
68.981650441522532
 20
71.928259278353877
 30
0.0
  0
VERTEX
  5
E02
  8
0
 10
68.985324848411395
 20
71.982412340011606
 30
0.0
  0
VERTEX
  5
E03
  8
0
 10
68.988446683394159
 20
72.036647269173798
 30
0.0
  0
VERTEX
  5
E04
  8
0
 10
68.993016356554648
 20
72.145442570867161
 30
0.0
  0
VERTEX
  5
E05
  8
0
 10
68.995322390556453
 20
72.254808243110702
 30
0.0
  0
VERTEX
  5
E06
  8
0
 10
68.995612916820392
 20
72.309757559875379
 30
0.0
  0
SEQEND
  5
E07
  8
0
  0
POLYLINE
  5
86B
  8
0
 66
     1
 10
0.0
 20
0.0
 30
0.0
  0
VERTEX
  5
E08
  8
0
 10
68.995612916820392
 20
68.309757559875365
 30
0.0
  0
VERTEX
  5
E09
  8
0
 10
68.995322390556453
 20
68.254808243110432
 30
0.0
  0
VERTEX
  5
E0A
  8
0
 10
68.993016356554648
 20
68.145442570866422
 30
0.0
  0
VERTEX
  5
E0B
  8
0
 10
68.988446683394159
 20
68.036647269172647
 30
0.0
  0
VERTEX
  5
E0C
  8
0
 10
68.985324848411395
 20
67.982412340010285
 30
0.0
  0
VERTEX
  5
E0D
  8
0
 10
68.981650441522532
 20
67.9282592783524
 30
0.0
  0
VERTEX
  5
E0E
  8
0
 10
68.972657599786075
 20
67.820120671711635
 30
0.0
  0
VERTEX
  5
E0F
  8
0
 10
68.961491372157326
 20
67.712077776454095
 30
0.0
  0
VERTEX
  5
E10
  8
0
 10
68.948168506255584
 20
67.603980353517144
 30
0.0
  0
VERTEX
  5
E11
  8
0
 10
68.932699518618165
 20
67.495680826239436
 30
0.0
  0
VERTEX
  5
E12
  8
0
 10
68.915088880795992
 20
67.387033548806656
 30
0.0
  0
VERTEX
  5
E13
  8
0
 10
68.905480222903066
 20
67.332534344644614
 30
0.0
  0
VERTEX
  5
E14
  8
0
 10
68.895335159571601
 20
67.277894106265236
 30
0.0
  0
VERTEX
  5
E15
  8
0
 10
68.873431113904033
 20
67.168118638568416
 30
0.0
  0
VERTEX
  5
E16
  8
0
 10
68.849363750580736
 20
67.057563181648277
 30
0.0
  0
VERTEX
  5
E17
  8
0
 10
68.823114339981572
 20
66.946083018905185
 30
0.0
  0
VERTEX
  5
E18
  8
0
 10
68.794658392826591
 20
66.833532036786352
 30
0.0
  0
VERTEX
  5
E19
  8
0
 10
68.763965598269209
 20
66.719762078295901
 30
0.0
  0
VERTEX
  5
E1A
  8
0
 10
68.747769295264675
 20
66.662372964256974
 30
0.0
  0
VERTEX
  5
E1B
  8
0
 10
68.730999723204349
 20
66.604622288346874
 30
0.0
  0
VERTEX
  5
E1C
  8
0
 10
68.695718472173041
 20
66.487958444833566
 30
0.0
  0
VERTEX
  5
E1D
  8
0
 10
68.658073306753153
 20
66.36961226917127
 30
0.0
  0
VERTEX
  5
E1E
  8
0
 10
68.638347326912225
 20
66.309757559875379
 30
0.0
  0
SEQEND
  5
E1F
  8
0
  0
POLYLINE
  5
86C
  8
0
 66
     1
 10
0.0
 20
0.0
 30
0.0
  0
VERTEX
  5
E20
  8
0
 10
68.638347326912225
 20
70.309757559875379
 30
0.0
  0
VERTEX
  5
E21
  8
0
 10
68.658073306753153
 20
70.249902850579275
 30
0.0
  0
VERTEX
  5
E22
  8
0
 10
68.695718472173013
 20
70.131556674916567
 30
0.0
  0
VERTEX
  5
E23
  8
0
 10
68.73099972320432
 20
70.014892831402889
 30
0.0
  0
VERTEX
  5
E24
  8
0
 10
68.747769295264646
 20
69.957142155492619
 30
0.0
  0
VERTEX
  5
E25
  8
0
 10
68.763965598269181
 20
69.899753041453565
 30
0.0
  0
VERTEX
  5
E26
  8
0
 10
68.794658392826562
 20
69.785983082962844
 30
0.0
  0
VERTEX
  5
E27
  8
0
 10
68.823114339981544
 20
69.673432100843783
 30
0.0
  0
VERTEX
  5
E28
  8
0
 10
68.849363750580721
 20
69.56195193810052
 30
0.0
  0
VERTEX
  5
E29
  8
0
 10
68.873431113904019
 20
69.45139648118024
 30
0.0
  0
VERTEX
  5
E2A
  8
0
 10
68.895335159571573
 20
69.341621013483334
 30
0.0
  0
VERTEX
  5
E2B
  8
0
 10
68.905480222903023
 20
69.286980775103942
 30
0.0
  0
VERTEX
  5
E2C
  8
0
 10
68.915088880795992
 20
69.2324815709419
 30
0.0
  0
VERTEX
  5
E2D
  8
0
 10
68.932699518618165
 20
69.123834293509134
 30
0.0
  0
VERTEX
  5
E2E
  8
0
 10
68.94816850625557
 20
69.015534766231525
 30
0.0
  0
VERTEX
  5
E2F
  8
0
 10
68.961491372157326
 20
68.907437343294717
 30
0.0
  0
VERTEX
  5
E30
  8
0
 10
68.972657599786075
 20
68.799394448037376
 30
0.0
  0
VERTEX
  5
E31
  8
0
 10
68.981650441522532
 20
68.691255841396881
 30
0.0
  0
VERTEX
  5
E32
  8
0
 10
68.985324848411395
 20
68.637102779739152
 30
0.0
  0
VERTEX
  5
E33
  8
0
 10
68.988446683394159
 20
68.58286785057696
 30
0.0
  0
VERTEX
  5
E34
  8
0
 10
68.993016356554648
 20
68.474072548883584
 30
0.0
  0
VERTEX
  5
E35
  8
0
 10
68.995322390556453
 20
68.364706876640057
 30
0.0
  0
VERTEX
  5
E36
  8
0
 10
68.995612916820392
 20
68.309757559875365
 30
0.0
  0
SEQEND
  5
E37
  8
0
  0
LINE
  5
86D
  8
0
 10
68.638347326912225
 20
70.309757559875379
 30
0.0
 11
63.995612916820392
 21
70.309757559875379
 31
0.0
  0
POLYLINE
  5
86E
  8
0
 66
     1
 10
0.0
 20
0.0
 30
0.0
  0
VERTEX
  5
E38
  8
0
 10
68.995612916820392
 20
72.309757559875379
 30
0.0
  0
VERTEX
  5
E39
  8
0
 10
68.995322390556453
 20
72.254808243110432
 30
0.0
  0
VERTEX
  5
E3A
  8
0
 10
68.993016356554648
 20
72.145442570866422
 30
0.0
  0
VERTEX
  5
E3B
  8
0
 10
68.988446683394173
 20
72.036647269172661
 30
0.0
  0
VERTEX
  5
E3C
  8
0
 10
68.985324848411395
 20
71.982412340010285
 30
0.0
  0
VERTEX
  5
E3D
  8
0
 10
68.981650441522532
 20
71.9282592783524
 30
0.0
  0
VERTEX
  5
E3E
  8
0
 10
68.972657599786075
 20
71.820120671711635
 30
0.0
  0
VERTEX
  5
E3F
  8
0
 10
68.961491372157326
 20
71.712077776454095
 30
0.0
  0
VERTEX
  5
E40
  8
0
 10
68.948168506255584
 20
71.603980353517144
 30
0.0
  0
VERTEX
  5
E41
  8
0
 10
68.932699518618165
 20
71.495680826239436
 30
0.0
  0
VERTEX
  5
E42
  8
0
 10
68.915088880795992
 20
71.387033548806656
 30
0.0
  0
VERTEX
  5
E43
  8
0
 10
68.905480222903066
 20
71.332534344644614
 30
0.0
  0
VERTEX
  5
E44
  8
0
 10
68.895335159571601
 20
71.277894106265236
 30
0.0
  0
VERTEX
  5
E45
  8
0
 10
68.873431113904033
 20
71.168118638568416
 30
0.0
  0
VERTEX
  5
E46
  8
0
 10
68.849363750580736
 20
71.057563181648277
 30
0.0
  0
VERTEX
  5
E47
  8
0
 10
68.823114339981572
 20
70.946083018905185
 30
0.0
  0
VERTEX
  5
E48
  8
0
 10
68.794658392826591
 20
70.833532036786352
 30
0.0
  0
VERTEX
  5
E49
  8
0
 10
68.763965598269209
 20
70.719762078295901
 30
0.0
  0
VERTEX
  5
E4A
  8
0
 10
68.747769295264675
 20
70.662372964256988
 30
0.0
  0
VERTEX
  5
E4B
  8
0
 10
68.730999723204349
 20
70.604622288346889
 30
0.0
  0
VERTEX
  5
E4C
  8
0
 10
68.695718472173041
 20
70.487958444833566
 30
0.0
  0
VERTEX
  5
E4D
  8
0
 10
68.658073306753153
 20
70.36961226917127
 30
0.0
  0
VERTEX
  5
E4E
  8
0
 10
68.638347326912225
 20
70.309757559875379
 30
0.0
  0
SEQEND
  5
E4F
  8
0
  0
POLYLINE
  5
86F
  8
0
 66
     1
 10
0.0
 20
0.0
 30
0.0
  0
VERTEX
  5
E50
  8
0
 10
68.638347326912225
 20
74.309757559875379
 30
0.0
  0
VERTEX
  5
E51
  8
0
 10
68.658073306753153
 20
74.249902850579275
 30
0.0
  0
VERTEX
  5
E52
  8
0
 10
68.695718472173013
 20
74.131556674916567
 30
0.0
  0
VERTEX
  5
E53
  8
0
 10
68.73099972320432
 20
74.014892831402889
 30
0.0
  0
VERTEX
  5
E54
  8
0
 10
68.747769295264646
 20
73.957142155492605
 30
0.0
  0
VERTEX
  5
E55
  8
0
 10
68.763965598269181
 20
73.899753041453565
 30
0.0
  0
VERTEX
  5
E56
  8
0
 10
68.794658392826562
 20
73.785983082962844
 30
0.0
  0
VERTEX
  5
E57
  8
0
 10
68.823114339981544
 20
73.673432100843783
 30
0.0
  0
VERTEX
  5
E58
  8
0
 10
68.849363750580721
 20
73.56195193810052
 30
0.0
  0
VERTEX
  5
E59
  8
0
 10
68.873431113904019
 20
73.45139648118024
 30
0.0
  0
VERTEX
  5
E5A
  8
0
 10
68.895335159571573
 20
73.341621013483348
 30
0.0
  0
VERTEX
  5
E5B
  8
0
 10
68.905480222903023
 20
73.286980775103942
 30
0.0
  0
VERTEX
  5
E5C
  8
0
 10
68.915088880795992
 20
73.2324815709419
 30
0.0
  0
VERTEX
  5
E5D
  8
0
 10
68.932699518618165
 20
73.123834293509148
 30
0.0
  0
VERTEX
  5
E5E
  8
0
 10
68.94816850625557
 20
73.015534766231511
 30
0.0
  0
VERTEX
  5
E5F
  8
0
 10
68.961491372157326
 20
72.907437343294717
 30
0.0
  0
VERTEX
  5
E60
  8
0
 10
68.972657599786075
 20
72.799394448037376
 30
0.0
  0
VERTEX
  5
E61
  8
0
 10
68.981650441522532
 20
72.691255841396881
 30
0.0
  0
VERTEX
  5
E62
  8
0
 10
68.985324848411395
 20
72.637102779739152
 30
0.0
  0
VERTEX
  5
E63
  8
0
 10
68.988446683394159
 20
72.582867850576946
 30
0.0
  0
VERTEX
  5
E64
  8
0
 10
68.993016356554648
 20
72.474072548883584
 30
0.0
  0
VERTEX
  5
E65
  8
0
 10
68.995322390556453
 20
72.364706876640057
 30
0.0
  0
VERTEX
  5
E66
  8
0
 10
68.995612916820392
 20
72.309757559875379
 30
0.0
  0
SEQEND
  5
E67
  8
0
  0
LINE
  5
870
  8
0
 10
63.995612916820392
 20
66.309757559875379
 30
0.0
 11
63.995612916820392
 21
74.309757559875379
 31
0.0
  0
POLYLINE
  5
871
  8
0
 66
     1
 10
0.0
 20
0.0
 30
0.0
  0
VERTEX
  5
E68
  8
0
 10
68.723025096107392
 20
74.309757559875379
 30
0.0
  0
VERTEX
  5
E69
  8
0
 10
68.709758819808059
 20
74.309757559875379
 30
0.0
  0
VERTEX
  5
E6A
  8
0
 10
68.682218813320873
 20
74.309757559875379
 30
0.0
  0
VERTEX
  5
E6B
  8
0
 10
68.653316717132697
 20
74.309757559875379
 30
0.0
  0
VERTEX
  5
E6C
  8
0
 10
68.638347326912225
 20
74.309757559875379
 30
0.0
  0
SEQEND
  5
E6D
  8
0
  0
LINE
  5
872
  8
0
 10
51.995612916820392
 20
72.696257559875363
 30
0.0
 11
51.995612916820392
 21
67.923257559875381
 31
0.0
  0
LINE
  5
873
  8
0
 10
52.609112916820379
 20
73.309757559875365
 30
0.0
 11
52.609112916820379
 21
67.309757559875379
 31
0.0
  0
LINE
  5
876
  8
0
 10
78.924758678233914
 20
77.309757559875379
 30
0.0
 11
78.924758678233914
 21
63.309757559875372
 31
0.0
  0
LINE
  5
877
  8
0
 10
79.195612916820394
 20
77.309757559875379
 30
0.0
 11
79.19561291682038
 21
63.309757559875372
 31
0.0
  0
LINE
  5
878
  8
0
 10
79.995612916820392
 20
76.509757559875382
 30
0.0
 11
79.995612916820392
 21
64.109757559875376
 31
0.0
  0
LINE
  5
879
  8
0
 10
74.795612916820374
 20
74.309757559875379
 30
0.0
 11
63.995612916820392
 21
74.309757559875379
 31
0.0
  0
LINE
  5
87A
  8
0
 10
63.995612916820392
 20
66.309757559875379
 30
0.0
 11
74.795612916820374
 21
66.309757559875379
 31
0.0
  0
LINE
  5
87D
  8
0
 10
52.609112916820379
 20
73.309757559875365
 30
0.0
 11
51.995612916820392
 21
72.696257559875363
 31
0.0
  0
LINE
  5
87E
  8
0
 10
51.995612916820392
 20
67.923257559875381
 30
0.0
 11
52.609112916820379
 21
67.309757559875379
 31
0.0
  0
LINE
  5
87F
  8
0
 10
63.99561291682037
 20
73.309757559875365
 30
0.0
 11
59.495612916820399
 21
73.309757559875365
 31
0.0
  0
LINE
  5
880
  8
0
 10
52.609112916820379
 20
67.309757559875379
 30
0.0
 11
56.495612916820399
 21
67.309757559875379
 31
0.0
  0
LINE
  5
885
  8
0
 10
78.924758678233914
 20
77.309757559875379
 30
0.0
 11
74.795612916820374
 21
74.309757559875379
 31
0.0
  0
LINE
  5
886
  8
0
 10
74.795612916820374
 20
66.309757559875379
 30
0.0
 11
78.924758678233914
 21
63.309757559875372
 31
0.0
  0
LINE
  5
887
  8
0
 10
79.195612916820394
 20
77.309757559875379
 30
0.0
 11
78.924758678233914
 21
77.309757559875379
 31
0.0
  0
LINE
  5
888
  8
0
 10
78.924758678233914
 20
63.309757559875372
 30
0.0
 11
79.19561291682038
 21
63.309757559875372
 31
0.0
  0
ARC
  5
889
  8
0
 10
79.195612916820394
 20
64.109757559875362
 30
0.0
 40
0.7999999999999999
 50
270.0
 51
0.0
  0
ARC
  5
88A
  8
0
 10
79.195612916820394
 20
76.509757559875368
 30
0.0
 40
0.7999999999999991
 50
0.0
 51
90.0
  0
ARC
  5
88B
  8
2
 10
88.195612916820352
 20
70.309757559875379
 30
0.0
 40
9.9999999999999645
 50
145.0847937525561
 51
214.91520624744459
  0
LINE
  5
897
  8
1
 10
106.56547956541429
 20
30.309757559875379
 30
0.0
 11
126.56547956541429
 21
30.309757559875379
 31
0.0
  0
CIRCLE
  5
898
  8
0
 10
116.56547956541429
 20
30.309757559875379
 30
0.0
 40
7.0
  0
LINE
  5
899
  8
1
 10
116.56547956541429
 20
40.309757559875379
 30
0.0
 11
116.56547956541429
 21
20.309757559875379
 31
0.0
  0
LINE
  5
990
  8
0
 10
48.736138055110047
 20
71.486744597862071
 30
0.0
 11
48.736138055110047
 21
69.132770521888659
 31
0.0
  0
ARC
  5
991
  8
0
 10
51.495612916820392
 20
70.309757559875365
 30
0.0
 40
3.0
 50
156.90050479442371
 51
203.09949520557629
  0
LINE
  5
992
  8
0
 10
49.295612916820403
 20
68.809757559875365
 30
0.0
 11
51.995612916820392
 21
68.809757559875365
 31
0.0
  0
LINE
  5
993
  8
0
 10
51.995612916820392
 20
71.809757559875365
 30
0.0
 11
49.295612916820403
 21
71.809757559875365
 31
0.0
  0
LINE
  5
994
  8
0
 10
48.736138055110047
 20
69.132770521888659
 30
0.0
 11
49.295612916820403
 21
68.809757559875365
 31
0.0
  0
LINE
  5
995
  8
0
 10
49.295612916820403
 20
71.809757559875365
 30
0.0
 11
48.736138055110047
 21
71.486744597862071
 31
0.0
  0
LINE
  5
996
  8
0
 10
49.295612916820403
 20
71.809757559875365
 30
0.0
 11
49.295612916820403
 21
68.809757559875365
 31
0.0
  0
LINE
  5
997
  8
0
 10
49.295612916820403
 20
31.809757559875379
 30
0.0
 11
49.295612916820403
 21
28.809757559875379
 31
0.0
  0
LINE
  5
998
  8
0
 10
49.295612916820403
 20
31.809757559875379
 30
0.0
 11
48.736138055110047
 21
31.486744597862089
 31
0.0
  0
LINE
  5
999
  8
0
 10
48.736138055110047
 20
29.13277052188867
 30
0.0
 11
49.295612916820403
 21
28.809757559875379
 31
0.0
  0
LINE
  5
99A
  8
0
 10
51.995612916820392
 20
31.809757559875379
 30
0.0
 11
49.295612916820403
 21
31.809757559875379
 31
0.0
  0
LINE
  5
99B
  8
0
 10
49.295612916820403
 20
28.809757559875379
 30
0.0
 11
51.995612916820392
 21
28.809757559875379
 31
0.0
  0
ARC
  5
99C
  8
0
 10
51.495612916820392
 20
30.309757559875379
 30
0.0
 40
3.0
 50
156.90050479442371
 51
203.09949520557629
  0
LINE
  5
99D
  8
0
 10
48.736138055110047
 20
31.486744597862089
 30
0.0
 11
48.736138055110047
 21
29.13277052188867
 31
0.0
  0
LINE
  5
A01
  8
3
 10
61.995612916820392
 20
72.696257559875363
 30
0.0
 11
63.05822608726389
 21
73.309757559875365
 31
0.0
  0
LINE
  5
A03
  8
3
 10
61.995612916820392
 20
67.923257559875381
 30
0.0
 11
63.058226087263932
 21
67.309757559875379
 31
0.0
  0
LINE
  5
A04
  8
3
 10
61.995612916820392
 20
32.696257559875413
 30
0.0
 11
63.05822608726389
 21
33.309757559875408
 31
0.0
  0
LINE
  5
A05
  8
3
 10
61.995612916820392
 20
27.92325755987541
 30
0.0
 11
63.058226087263932
 21
27.309757559875411
 31
0.0
  0
POLYLINE
  5
B48
  8
0
 66
     1
 10
0.0
 20
0.0
 30
0.0
  0
VERTEX
  5
E6E
  8
0
 10
59.214080960845379
 20
24.536254867979139
 30
0.0
  0
VERTEX
  5
E6F
  8
0
 10
59.299938138056049
 20
24.789552070472752
 30
0.0
  0
VERTEX
  5
E70
  8
0
 10
59.424187134392653
 20
25.272361556445588
 30
0.0
  0
VERTEX
  5
E71
  8
0
 10
59.48742912878312
 20
25.742273587510262
 30
0.0
  0
VERTEX
  5
E72
  8
0
 10
59.49561291682037
 20
25.979630540953199
 30
0.0
  0
SEQEND
  5
E73
  8
0
  0
LINE
  5
B49
  8
0
 10
56.777144872795411
 20
24.536254867979139
 30
0.0
 11
59.214080960845379
 21
24.536254867979139
 31
0.0
  0
POLYLINE
  5
B4A
  8
0
 66
     1
 10
0.0
 20
0.0
 30
0.0
  0
VERTEX
  5
E74
  8
0
 10
56.495612916820392
 20
25.979630540953199
 30
0.0
  0
VERTEX
  5
E75
  8
0
 10
56.503796704857628
 20
25.742273587509882
 30
0.0
  0
VERTEX
  5
E76
  8
0
 10
56.567038699248101
 20
25.272361556444991
 30
0.0
  0
VERTEX
  5
E77
  8
0
 10
56.691287695584698
 20
24.789552070472439
 30
0.0
  0
VERTEX
  5
E78
  8
0
 10
56.777144872795411
 20
24.536254867979139
 30
0.0
  0
SEQEND
  5
E79
  8
0
  0
POLYLINE
  5
B4B
  8
0
 66
     1
 10
0.0
 20
0.0
 30
0.0
  0
VERTEX
  5
E7A
  8
0
 10
56.777144872795411
 20
27.42300621392727
 30
0.0
  0
VERTEX
  5
E7B
  8
0
 10
56.691287695584727
 20
27.16970901143366
 30
0.0
  0
VERTEX
  5
E7C
  8
0
 10
56.567038699248108
 20
26.68689952546082
 30
0.0
  0
VERTEX
  5
E7D
  8
0
 10
56.503796704857649
 20
26.21698749439615
 30
0.0
  0
VERTEX
  5
E7E
  8
0
 10
56.495612916820392
 20
25.979630540953199
 30
0.0
  0
SEQEND
  5
E7F
  8
0
  0
POLYLINE
  5
B4C
  8
0
 66
     1
 10
0.0
 20
0.0
 30
0.0
  0
VERTEX
  5
E80
  8
0
 10
59.49561291682037
 20
25.979630540953199
 30
0.0
  0
VERTEX
  5
E81
  8
0
 10
59.48742912878312
 20
26.216987494396509
 30
0.0
  0
VERTEX
  5
E82
  8
0
 10
59.424187134392653
 20
26.686899525461421
 30
0.0
  0
VERTEX
  5
E83
  8
0
 10
59.299938138056049
 20
27.169709011433969
 30
0.0
  0
VERTEX
  5
E84
  8
0
 10
59.214080960845379
 20
27.42300621392727
 30
0.0
  0
SEQEND
  5
E85
  8
0
  0
POLYLINE
  5
B4D
  8
0
 66
     1
 10
0.0
 20
0.0
 30
0.0
  0
VERTEX
  5
E86
  8
0
 10
59.214080960845379
 20
33.196508905823521
 30
0.0
  0
VERTEX
  5
E87
  8
0
 10
59.299938138056049
 20
33.449806108317141
 30
0.0
  0
VERTEX
  5
E88
  8
0
 10
59.424187134392653
 20
33.93261559428997
 30
0.0
  0
VERTEX
  5
E89
  8
0
 10
59.48742912878312
 20
34.402527625354637
 30
0.0
  0
VERTEX
  5
E8A
  8
0
 10
59.49561291682037
 20
34.639884578797592
 30
0.0
  0
SEQEND
  5
E8B
  8
0
  0
POLYLINE
  5
B4E
  8
0
 66
     1
 10
0.0
 20
0.0
 30
0.0
  0
VERTEX
  5
E8C
  8
0
 10
56.495612916820392
 20
34.639884578797592
 30
0.0
  0
VERTEX
  5
E8D
  8
0
 10
56.503796704857649
 20
34.402527625354281
 30
0.0
  0
VERTEX
  5
E8E
  8
0
 10
56.567038699248108
 20
33.932615594289381
 30
0.0
  0
VERTEX
  5
E8F
  8
0
 10
56.691287695584698
 20
33.449806108316821
 30
0.0
  0
VERTEX
  5
E90
  8
0
 10
56.777144872795411
 20
33.196508905823521
 30
0.0
  0
SEQEND
  5
E91
  8
0
  0
POLYLINE
  5
B4F
  8
0
 66
     1
 10
0.0
 20
0.0
 30
0.0
  0
VERTEX
  5
E92
  8
0
 10
56.777144872795411
 20
36.083260251771648
 30
0.0
  0
VERTEX
  5
E93
  8
0
 10
56.691287695584727
 20
35.829963049278028
 30
0.0
  0
VERTEX
  5
E94
  8
0
 10
56.567038699248108
 20
35.347153563305199
 30
0.0
  0
VERTEX
  5
E95
  8
0
 10
56.503796704857649
 20
34.877241532240532
 30
0.0
  0
VERTEX
  5
E96
  8
0
 10
56.495612916820392
 20
34.639884578797592
 30
0.0
  0
SEQEND
  5
E97
  8
0
  0
LINE
  5
B50
  8
0
 10
56.777144872795411
 20
36.083260251771648
 30
0.0
 11
59.214080960845379
 21
36.083260251771648
 31
0.0
  0
POLYLINE
  5
B51
  8
0
 66
     1
 10
0.0
 20
0.0
 30
0.0
  0
VERTEX
  5
E98
  8
0
 10
59.49561291682037
 20
34.639884578797592
 30
0.0
  0
VERTEX
  5
E99
  8
0
 10
59.48742912878312
 20
34.877241532240902
 30
0.0
  0
VERTEX
  5
E9A
  8
0
 10
59.42418713439266
 20
35.347153563305788
 30
0.0
  0
VERTEX
  5
E9B
  8
0
 10
59.299938138056049
 20
35.829963049278348
 30
0.0
  0
VERTEX
  5
E9C
  8
0
 10
59.214080960845379
 20
36.083260251771648
 30
0.0
  0
SEQEND
  5
E9D
  8
0
  0
POLYLINE
  5
B52
  8
0
 66
     1
 10
0.0
 20
0.0
 30
0.0
  0
VERTEX
  5
E9E
  8
0
 10
59.214080960845379
 20
27.42300621392727
 30
0.0
  0
VERTEX
  5
E9F
  8
0
 10
59.299938138056049
 20
27.929600618914488
 30
0.0
  0
VERTEX
  5
EA0
  8
0
 10
59.424187134392653
 20
28.895219590860179
 30
0.0
  0
VERTEX
  5
EA1
  8
0
 10
59.48742912878312
 20
29.835043652989501
 30
0.0
  0
VERTEX
  5
EA2
  8
0
 10
59.49561291682037
 20
30.30975755987539
 30
0.0
  0
SEQEND
  5
EA3
  8
0
  0
POLYLINE
  5
B53
  8
0
 66
     1
 10
0.0
 20
0.0
 30
0.0
  0
VERTEX
  5
EA4
  8
0
 10
56.495612916820392
 20
30.30975755987539
 30
0.0
  0
VERTEX
  5
EA5
  8
0
 10
56.503796704857649
 20
29.835043652988769
 30
0.0
  0
VERTEX
  5
EA6
  8
0
 10
56.567038699248108
 20
28.895219590858961
 30
0.0
  0
VERTEX
  5
EA7
  8
0
 10
56.69128769558472
 20
27.92960061891387
 30
0.0
  0
VERTEX
  5
EA8
  8
0
 10
56.777144872795411
 20
27.42300621392727
 30
0.0
  0
SEQEND
  5
EA9
  8
0
  0
POLYLINE
  5
B54
  8
0
 66
     1
 10
0.0
 20
0.0
 30
0.0
  0
VERTEX
  5
EAA
  8
0
 10
56.777144872795411
 20
33.196508905823521
 30
0.0
  0
VERTEX
  5
EAB
  8
0
 10
56.691287695584727
 20
32.689914500836302
 30
0.0
  0
VERTEX
  5
EAC
  8
0
 10
56.567038699248108
 20
31.724295528890611
 30
0.0
  0
VERTEX
  5
EAD
  8
0
 10
56.503796704857649
 20
30.784471466761278
 30
0.0
  0
VERTEX
  5
EAE
  8
0
 10
56.495612916820392
 20
30.30975755987539
 30
0.0
  0
SEQEND
  5
EAF
  8
0
  0
POLYLINE
  5
B55
  8
0
 66
     1
 10
0.0
 20
0.0
 30
0.0
  0
VERTEX
  5
EB0
  8
0
 10
59.49561291682037
 20
30.30975755987539
 30
0.0
  0
VERTEX
  5
EB1
  8
0
 10
59.48742912878312
 20
30.784471466762021
 30
0.0
  0
VERTEX
  5
EB2
  8
0
 10
59.42418713439266
 20
31.72429552889183
 30
0.0
  0
VERTEX
  5
EB3
  8
0
 10
59.299938138056049
 20
32.68991450083692
 30
0.0
  0
VERTEX
  5
EB4
  8
0
 10
59.214080960845379
 20
33.196508905823521
 30
0.0
  0
SEQEND
  5
EB5
  8
0
  0
LINE
  5
B56
  8
0
 10
56.777144872795411
 20
33.196508905823521
 30
0.0
 11
59.214080960845379
 21
33.196508905823521
 31
0.0
  0
LINE
  5
B57
  8
0
 10
56.777144872795411
 20
27.42300621392727
 30
0.0
 11
59.214080960845379
 21
27.42300621392727
 31
0.0
  0
LINE
  5
B58
  8
0
 10
59.49561291682037
 20
35.309757559875393
 30
0.0
 11
59.49561291682037
 21
25.30975755987539
 31
0.0
  0
LINE
  5
B59
  8
0
 10
56.495612916820392
 20
35.309757559875393
 30
0.0
 11
56.49561291682037
 21
25.30975755987539
 31
0.0
  0
LINE
  5
B5A
  8
0
 10
59.214080960845379
 20
24.536254867979139
 30
0.0
 11
59.49561291682037
 21
25.30975755987539
 31
0.0
  0
LINE
  5
B5B
  8
0
 10
59.49561291682037
 20
35.309757559875393
 30
0.0
 11
59.214080960845379
 21
36.083260251771648
 31
0.0
  0
LINE
  5
B5C
  8
0
 10
56.49561291682037
 20
25.30975755987539
 30
0.0
 11
56.777144872795411
 21
24.536254867979139
 31
0.0
  0
LINE
  5
B5D
  8
0
 10
56.777144872795411
 20
36.083260251771648
 30
0.0
 11
56.495612916820392
 21
35.309757559875393
 31
0.0
  0
POLYLINE
  5
B5E
  8
0
 66
     1
 10
0.0
 20
0.0
 30
0.0
  0
VERTEX
  5
EB6
  8
0
 10
59.214080960845372
 20
70.309757559875351
 30
0.0
  0
VERTEX
  5
EB7
  8
0
 10
59.299938138056042
 20
70.748481184009364
 30
0.0
  0
VERTEX
  5
EB8
  8
0
 10
59.42418713439266
 20
71.584731744090533
 30
0.0
  0
VERTEX
  5
EB9
  8
0
 10
59.487429128783113
 20
72.39864325698241
 30
0.0
  0
VERTEX
  5
EBA
  8
0
 10
59.495612916820377
 20
72.809757559875351
 30
0.0
  0
SEQEND
  5
EBB
  8
0
  0
POLYLINE
  5
B5F
  8
0
 66
     1
 10
0.0
 20
0.0
 30
0.0
  0
VERTEX
  5
EBC
  8
0
 10
56.495612916820377
 20
72.809757559875351
 30
0.0
  0
VERTEX
  5
EBD
  8
0
 10
56.503796704857649
 20
72.398643256981785
 30
0.0
  0
VERTEX
  5
EBE
  8
0
 10
56.567038699248108
 20
71.584731744089481
 30
0.0
  0
VERTEX
  5
EBF
  8
0
 10
56.691287695584712
 20
70.748481184008824
 30
0.0
  0
VERTEX
  5
EC0
  8
0
 10
56.777144872795397
 20
70.309757559875351
 30
0.0
  0
SEQEND
  5
EC1
  8
0
  0
POLYLINE
  5
B60
  8
0
 66
     1
 10
0.0
 20
0.0
 30
0.0
  0
VERTEX
  5
EC2
  8
0
 10
56.777144872795397
 20
75.309757559875365
 30
0.0
  0
VERTEX
  5
EC3
  8
0
 10
56.69128769558472
 20
74.871033935741352
 30
0.0
  0
VERTEX
  5
EC4
  8
0
 10
56.567038699248108
 20
74.034783375660183
 30
0.0
  0
VERTEX
  5
EC5
  8
0
 10
56.503796704857649
 20
73.220871862768306
 30
0.0
  0
VERTEX
  5
EC6
  8
0
 10
56.495612916820377
 20
72.809757559875351
 30
0.0
  0
SEQEND
  5
EC7
  8
0
  0
POLYLINE
  5
B61
  8
0
 66
     1
 10
0.0
 20
0.0
 30
0.0
  0
VERTEX
  5
EC8
  8
0
 10
59.495612916820377
 20
72.809757559875351
 30
0.0
  0
VERTEX
  5
EC9
  8
0
 10
59.487429128783113
 20
73.220871862768931
 30
0.0
  0
VERTEX
  5
ECA
  8
0
 10
59.42418713439266
 20
74.034783375661235
 30
0.0
  0
VERTEX
  5
ECB
  8
0
 10
59.299938138056049
 20
74.871033935741892
 30
0.0
  0
VERTEX
  5
ECC
  8
0
 10
59.214080960845372
 20
75.309757559875351
 30
0.0
  0
SEQEND
  5
ECD
  8
0
  0
LINE
  5
B62
  8
0
 10
56.495612916820392
 20
75.309757559875365
 30
0.0
 11
59.495612916820392
 21
75.309757559875365
 31
0.0
  0
LINE
  5
B63
  8
0
 10
56.77714487279539
 20
70.309757559875351
 30
0.0
 11
59.214080960845372
 21
70.309757559875351
 31
0.0
  0
POLYLINE
  5
B64
  8
0
 66
     1
 10
0.0
 20
0.0
 30
0.0
  0
VERTEX
  5
ECE
  8
0
 10
59.495612916820377
 20
67.809757559875351
 30
0.0
  0
VERTEX
  5
ECF
  8
0
 10
59.487429128783113
 20
67.398643256981785
 30
0.0
  0
VERTEX
  5
ED0
  8
0
 10
59.42418713439266
 20
66.584731744089481
 30
0.0
  0
VERTEX
  5
ED1
  8
0
 10
59.299938138056049
 20
65.74848118400881
 30
0.0
  0
VERTEX
  5
ED2
  8
0
 10
59.214080960845372
 20
65.309757559875351
 30
0.0
  0
SEQEND
  5
ED3
  8
0
  0
POLYLINE
  5
B65
  8
0
 66
     1
 10
0.0
 20
0.0
 30
0.0
  0
VERTEX
  5
ED4
  8
0
 10
59.214080960845372
 20
70.309757559875351
 30
0.0
  0
VERTEX
  5
ED5
  8
0
 10
59.299938138056042
 20
69.871033935741352
 30
0.0
  0
VERTEX
  5
ED6
  8
0
 10
59.42418713439266
 20
69.034783375660183
 30
0.0
  0
VERTEX
  5
ED7
  8
0
 10
59.487429128783113
 20
68.220871862768291
 30
0.0
  0
VERTEX
  5
ED8
  8
0
 10
59.495612916820377
 20
67.809757559875351
 30
0.0
  0
SEQEND
  5
ED9
  8
0
  0
POLYLINE
  5
B66
  8
0
 66
     1
 10
0.0
 20
0.0
 30
0.0
  0
VERTEX
  5
EDA
  8
0
 10
56.495612916820377
 20
67.809757559875351
 30
0.0
  0
VERTEX
  5
EDB
  8
0
 10
56.503796704857649
 20
68.220871862768931
 30
0.0
  0
VERTEX
  5
EDC
  8
0
 10
56.567038699248108
 20
69.034783375661235
 30
0.0
  0
VERTEX
  5
EDD
  8
0
 10
56.691287695584712
 20
69.871033935741892
 30
0.0
  0
VERTEX
  5
EDE
  8
0
 10
56.777144872795397
 20
70.309757559875351
 30
0.0
  0
SEQEND
  5
EDF
  8
0
  0
POLYLINE
  5
B67
  8
0
 66
     1
 10
0.0
 20
0.0
 30
0.0
  0
VERTEX
  5
EE0
  8
0
 10
56.777144872795397
 20
65.309757559875351
 30
0.0
  0
VERTEX
  5
EE1
  8
0
 10
56.69128769558472
 20
65.748481184009364
 30
0.0
  0
VERTEX
  5
EE2
  8
0
 10
56.567038699248108
 20
66.584731744090533
 30
0.0
  0
VERTEX
  5
EE3
  8
0
 10
56.503796704857649
 20
67.39864325698241
 30
0.0
  0
VERTEX
  5
EE4
  8
0
 10
56.495612916820377
 20
67.809757559875351
 30
0.0
  0
SEQEND
  5
EE5
  8
0
  0
LINE
  5
B68
  8
0
 10
56.495612916820392
 20
65.309757559875351
 30
0.0
 11
59.495612916820377
 21
65.309757559875351
 31
0.0
  0
LINE
  5
B69
  8
0
 10
59.495612916820392
 20
75.309757559875365
 30
0.0
 11
59.495612916820392
 21
65.309757559875351
 31
0.0
  0
LINE
  5
B6A
  8
0
 10
56.495612916820392
 20
75.309757559875365
 30
0.0
 11
56.495612916820392
 21
65.309757559875351
 31
0.0
  0
LINE
  5
B6D
  8
0
 10
56.495612916820392
 20
33.309757559875379
 30
0.0
 11
52.609112916820379
 21
33.309757559875379
 31
0.0
  0
LINE
  5
B6E
  8
3
 10
59.495612916820377
 20
32.696257559875392
 30
0.0
 11
61.995612916820392
 21
32.696257559875392
 31
0.0
  0
LINE
  5
B6F
  8
3
 10
59.495612916820377
 20
27.923257559875388
 30
0.0
 11
61.995612916820392
 21
27.923257559875381
 31
0.0
  0
LINE
  5
B70
  8
0
 10
59.49561291682037
 20
27.309757559875379
 30
0.0
 11
63.995612916820392
 21
27.309757559875379
 31
0.0
  0
LINE
  5
B71
  8
0
 10
56.495612916820399
 20
73.309757559875393
 30
0.0
 11
52.609112916820379
 21
73.309757559875365
 31
0.0
  0
LINE
  5
B72
  8
3
 10
59.495612916820392
 20
72.696257559875392
 30
0.0
 11
61.995612916820392
 21
72.696257559875392
 31
0.0
  0
LINE
  5
B73
  8
3
 10
59.495612916820392
 20
67.923257559875381
 30
0.0
 11
61.995612916820392
 21
67.923257559875381
 31
0.0
  0
LINE
  5
B74
  8
0
 10
59.495612916820399
 20
67.309757559875379
 30
0.0
 11
63.99561291682037
 21
67.309757559875379
 31
0.0
  0
LINE
  5
BAC
  8
2
 10
15.03985577643917
 20
32.61915863663387
 30
0.0
 11
15.039855776439209
 21
28.000356483116811
 31
0.0
  0
LINE
  5
BAD
  8
2
 10
23.039855776439101
 20
32.619158636633919
 30
0.0
 11
23.039855776439101
 21
28.000356483116839
 31
0.0
  0
CIRCLE
  5
BAE
  8
0
 10
19.039855776439119
 20
30.309757559875379
 30
0.0
 40
3.0
  0
LINE
  5
BAF
  8
2
 10
19.039855776439119
 20
25.690955406358359
 30
0.0
 11
15.039855776439209
 21
28.000356483116811
 31
0.0
  0
LINE
  5
BB0
  8
2
 10
23.039855776439101
 20
28.000356483116839
 30
0.0
 11
19.039855776439119
 21
25.690955406358359
 31
0.0
  0
LINE
  5
BB1
  8
2
 10
19.039855776439119
 20
34.928559713392367
 30
0.0
 11
23.039855776439101
 21
32.619158636633898
 31
0.0
  0
LINE
  5
BB2
  8
2
 10
19.039855776439119
 20
34.928559713392367
 30
0.0
 11
15.03985577643917
 21
32.61915863663387
 31
0.0
  0
CIRCLE
  5
BB3
  8
3
 10
19.039855776439119
 20
30.309757559875379
 30
0.0
 40
2.539999999999992
  0
CIRCLE
  5
BB4
  8
0
 10
19.039855776439119
 20
30.309757559875379
 30
0.0
 40
1.5
  0
LINE
  5
BB5
  8
0
 10
19.039855776439119
 20
36.083260251771627
 30
0.0
 11
24.039855776439129
 21
33.196508905823521
 31
0.0
  0
LINE
  5
BB6
  8
0
 10
24.039855776439129
 20
33.196508905823521
 30
0.0
 11
24.039855776439129
 21
27.423006213927369
 31
0.0
  0
LINE
  5
BB7
  8
0
 10
19.039855776439119
 20
36.083260251771627
 30
0.0
 11
14.03985577643912
 21
33.196508905823521
 31
0.0
  0
LINE
  5
BB8
  8
0
 10
19.039855776439211
 20
24.536254867979199
 30
0.0
 11
14.03985577643917
 21
27.423006213927248
 31
0.0
  0
LINE
  5
BB9
  8
0
 10
19.039855776439211
 20
24.536254867979199
 30
0.0
 11
24.039855776439168
 21
27.42300621392739
 31
0.0
  0
LINE
  5
BBA
  8
0
 10
14.03985577643912
 20
33.196508905823521
 30
0.0
 11
14.03985577643912
 21
27.423006213927369
 31
0.0
  0
CIRCLE
  5
BBB
  8
0
 10
19.039855776439119
 20
30.309757559875379
 30
0.0
 40
5.0000000000000044
  0
CIRCLE
  5
BBC
  8
0
 10
19.039855776439119
 20
30.309757559875379
 30
0.0
 40
1.038119784648301
  0
TEXT
  5
C66
  8
0
 62
     3
 10
0.0
 20
0.0
 30
0.0
 40
5.0
  1
NDXN6ALW-ASUS
  7
STANDARD1
  0
ENDSEC
  0
EOF
