  0
SECTION
  2
HEADER
  9
$ACADVER
  1
AC1009
  9
$INSBASE
 10
0.0
 20
0.0
 30
0.0
  9
$EXTMIN
 10
0.0
 20
-1.4802182810368341
 30
0.0
  9
$EXTMAX
 10
145.4926154533411022
 20
80.9957369760201402
 30
0.0
  9
$LIMMIN
 10
0.0
 20
0.0
  9
$LIMMAX
 10
375.0
 20
270.0
  9
$ORTHOMODE
 70
     1
  9
$REGENMODE
 70
     1
  9
$FILLMODE
 70
     1
  9
$QTEXTMODE
 70
     0
  9
$MIRRTEXT
 70
     0
  9
$DRAGMODE
 70
     2
  9
$LTSCALE
 40
3.0
  9
$OSMODE
 70
    37
  9
$ATTMODE
 70
     1
  9
$TEXTSIZE
 40
0.2
  9
$TRACEWID
 40
0.05
  9
$TEXTSTYLE
  7
STANDARD
  9
$CLAYER
  8
0
  9
$CELTYPE
  6
BYLAYER
  9
$CECOLOR
 62
   256
  9
$DIMSCALE
 40
1.0
  9
$DIMASZ
 40
3.0
  9
$DIMEXO
 40
2.0
  9
$DIMDLI
 40
0.38
  9
$DIMRND
 40
0.0
  9
$DIMDLE
 40
0.0
  9
$DIMEXE
 40
2.0
  9
$DIMTP
 40
0.0
  9
$DIMTM
 40
0.0
  9
$DIMTXT
 40
3.2000000000000002
  9
$DIMCEN
 40
0.09
  9
$DIMTSZ
 40
0.0
  9
$DIMTOL
 70
     0
  9
$DIMLIM
 70
     0
  9
$DIMTIH
 70
     0
  9
$DIMTOH
 70
     0
  9
$DIMSE1
 70
     0
  9
$DIMSE2
 70
     0
  9
$DIMTAD
 70
     1
  9
$DIMZIN
 70
     8
  9
$DIMBLK
  1

  9
$DIMASO
 70
     1
  9
$DIMSHO
 70
     0
  9
$DIMPOST
  1

  9
$DIMAPOST
  1

  9
$DIMALT
 70
     0
  9
$DIMALTD
 70
     2
  9
$DIMALTF
 40
25.3999999999999986
  9
$DIMLFAC
 40
1.0
  9
$DIMTOFL
 70
     1
  9
$DIMTVP
 40
1.6000000000000001
  9
$DIMTIX
 70
     1
  9
$DIMSOXD
 70
     0
  9
$DIMSAH
 70
     0
  9
$DIMBLK1
  1

  9
$DIMBLK2
  1

  9
$DIMSTYLE
  2
STANDARD
  9
$DIMCLRD
 70
   256
  9
$DIMCLRE
 70
   256
  9
$DIMCLRT
 70
   256
  9
$DIMTFAC
 40
1.0
  9
$DIMGAP
 40
1.0
  9
$LUNITS
 70
     2
  9
$LUPREC
 70
     1
  9
$SKETCHINC
 40
0.1
  9
$FILLETRAD
 40
0.0
  9
$AUNITS
 70
     0
  9
$AUPREC
 70
     0
  9
$MENU
  1
E:\r13\win\SUPPORT\ACAD
  9
$ELEVATION
 40
0.0
  9
$PELEVATION
 40
0.0
  9
$THICKNESS
 40
0.0
  9
$LIMCHECK
 70
     0
  9
$BLIPMODE
 70
     0
  9
$CHAMFERA
 40
0.0
  9
$CHAMFERB
 40
0.0
  9
$SKPOLY
 70
     0
  9
$TDCREATE
 40
2449839.7822916670702398
  9
$TDUPDATE
 40
2460864.3918287041597068
  9
$TDINDWG
 40
0.3905016319
  9
$TDUSRTIMER
 40
0.3905016319
  9
$USRTIMER
 70
     1
  9
$ANGBASE
 50
0.0
  9
$ANGDIR
 70
     0
  9
$PDMODE
 70
     0
  9
$PDSIZE
 40
0.0
  9
$PLINEWID
 40
0.0
  9
$COORDS
 70
     1
  9
$SPLFRAME
 70
     0
  9
$SPLINETYPE
 70
     6
  9
$SPLINESEGS
 70
     8
  9
$ATTDIA
 70
     1
  9
$ATTREQ
 70
     1
  9
$HANDLING
 70
     1
  9
$HANDSEED
  5
3EC5
  9
$SURFTAB1
 70
     6
  9
$SURFTAB2
 70
     6
  9
$SURFTYPE
 70
     6
  9
$SURFU
 70
     6
  9
$SURFV
 70
     6
  9
$UCSNAME
  2

  9
$UCSORG
 10
0.0
 20
0.0
 30
0.0
  9
$UCSXDIR
 10
1.0
 20
0.0
 30
0.0
  9
$UCSYDIR
 10
0.0
 20
1.0
 30
0.0
  9
$PUCSNAME
  2

  9
$PUCSORG
 10
0.0
 20
0.0
 30
0.0
  9
$PUCSXDIR
 10
1.0
 20
0.0
 30
0.0
  9
$PUCSYDIR
 10
0.0
 20
1.0
 30
0.0
  9
$USERI1
 70
     0
  9
$USERI2
 70
     1
  9
$USERI3
 70
     1
  9
$USERI4
 70
     0
  9
$USERI5
 70
     0
  9
$USERR1
 40
0.0
  9
$USERR2
 40
0.0
  9
$USERR3
 40
0.0
  9
$USERR4
 40
0.0
  9
$USERR5
 40
0.0
  9
$WORLDVIEW
 70
     1
  9
$SHADEDGE
 70
     3
  9
$SHADEDIF
 70
    70
  9
$TILEMODE
 70
     1
  9
$MAXACTVP
 70
    16
  9
$PLIMCHECK
 70
     0
  9
$PEXTMIN
 10
1.0000000000000000E+20
 20
1.0000000000000000E+20
 30
1.0000000000000000E+20
  9
$PEXTMAX
 10
-1.0000000000000000E+20
 20
-1.0000000000000000E+20
 30
-1.0000000000000000E+20
  9
$PLIMMIN
 10
0.0
 20
0.0
  9
$PLIMMAX
 10
12.0
 20
9.0
  9
$UNITMODE
 70
     0
  9
$VISRETAIN
 70
     0
  9
$PLINEGEN
 70
     0
  9
$PSLTSCALE
 70
     0
  0
ENDSEC
  0
SECTION
  2
TABLES
  0
TABLE
  2
VPORT
 70
     1
  0
VPORT
  2
*ACTIVE
 70
     0
 10
0.0
 20
0.0
 11
1.0
 21
1.0
 12
202.3094688221709134
 22
86.143308171789613
 13
0.0
 23
0.0
 14
10.0
 24
10.0
 15
10.0
 25
10.0
 16
0.0
 26
0.0
 36
1.0
 17
0.0
 27
0.0
 37
0.0
 40
172.2866163435791975
 41
2.3485221674876842
 42
50.0
 43
0.0
 44
0.0
 50
0.0
 51
0.0
 71
     0
 72
   500
 73
     1
 74
     0
 75
     0
 76
     0
 77
     0
 78
     2
  0
ENDTAB
  0
TABLE
  2
LTYPE
 70
     4
  0
LTYPE
  2
CONTINUOUS
 70
     0
  3
Solid Line
 72
    65
 73
     0
 40
0.0
  0
LTYPE
  2
CENTER
 70
     0
  3
____ _ ____ _ ____ _ ____ _ ____ _ ____ _ ____
 72
    65
 73
     4
 40
2.0
 49
1.25
 49
-0.25
 49
0.25
 49
-0.25
  0
LTYPE
  2
PHANTOM2
 70
     0
  3
___ _ _ ___ _ _ ___ _ _ ___ _ _
 72
    65
 73
     6
 40
1.25
 49
0.625
 49
-0.125
 49
0.125
 49
-0.125
 49
0.125
 49
-0.125
  0
LTYPE
  2
HIDDEN
 70
     0
  3
_ _ _ _ _ _ _ _ _ _ _ _ _ _ _ _ _ _ _ _ _ _ _
 72
    65
 73
     2
 40
0.375
 49
0.25
 49
-0.125
  0
ENDTAB
  0
TABLE
  2
LAYER
 70
     5
  0
LAYER
  2
0
 70
     0
 62
     7
  6
CONTINUOUS
  0
LAYER
  2
1
 70
     0
 62
     1
  6
CENTER
  0
LAYER
  2
DEFPOINTS
 70
     0
 62
     7
  6
CONTINUOUS
  0
LAYER
  2
2
 70
     0
 62
     2
  6
HIDDEN
  0
LAYER
  2
3
 70
     0
 62
     3
  6
CONTINUOUS
  0
ENDTAB
  0
TABLE
  2
STYLE
 70
     2
  0
STYLE
  2
STANDARD
 70
     0
 40
0.0
 41
1.0
 50
0.0
 71
     0
 42
0.2
  3
TXT
  4
BIGFONT
  0
STYLE
  2
STANDARD1
 70
     0
 40
0.0
 41
1.0
 50
0.0
 71
     0
 42
3.0
  3
txt
  4

  0
ENDTAB
  0
TABLE
  2
VIEW
 70
     1
  0
VIEW
  2
ALL
 70
     0
 40
270.0
 10
220.9915966386554942
 20
135.0
 41
0.0
 11
0.0
 21
0.0
 31
1.0
 12
0.0
 22
0.0
 32
0.0
 42
0.0
 43
0.0
 44
0.0
 50
0.0
 71
     0
  0
ENDTAB
  0
TABLE
  2
UCS
 70
     0
  0
ENDTAB
  0
TABLE
  2
APPID
 70
    10
  0
APPID
  2
ACAD
 70
     0
  0
APPID
  2
ACAD_MLEADERVER
 70
     0
  0
APPID
  2
ACAD_NAV_VCDISPLAY
 70
     0
  0
APPID
  2
ACAD_EXEMPT_FROM_CAD_STANDARDS
 70
     0
  0
APPID
  2
ACAD_DSTYLE_DIMJAG
 70
     0
  0
APPID
  2
ACAD_DSTYLE_DIMTALN
 70
     0
  0
APPID
  2
ACAECLAYERSTANDARD
 70
     0
  0
APPID
  2
ACCMTRANSPARENCY
 70
     0
  0
APPID
  2
DCO15
 70
     0
  0
APPID
  2
ACAD_TC
 70
     0
  0
ENDTAB
  0
TABLE
  2
DIMSTYLE
 70
     1
  0
DIMSTYLE
  2
STANDARD
 70
     0
  3

  4

  5

  6

  7

 40
1.0
 41
0.18
 42
0.0625
 43
0.38
 44
0.18
 45
0.0
 46
0.0
 47
0.0
 48
0.0
140
0.18
141
0.09
142
0.0
143
25.3999999999999986
144
1.0
145
0.0
146
1.0
147
0.09
 71
     0
 72
     0
 73
     1
 74
     1
 75
     0
 76
     0
 77
     0
 78
     0
170
     0
171
     2
172
     0
173
     0
174
     0
175
     0
176
     0
177
     0
178
     0
  0
ENDTAB
  0
ENDSEC
  0
SECTION
  2
BLOCKS
  0
BLOCK
  8
0
  2
$MODEL_SPACE
 70
     0
 10
0.0
 20
0.0
 30
0.0
  3
$MODEL_SPACE
  1

  0
ENDBLK
  5
10E
  8
0
  0
BLOCK
 67
     1
  8
0
  2
$PAPER_SPACE
 70
     0
 10
0.0
 20
0.0
 30
0.0
  3
$PAPER_SPACE
  1

  0
ENDBLK
  5
10C
 67
     1
  8
0
  0
ENDSEC
  0
SECTION
  2
ENTITIES
  0
TEXT
  5
4DC
  8
0
 62
     3
 10
0.0
 20
0.0
 30
0.0
 40
5.0
  1
NDXN6AL-SUS
  7
STANDARD1
  0
LINE
  5
23AC
  8
0
 10
97.2926139246604151
 20
80.9957347648871462
 30
0.0
 11
93.1634681632604469
 21
77.9957347648871462
 31
0.0
  0
LINE
  5
23AD
  8
0
 10
93.1634681632604469
 20
69.9957347648871462
 30
0.0
 11
97.2926139246604151
 21
66.9957347648871462
 31
0.0
  0
LINE
  5
23AE
  8
0
 10
97.2926139246604151
 20
66.9957347648871462
 30
0.0
 11
97.692613924660435
 21
66.9957347648871462
 31
0.0
  0
LINE
  5
23AF
  8
0
 10
97.692613924660435
 20
80.9957347648871462
 30
0.0
 11
97.2926139246604151
 21
80.9957347648871462
 31
0.0
  0
ARC
  5
23B0
  8
0
 10
97.6988078244626337
 20
67.7907946050981707
 30
0.0
 40
0.795083966579083
 50
269.5536472599844728
 51
356.7511322080226819
  0
ARC
  5
23B1
  8
0
 10
97.694494434607833
 20
80.1960739754976686
 30
0.0
 40
0.7996630005224594
 50
3.5604820452080612
 51
90.1347384867828936
  0
LINE
  5
23B6
  8
0
 10
70.9526139246604259
 20
70.9957347648871462
 30
0.0
 11
82.492613924660418
 21
70.9957347648871462
 31
0.0
  0
LINE
  5
23B7
  8
0
 10
82.492613924660418
 20
76.9957347648871462
 30
0.0
 11
70.9526139246604401
 21
76.9957347648871462
 31
0.0
  0
LINE
  5
23B8
  8
0
 10
70.9526139246604544
 20
76.9957347648871462
 30
0.0
 11
70.4926139246604464
 21
76.5357347648871809
 31
0.0
  0
LINE
  5
23B9
  8
0
 10
70.492613924660418
 20
71.4557347648870973
 30
0.0
 11
70.9526139246603549
 21
70.9957347648871462
 31
0.0
  0
LINE
  5
23BA
  8
0
 10
67.7926139246604293
 20
72.4957347648871462
 30
0.0
 11
70.492613924660418
 21
72.4957347648871462
 31
0.0
  0
LINE
  5
23BB
  8
0
 10
70.492613924660418
 20
75.4957347648871462
 30
0.0
 11
67.7926139246604293
 21
75.4957347648871462
 31
0.0
  0
LINE
  5
23BC
  8
0
 10
67.7926139246604293
 20
75.4957347648871462
 30
0.0
 11
67.2331390629500731
 21
75.1727218028401012
 31
0.0
  0
LINE
  5
23BD
  8
0
 10
67.2331390629500731
 20
72.8187477269342054
 30
0.0
 11
67.7926139246604293
 21
72.4957347648871462
 31
0.0
  0
LINE
  5
23BE
  8
0
 10
93.1634681632604469
 20
69.9957347648871462
 30
0.0
 11
93.1634681632604469
 21
77.9957347648871462
 31
0.0
  0
LINE
  5
23BF
  8
0
 10
97.2926139246604151
 20
66.9957347648871462
 30
0.0
 11
97.2926139246604151
 21
80.9957347648871462
 31
0.0
  0
LINE
  5
23C0
  8
0
 10
98.492613924660418
 20
67.7457347648871462
 30
0.0
 11
98.492613924660418
 21
80.2457347648871462
 31
0.0
  0
LINE
  5
23C1
  8
0
 10
82.492613924660418
 20
69.9957347648871462
 30
0.0
 11
82.492613924660418
 21
77.9957347648871462
 31
0.0
  0
LINE
  5
23C2
  8
0
 10
82.492613924660418
 20
73.9957347648871462
 30
0.0
 11
87.1353483347604367
 21
73.9957347648871462
 31
0.0
  0
LINE
  5
23C5
  8
0
 10
82.492613924660418
 20
69.9957347648871462
 30
0.0
 11
93.1634681632604469
 21
69.9957347648871462
 31
0.0
  0
LINE
  5
23C9
  8
0
 10
82.492613924660418
 20
77.9957347648871462
 30
0.0
 11
93.1634681632604469
 21
77.9957347648871462
 31
0.0
  0
LINE
  5
23CB
  8
0
 10
87.492613924660418
 20
69.9957347648871462
 30
0.0
 11
87.492613924660418
 21
77.9957347648871462
 31
0.0
  0
LINE
  5
23D0
  8
0
 10
70.9526139246604401
 20
70.9957347648871462
 30
0.0
 11
70.9526139246604401
 21
76.9957347648871462
 31
0.0
  0
LINE
  5
23D1
  8
0
 10
70.492613924660418
 20
71.4557347648870973
 30
0.0
 11
70.4926139246603896
 21
76.535734764887124
 31
0.0
  0
LINE
  5
23D2
  8
0
 10
67.7926139246604293
 20
72.4957347648871462
 30
0.0
 11
67.7926139246604293
 21
75.4957347648871462
 31
0.0
  0
LINE
  5
23D4
  8
0
 10
97.692613924660435
 20
66.9957347648871462
 30
0.0
 11
97.692613924660435
 21
80.9957347648871462
 31
0.0
  0
CIRCLE
  5
23D5
  8
0
 10
135.4926154533411022
 20
29.9957347648871284
 30
0.0
 40
7.0000015286807411
  0
LINE
  5
23D8
  8
0
 10
97.2926139246604151
 20
36.9957347648871533
 30
0.0
 11
93.1634681632604469
 21
33.9957347648871533
 31
0.0
  0
LINE
  5
23D9
  8
0
 10
93.1634681632604469
 20
25.9957347648871497
 30
0.0
 11
97.2926139246604151
 21
22.9957347648871497
 31
0.0
  0
LINE
  5
23DA
  8
0
 10
97.2926139246604151
 20
22.9957347648871497
 30
0.0
 11
97.6926139246604208
 21
22.9957347648871497
 31
0.0
  0
LINE
  5
23DB
  8
0
 10
97.692613924660435
 20
36.9957347648871533
 30
0.0
 11
97.2926139246604151
 21
36.9957347648871533
 31
0.0
  0
ARC
  5
23DC
  8
0
 10
97.6975894137364094
 20
23.7920942432061295
 30
0.0
 40
0.7963750210799093
 50
269.6420324945830203
 51
356.6627469734236229
  0
ARC
  5
23DD
  8
0
 10
97.7142375428931445
 20
36.2171332910020425
 30
0.0
 40
0.7789016857097789
 50
2.1043891281973162
 51
91.5908314037902187
  0
LINE
  5
23E0
  8
0
 10
87.4926139246604464
 20
25.9957347648871497
 30
0.0
 11
93.1634681632604469
 21
25.9957347648871497
 31
0.0
  0
LINE
  5
23E1
  8
0
 10
93.1634681632604469
 20
33.9957347648871533
 30
0.0
 11
87.492613924660418
 21
33.9957347648871533
 31
0.0
  0
LINE
  5
23E2
  8
0
 10
70.952613924660298
 20
32.9957347648871533
 30
0.0
 11
70.492613924660418
 21
32.5357347648872093
 31
0.0
  0
LINE
  5
23E3
  8
0
 10
70.492613924660418
 20
27.455734764887179
 30
0.0
 11
70.9526139246604401
 21
26.9957347648871497
 31
0.0
  0
LINE
  5
23E4
  8
0
 10
70.9526139246604259
 20
26.9957347648871391
 30
0.0
 11
82.492613924660418
 21
26.9957347648871497
 31
0.0
  0
LINE
  5
23E5
  8
0
 10
82.492613924660418
 20
32.9957347648871533
 30
0.0
 11
70.9526139246603833
 21
32.9957347648871533
 31
0.0
  0
LINE
  5
23E6
  8
0
 10
87.1353483347620852
 20
25.3769326113871614
 30
0.0
 11
87.492613924660418
 21
25.9957347648871497
 31
0.0
  0
LINE
  5
23E7
  8
0
 10
87.492613924660418
 20
33.9957347648871533
 30
0.0
 11
87.1353483347620852
 21
34.6145369183871878
 31
0.0
  0
LINE
  5
23E8
  8
0
 10
67.7926139246604293
 20
28.4957347648871391
 30
0.0
 11
70.492613924660418
 21
28.4957347648871391
 31
0.0
  0
LINE
  5
23E9
  8
0
 10
70.492613924660418
 20
31.4957347648871497
 30
0.0
 11
67.7926139246604293
 21
31.4957347648871497
 31
0.0
  0
LINE
  5
23EA
  8
0
 10
67.7926139246604293
 20
31.4957347648871497
 30
0.0
 11
67.2331390629500731
 21
31.1727218028400586
 31
0.0
  0
LINE
  5
23EB
  8
0
 10
67.2331390629500731
 20
28.8187477269342196
 30
0.0
 11
67.7926139246604293
 21
28.4957347648871391
 31
0.0
  0
LINE
  5
23EC
  8
0
 10
93.1634681632604469
 20
25.9957347648871497
 30
0.0
 11
93.1634681632604469
 21
33.9957347648871533
 31
0.0
  0
LINE
  5
23ED
  8
0
 10
97.2926139246604151
 20
22.9957347648871497
 30
0.0
 11
97.2926139246604151
 21
36.9957347648871533
 31
0.0
  0
LINE
  5
23EE
  8
0
 10
98.492613924660418
 20
23.7457347648871391
 30
0.0
 11
98.492613924660418
 21
36.2457347648871533
 31
0.0
  0
LINE
  5
23F0
  8
0
 10
82.492613924660418
 20
32.3051358416871395
 30
0.0
 11
87.1353483347604367
 21
32.3051358416871395
 31
0.0
  0
LINE
  5
23F3
  8
0
 10
82.492613924660418
 20
27.68633368808716
 30
0.0
 11
87.1353483347604367
 21
27.68633368808716
 31
0.0
  0
LINE
  5
23F9
  8
0
 10
82.492613924660418
 20
34.6145369183871878
 30
0.0
 11
87.1353483347621136
 21
34.6145369183871878
 31
0.0
  0
LINE
  5
23FB
  8
0
 10
82.492613924660418
 20
25.3769326113871614
 30
0.0
 11
82.492613924660418
 21
34.6145369183871878
 31
0.0
  0
LINE
  5
23FD
  8
0
 10
82.492613924660418
 20
25.3769326113871614
 30
0.0
 11
87.1353483347620852
 21
25.3769326113871614
 31
0.0
  0
LINE
  5
23FF
  8
0
 10
70.9526139246604259
 20
26.9957347648871391
 30
0.0
 11
70.9526139246604259
 21
32.9957347648871533
 31
0.0
  0
LINE
  5
2400
  8
0
 10
70.492613924660418
 20
27.455734764887179
 30
0.0
 11
70.4926139246604038
 21
32.5357347648872022
 31
0.0
  0
LINE
  5
2401
  8
0
 10
87.492613924660418
 20
25.9957347648871497
 30
0.0
 11
87.492613924660418
 21
28.2957347648871291
 31
0.0
  0
LINE
  5
2403
  8
0
 10
67.7926139246604293
 20
28.4957347648871391
 30
0.0
 11
67.7926139246604293
 21
31.4957347648871497
 31
0.0
  0
LINE
  5
2405
  8
0
 10
97.6926139246604208
 20
22.9957347648871497
 30
0.0
 11
97.692613924660435
 21
36.9957347648871533
 31
0.0
  0
POLYLINE
  5
28DB
  8
0
 66
     1
 10
0.0
 20
0.0
 30
0.0
  0
VERTEX
  5
3E77
  8
0
 10
87.492613924660418
 20
26.5316331497494708
 30
0.0
  0
VERTEX
  5
3E78
  8
0
 10
87.4847119981458832
 20
26.3643334311854716
 30
0.0
  0
VERTEX
  5
3E79
  8
0
 10
87.4605674329940967
 20
26.197234559212859
 30
0.0
  0
VERTEX
  5
3E7A
  8
0
 10
87.4211475880770053
 20
26.0306386190645185
 30
0.0
  0
VERTEX
  5
3E7B
  8
0
 10
87.3678906790354262
 20
25.8652500960941296
 30
0.0
  0
VERTEX
  5
3E7C
  8
0
 10
87.3016653123540038
 20
25.7012599812978415
 30
0.0
  0
VERTEX
  5
3E7D
  8
0
 10
87.2223981975248535
 20
25.5386771626895701
 30
0.0
  0
VERTEX
  5
3E7E
  8
0
 10
87.1353483347620852
 20
25.3769326113871614
 30
0.0
  0
SEQEND
  5
3E7F
  8
0
  0
POLYLINE
  5
28DC
  8
0
 66
     1
 10
0.0
 20
0.0
 30
0.0
  0
VERTEX
  5
3E80
  8
0
 10
87.1353483347621136
 20
34.6145369183871878
 30
0.0
  0
VERTEX
  5
3E81
  8
0
 10
87.2236104844395754
 20
34.452979210342157
 30
0.0
  0
VERTEX
  5
3E82
  8
0
 10
87.301470292450631
 20
34.29014955762689
 30
0.0
  0
VERTEX
  5
3E83
  8
0
 10
87.3677872382418457
 20
34.1261470224823213
 30
0.0
  0
VERTEX
  5
3E84
  8
0
 10
87.4211511202930467
 20
33.9607802671018533
 30
0.0
  0
VERTEX
  5
3E85
  8
0
 10
87.4607605233356793
 20
33.7942132097011694
 30
0.0
  0
VERTEX
  5
3E86
  8
0
 10
87.4843620463982461
 20
33.6271176687282889
 30
0.0
  0
VERTEX
  5
3E87
  8
0
 10
87.492613924660418
 20
33.4598363800248322
 30
0.0
  0
SEQEND
  5
3E88
  8
0
  0
POLYLINE
  5
28DD
  8
0
 66
     1
 10
0.0
 20
0.0
 30
0.0
  0
VERTEX
  5
3E89
  8
0
 10
87.1353483347604367
 20
27.68633368808716
 30
0.0
  0
VERTEX
  5
3E8A
  8
0
 10
87.2236104844397033
 20
27.5247911003945909
 30
0.0
  0
VERTEX
  5
3E8B
  8
0
 10
87.3014702924510857
 20
27.361854440209779
 30
0.0
  0
VERTEX
  5
3E8C
  8
0
 10
87.3677872382421441
 20
27.1975529093215016
 30
0.0
  0
VERTEX
  5
3E8D
  8
0
 10
87.4211511202928051
 20
27.0322635303870697
 30
0.0
  0
VERTEX
  5
3E8E
  8
0
 10
87.4607605233351961
 20
26.8662030872741902
 30
0.0
  0
VERTEX
  5
3E8F
  8
0
 10
87.4843620463980756
 20
26.6992099216516401
 30
0.0
  0
VERTEX
  5
3E90
  8
0
 10
87.492613924660418
 20
26.5316331497494708
 30
0.0
  0
SEQEND
  5
3E91
  8
0
  0
POLYLINE
  5
28DE
  8
0
 66
     1
 10
0.0
 20
0.0
 30
0.0
  0
VERTEX
  5
3E92
  8
0
 10
87.492613924660418
 20
33.4598363800248322
 30
0.0
  0
VERTEX
  5
3E93
  8
0
 10
87.4847119981459684
 20
33.2923142243802914
 30
0.0
  0
VERTEX
  5
3E94
  8
0
 10
87.4605674329943241
 20
33.1253596189661934
 30
0.0
  0
VERTEX
  5
3E95
  8
0
 10
87.42114758807719
 20
32.9593669975122268
 30
0.0
  0
VERTEX
  5
3E96
  8
0
 10
87.3678906790352841
 20
32.7940566503187725
 30
0.0
  0
VERTEX
  5
3E97
  8
0
 10
87.3016653123538617
 20
32.6296731550393702
 30
0.0
  0
VERTEX
  5
3E98
  8
0
 10
87.2223981975247256
 20
32.466870424942897
 30
0.0
  0
VERTEX
  5
3E99
  8
0
 10
87.1353483347604367
 20
32.3051358416871395
 30
0.0
  0
SEQEND
  5
3E9A
  8
0
  0
POLYLINE
  5
28E0
  8
0
 66
     1
 10
0.0
 20
0.0
 30
0.0
  0
VERTEX
  5
3E9B
  8
0
 10
87.1353483347604367
 20
32.3051358416871395
 30
0.0
  0
VERTEX
  5
3E9C
  8
0
 10
87.2198716237519847
 20
31.9957347648871284
 30
0.0
  0
SEQEND
  5
3E9D
  8
0
  0
POLYLINE
  5
28E3
  8
0
 66
     1
 10
0.0
 20
0.0
 30
0.0
  0
VERTEX
  5
3E9E
  8
0
 10
87.1353483347524076
 20
77.9957347648869188
 30
0.0
  0
VERTEX
  5
3E9F
  8
0
 10
87.2236104844397033
 20
77.7159173358945736
 30
0.0
  0
VERTEX
  5
3EA0
  8
0
 10
87.3014702924510857
 20
77.4338263236211048
 30
0.0
  0
VERTEX
  5
3EA1
  8
0
 10
87.3677872382421441
 20
77.1495929749076339
 30
0.0
  0
VERTEX
  5
3EA2
  8
0
 10
87.4211511202928051
 20
76.8632140260188947
 30
0.0
  0
VERTEX
  5
3EA3
  8
0
 10
87.4607605233351961
 20
76.5750039136294731
 30
0.0
  0
VERTEX
  5
3EA4
  8
0
 10
87.4843620463980756
 20
76.2856450533818133
 30
0.0
  0
VERTEX
  5
3EA5
  8
0
 10
87.492613924660418
 20
75.9957347648871462
 30
0.0
  0
SEQEND
  5
3EA6
  8
0
  0
POLYLINE
  5
28E4
  8
0
 66
     1
 10
0.0
 20
0.0
 30
0.0
  0
VERTEX
  5
3EA7
  8
0
 10
87.492613924660418
 20
75.9957347648871462
 30
0.0
  0
VERTEX
  5
3EA8
  8
0
 10
87.4847119981458832
 20
75.7057063040257958
 30
0.0
  0
VERTEX
  5
3EA9
  8
0
 10
87.4605674329940967
 20
75.4164491525547334
 30
0.0
  0
VERTEX
  5
3EAA
  8
0
 10
87.4211475880770053
 20
75.1285931723042779
 30
0.0
  0
VERTEX
  5
3EAB
  8
0
 10
87.3678906790354404
 20
74.8422221171420574
 30
0.0
  0
VERTEX
  5
3EAC
  8
0
 10
87.3016653123540181
 20
74.5577286697200918
 30
0.0
  0
VERTEX
  5
3EAD
  8
0
 10
87.2223981975248819
 20
74.2758730355390639
 30
0.0
  0
VERTEX
  5
3EAE
  8
0
 10
87.1353483347604367
 20
73.9957347648871462
 30
0.0
  0
SEQEND
  5
3EAF
  8
0
  0
POLYLINE
  5
28E5
  8
0
 66
     1
 10
0.0
 20
0.0
 30
0.0
  0
VERTEX
  5
3EB0
  8
0
 10
87.492613924660418
 20
71.9957347648871462
 30
0.0
  0
VERTEX
  5
3EB1
  8
0
 10
87.4847119981459684
 20
71.7058347281341923
 30
0.0
  0
VERTEX
  5
3EB2
  8
0
 10
87.4605674329943241
 20
71.4164942843267738
 30
0.0
  0
VERTEX
  5
3EB3
  8
0
 10
87.42114758807719
 20
71.1282899778656343
 30
0.0
  0
VERTEX
  5
3EB4
  8
0
 10
87.3678906790352841
 20
70.8418737878976401
 30
0.0
  0
VERTEX
  5
3EB5
  8
0
 10
87.3016653123538617
 20
70.5576074588035169
 30
0.0
  0
VERTEX
  5
3EB6
  8
0
 10
87.2223981975247256
 20
70.2758787905793838
 30
0.0
  0
VERTEX
  5
3EB7
  8
0
 10
87.1353483347523081
 20
69.9957347648872599
 30
0.0
  0
SEQEND
  5
3EB8
  8
0
  0
POLYLINE
  5
28E6
  8
0
 66
     1
 10
0.0
 20
0.0
 30
0.0
  0
VERTEX
  5
3EB9
  8
0
 10
87.1353483347604367
 20
73.9957347648871462
 30
0.0
  0
VERTEX
  5
3EBA
  8
0
 10
87.2236104844395754
 20
73.7159260656199251
 30
0.0
  0
VERTEX
  5
3EBB
  8
0
 10
87.301470292450631
 20
73.433773272554987
 30
0.0
  0
VERTEX
  5
3EBC
  8
0
 10
87.3677872382418457
 20
73.149367298568535
 30
0.0
  0
VERTEX
  5
3EBD
  8
0
 10
87.4211511202930467
 20
72.863033022991857
 30
0.0
  0
VERTEX
  5
3EBE
  8
0
 10
87.4607605233356793
 20
72.5751154044977937
 30
0.0
  0
VERTEX
  5
3EBF
  8
0
 10
87.4843620463982461
 20
72.2858156506862315
 30
0.0
  0
VERTEX
  5
3EC0
  8
0
 10
87.492613924660418
 20
71.9957347648871746
 30
0.0
  0
SEQEND
  5
3EC1
  8
0
  0
LINE
  5
28E7
  8
1
 10
125.4926154533411022
 20
29.9957347648871284
 30
0.0
 11
145.4926154533411022
 21
29.9957347648871284
 31
0.0
  0
LINE
  5
28E8
  8
1
 10
135.4926154533411022
 20
39.995734764887132
 30
0.0
 11
135.4926154533411022
 21
19.9957347648871284
 31
0.0
  0
LINE
  5
28E9
  8
1
 10
101.4926139246604038
 20
73.995734764887132
 30
0.0
 11
63.9926139246604109
 21
73.9957347648871036
 31
0.0
  0
LINE
  5
28EA
  8
1
 10
101.4926139246604038
 20
29.9957347648871284
 30
0.0
 11
63.9926139246603896
 21
29.9957347648871284
 31
0.0
  0
CIRCLE
  5
28F5
  8
0
 10
29.9926123959796804
 20
29.9957347648871284
 30
0.0
 40
7.0000015286807411
  0
LINE
  5
28F8
  8
1
 10
19.9926123959796804
 20
29.9957347648871284
 30
0.0
 11
39.9926123959796769
 21
29.9957347648871284
 31
0.0
  0
LINE
  5
28F9
  8
1
 10
29.9926123959796804
 20
39.995734764887132
 30
0.0
 11
29.9926123959796804
 21
19.9957347648871284
 31
0.0
  0
CIRCLE
  5
2907
  8
0
 10
29.9926123959796804
 20
29.9957347648871284
 30
0.0
 40
1.1769870379529479
  0
CIRCLE
  5
2908
  8
0
 10
29.9926123959796804
 20
29.9957347648871284
 30
0.0
 40
1.5
  0
LINE
  5
2909
  8
0
 10
29.9926123959796804
 20
34.6145369184041414
 30
0.0
 11
25.9926123959796804
 21
32.3051358416456367
 31
0.0
  0
LINE
  5
290A
  8
0
 10
33.9926123959796769
 20
32.3051358416456367
 30
0.0
 11
29.9926123959796804
 21
34.6145369184041414
 31
0.0
  0
LINE
  5
290B
  8
0
 10
33.9926123959796769
 20
27.6863336881286308
 30
0.0
 11
33.9926123959796769
 21
32.3051358416456367
 31
0.0
  0
LINE
  5
290C
  8
0
 10
25.9926123959796804
 20
32.3051358416456367
 30
0.0
 11
25.9926123959796804
 21
27.6863336881286308
 31
0.0
  0
LINE
  5
290D
  8
0
 10
29.9926123959796804
 20
25.3769326113701297
 30
0.0
 11
33.9926123959796769
 21
27.6863336881286308
 31
0.0
  0
LINE
  5
290E
  8
0
 10
25.9926123959796804
 20
27.6863336881286308
 30
0.0
 11
29.9926123959796804
 21
25.3769326113701297
 31
0.0
  0
CIRCLE
  5
291C
  8
0
 10
29.9926123959796804
 20
29.9957347648871284
 30
0.0
 40
3.0000000000000142
  0
ARC
  5
2957
  8
2
 10
106.6926139246602929
 20
29.9957347648871284
 30
0.0
 40
9.9999999999999645
 50
145.084793752555413
 51
214.915206247444587
  0
ARC
  5
2958
  8
2
 10
106.6926139246602929
 20
73.995734764887132
 30
0.0
 40
9.9999999999999645
 50
145.084793752555413
 51
214.915206247444587
  0
LINE
  5
2982
  8
0
 10
80.4926139246604464
 20
70.9957347648871462
 30
0.0
 11
80.4926139246604038
 21
76.9957347648871462
 31
0.0
  0
LINE
  5
2983
  8
0
 10
80.4926139246604464
 20
26.9957347648871497
 30
0.0
 11
80.4926139246604038
 21
32.9957347648871533
 31
0.0
  0
LINE
  5
298F
  8
0
 10
67.2331390629501016
 20
31.1727218028738413
 30
0.0
 11
67.2331390629501016
 21
28.8187477269004297
 31
0.0
  0
ARC
  5
2990
  8
0
 10
69.992613924660418
 20
29.9957347648871284
 30
0.0
 40
3.0
 50
156.9005047944243927
 51
203.0994952055752094
  0
LINE
  5
2991
  8
0
 10
67.2331390629501016
 20
75.1727218028738662
 30
0.0
 11
67.2331390629501016
 21
72.8187477269004546
 31
0.0
  0
ARC
  5
2992
  8
0
 10
69.992613924660418
 20
73.9957347648871604
 30
0.0
 40
3.0
 50
156.9005047944245916
 51
203.0994952055754084
  0
LINE
  5
2A47
  8
3
 10
80.4926139246603753
 20
32.5357347648871311
 30
0.0
 11
81.2893572961420432
 21
32.9957347648871533
 31
0.0
  0
LINE
  5
2A48
  8
3
 10
80.4926139246604038
 20
27.455734764887179
 30
0.0
 11
81.2893572961420858
 21
26.9957347648871497
 31
0.0
  0
LINE
  5
2A49
  8
3
 10
80.4926139246604038
 20
27.455734764887179
 30
0.0
 11
70.492613924660418
 21
27.455734764887179
 31
0.0
  0
LINE
  5
2A4A
  8
3
 10
80.4926139246604038
 20
32.5357347648871809
 30
0.0
 11
70.4926139246604038
 21
32.5357347648872022
 31
0.0
  0
LINE
  5
2A4B
  8
3
 10
80.4926139246603611
 20
76.535734764887053
 30
0.0
 11
81.289357296142029
 21
76.9957347648870751
 31
0.0
  0
LINE
  5
2A4C
  8
3
 10
80.4926139246604038
 20
71.4557347648870973
 30
0.0
 11
81.2893572961420716
 21
70.9957347648870751
 31
0.0
  0
LINE
  5
2A4D
  8
3
 10
80.4926139246604038
 20
71.4557347648870973
 30
0.0
 11
70.4926139246604038
 21
71.4557347648870973
 31
0.0
  0
LINE
  5
2A4E
  8
3
 10
80.4926139246603896
 20
76.5357347648871098
 30
0.0
 11
70.4926139246603896
 21
76.535734764887124
 31
0.0
  0
CIRCLE
  5
2A56
  8
3
 10
29.9926123959796804
 20
29.9957347648871284
 30
0.0
 40
2.5400000000000631
  0
LINE
  5
3C07
  8
0
 10
87.492613924660418
 20
31.6957347648871384
 30
0.0
 11
83.492613924660418
 21
31.6957347648871384
 31
0.0
  0
LINE
  5
3C08
  8
0
 10
83.492613924660418
 20
31.6957347648871384
 30
0.0
 11
83.492613924660418
 21
28.2957347648871291
 31
0.0
  0
LINE
  5
3C09
  8
0
 10
87.492613924660418
 20
28.2957347648871291
 30
0.0
 11
83.492613924660418
 21
28.2957347648871291
 31
0.0
  0
LINE
  5
3C0A
  8
0
 10
87.492613924660418
 20
28.2957347648871291
 30
0.0
 11
87.492613924660418
 21
25.9957347648871284
 31
0.0
  0
LINE
  5
3C0C
  8
0
 10
87.492613924660418
 20
27.9957347648871284
 30
0.0
 11
83.2926139246604009
 21
27.9957347648871284
 31
0.0
  0
LINE
  5
3C0D
  8
0
 10
83.2926139246604009
 20
31.9957347648871284
 30
0.0
 11
87.492613924660418
 21
31.9957347648871284
 31
0.0
  0
LINE
  5
3C0E
  8
0
 10
83.2926139246604009
 20
27.9957347648871284
 30
0.0
 11
83.2926139246604009
 21
31.9957347648871284
 31
0.0
  0
POLYLINE
  5
3C12
  8
0
 66
     1
 10
0.0
 20
0.0
 30
0.0
  0
VERTEX
  5
3EC2
  8
0
 10
87.2186365186515928
 20
27.9957347648871284
 30
0.0
  0
VERTEX
  5
3EC3
  8
0
 10
87.1353483347604367
 20
27.68633368808716
 30
0.0
  0
SEQEND
  5
3EC4
  8
0
  0
LINE
  5
3C13
  8
0
 10
87.492613924660418
 20
31.6957347648871384
 30
0.0
 11
87.492613924660418
 21
33.9957347648871533
 31
0.0
  0
ENDSEC
  0
EOF
