  0
SECTION
  2
HEADER
  9
$ACADVER
  1
AC1009
  9
$INSBASE
 10
0.0
 20
0.0
 30
0.0
  9
$EXTMIN
 10
0.0
 20
-1.4802182810368341
 30
0.0
  9
$EXTMAX
 10
182.65460182141979
 20
134.07961378344959
 30
0.0
  9
$LIMMIN
 10
0.0
 20
0.0
  9
$LIMMAX
 10
390.0
 20
270.0
  9
$ORTHOMODE
 70
     1
  9
$REGENMODE
 70
     1
  9
$FILLMODE
 70
     1
  9
$QTEXTMODE
 70
     0
  9
$MIRRTEXT
 70
     1
  9
$DRAGMODE
 70
     2
  9
$LTSCALE
 40
5.0
  9
$OSMODE
 70
  3071
  9
$ATTMODE
 70
     1
  9
$TEXTSIZE
 40
2.5
  9
$TRACEWID
 40
1.0
  9
$TEXTSTYLE
  7
STANDARD
  9
$CLAYER
  8
0
  9
$CELTYPE
  6
BYLAYER
  9
$CECOLOR
 62
   256
  9
$DIMSCALE
 40
1.1999999999999991
  9
$DIMASZ
 40
3.0
  9
$DIMEXO
 40
1.0
  9
$DIMDLI
 40
6.0
  9
$DIMRND
 40
0.0
  9
$DIMDLE
 40
0.0
  9
$DIMEXE
 40
1.0
  9
$DIMTP
 40
495.0
  9
$DIMTM
 40
0.0
  9
$DIMTXT
 40
3.2000000000000002
  9
$DIMCEN
 40
0.0
  9
$DIMTSZ
 40
0.0
  9
$DIMTOL
 70
     0
  9
$DIMLIM
 70
     0
  9
$DIMTIH
 70
     0
  9
$DIMTOH
 70
     0
  9
$DIMSE1
 70
     0
  9
$DIMSE2
 70
     0
  9
$DIMTAD
 70
     1
  9
$DIMZIN
 70
     8
  9
$DIMBLK
  1

  9
$DIMASO
 70
     0
  9
$DIMSHO
 70
     1
  9
$DIMPOST
  1

  9
$DIMAPOST
  1

  9
$DIMALT
 70
     0
  9
$DIMALTD
 70
     2
  9
$DIMALTF
 40
25.399999999999999
  9
$DIMLFAC
 40
1.0
  9
$DIMTOFL
 70
     1
  9
$DIMTVP
 40
0.0
  9
$DIMTIX
 70
     1
  9
$DIMSOXD
 70
     0
  9
$DIMSAH
 70
     0
  9
$DIMBLK1
  1

  9
$DIMBLK2
  1

  9
$DIMSTYLE
  2
ITM
  9
$DIMCLRD
 70
   256
  9
$DIMCLRE
 70
   256
  9
$DIMCLRT
 70
   256
  9
$DIMTFAC
 40
1.0
  9
$DIMGAP
 40
1.0
  9
$LUNITS
 70
     2
  9
$LUPREC
 70
     2
  9
$SKETCHINC
 40
1.0
  9
$FILLETRAD
 40
0.4
  9
$AUNITS
 70
     0
  9
$AUPREC
 70
     0
  9
$MENU
  1
.
  9
$ELEVATION
 40
0.0
  9
$PELEVATION
 40
0.0
  9
$THICKNESS
 40
0.0
  9
$LIMCHECK
 70
     0
  9
$BLIPMODE
 70
     0
  9
$CHAMFERA
 40
1.1999999999999991
  9
$CHAMFERB
 40
1.1999999999999991
  9
$SKPOLY
 70
     0
  9
$TDCREATE
 40
2453354.0921258219
  9
$TDUPDATE
 40
2456597.6887127198
  9
$TDINDWG
 40
513.36276835650006
  9
$TDUSRTIMER
 40
513.36249038189999
  9
$USRTIMER
 70
     1
  9
$ANGBASE
 50
0.0
  9
$ANGDIR
 70
     0
  9
$PDMODE
 70
     0
  9
$PDSIZE
 40
0.0
  9
$PLINEWID
 40
0.0
  9
$COORDS
 70
     1
  9
$SPLFRAME
 70
     0
  9
$SPLINETYPE
 70
     6
  9
$SPLINESEGS
 70
     8
  9
$ATTDIA
 70
     0
  9
$ATTREQ
 70
     1
  9
$HANDLING
 70
     1
  9
$HANDSEED
  5
680
  9
$SURFTAB1
 70
     6
  9
$SURFTAB2
 70
     6
  9
$SURFTYPE
 70
     6
  9
$SURFU
 70
     6
  9
$SURFV
 70
     6
  9
$UCSNAME
  2

  9
$UCSORG
 10
0.0
 20
0.0
 30
0.0
  9
$UCSXDIR
 10
1.0
 20
0.0
 30
0.0
  9
$UCSYDIR
 10
0.0
 20
1.0
 30
0.0
  9
$PUCSNAME
  2

  9
$PUCSORG
 10
0.0
 20
0.0
 30
0.0
  9
$PUCSXDIR
 10
1.0
 20
0.0
 30
0.0
  9
$PUCSYDIR
 10
0.0
 20
1.0
 30
0.0
  9
$USERI1
 70
     4
  9
$USERI2
 70
     1
  9
$USERI3
 70
     1
  9
$USERI4
 70
     0
  9
$USERI5
 70
     0
  9
$USERR1
 40
1.0
  9
$USERR2
 40
3.0
  9
$USERR3
 40
3.2000000000000002
  9
$USERR4
 40
3.0
  9
$USERR5
 40
10.0
  9
$WORLDVIEW
 70
     1
  9
$SHADEDGE
 70
     3
  9
$SHADEDIF
 70
    70
  9
$TILEMODE
 70
     1
  9
$MAXACTVP
 70
    16
  9
$PLIMCHECK
 70
     0
  9
$PEXTMIN
 10
0.0
 20
0.0
 30
0.0
  9
$PEXTMAX
 10
0.0
 20
0.0
 30
0.0
  9
$PLIMMIN
 10
0.0
 20
0.0
  9
$PLIMMAX
 10
12.0
 20
9.0
  9
$UNITMODE
 70
     0
  9
$VISRETAIN
 70
     0
  9
$PLINEGEN
 70
     0
  9
$PSLTSCALE
 70
     1
  0
ENDSEC
  0
SECTION
  2
TABLES
  0
TABLE
  2
VPORT
 70
     1
  0
VPORT
  2
*ACTIVE
 70
     0
 10
0.0
 20
0.0
 11
1.0
 21
1.0
 12
194.99404952627839
 22
134.84202934784381
 13
0.0
 23
0.0
 14
5.0
 24
5.0
 15
10.0
 25
10.0
 16
0.0
 26
0.0
 36
1.0
 17
0.0
 27
0.0
 37
0.0
 40
275.78743625673241
 41
2.304913294797688
 42
50.0
 43
0.0
 44
0.0
 50
0.0
 51
0.0
 71
    16
 72
   500
 73
     1
 74
     1
 75
     0
 76
     0
 77
     0
 78
     1
  0
ENDTAB
  0
TABLE
  2
LTYPE
 70
     4
  0
LTYPE
  2
CONTINUOUS
 70
     0
  3
Solid line
 72
    65
 73
     0
 40
0.0
  0
LTYPE
  2
CENTER
 70
     0
  3
____ _ ____ _ ____ _ ____ _ ____ _ ____ _ ____
 72
    65
 73
     4
 40
2.0
 49
1.25
 49
-0.25
 49
0.25
 49
-0.25
  0
LTYPE
  2
HIDDEN
 70
     0
  3
_ _ _ _ _ _ _ _ _ _ _ _ _ _ _ _ _ _ _ _ _ _ _
 72
    65
 73
     2
 40
0.375
 49
0.25
 49
-0.125
  0
LTYPE
  2
PHANTOM2
 70
     0
  3
___ _ _ ___ _ _ ___ _ _ ___ _ _
 72
    65
 73
     6
 40
1.25
 49
0.625
 49
-0.125
 49
0.125
 49
-0.125
 49
0.125
 49
-0.125
  0
ENDTAB
  0
TABLE
  2
LAYER
 70
     5
  0
LAYER
  2
0
 70
     0
 62
     7
  6
CONTINUOUS
  0
LAYER
  2
1
 70
     0
 62
     1
  6
CENTER
  0
LAYER
  2
WAKU
 70
     0
 62
     5
  6
CONTINUOUS
  0
LAYER
  2
3
 70
     0
 62
     3
  6
CONTINUOUS
  0
LAYER
  2
2
 70
     0
 62
     2
  6
HIDDEN
  0
ENDTAB
  0
TABLE
  2
STYLE
 70
     3
  0
STYLE
  2
STANDARD
 70
     0
 40
0.0
 41
1.0
 50
0.0
 71
     0
 42
2.5
  3
ROMANS
  4
EXTFONT
  0
STYLE
  2
K
 70
     0
 40
0.0
 41
0.75
 50
0.0
 71
     0
 42
3.2000000000000002
  3
ROMANS.shx
  4
EXTFONT.shx
  0
STYLE
  2
STANDARD1
 70
     0
 40
0.0
 41
1.0
 50
0.0
 71
     0
 42
3.0
  3
txt
  4

  0
ENDTAB
  0
TABLE
  2
VIEW
 70
     0
  0
ENDTAB
  0
TABLE
  2
UCS
 70
     0
  0
ENDTAB
  0
TABLE
  2
APPID
 70
     3
  0
APPID
  2
ACAD
 70
     0
  0
APPID
  2
ACAD_MLEADERVER
 70
     0
  0
APPID
  2
ACAD_NAV_VCDISPLAY
 70
     0
  0
ENDTAB
  0
TABLE
  2
DIMSTYLE
 70
     2
  0
DIMSTYLE
  2
ITM
 70
     0
  3

  4

  5

  6

  7

 40
0.0
 41
2.5
 42
1.0
 43
6.0
 44
1.0
 45
0.0
 46
0.0
 47
495.0
 48
0.0
140
3.0
141
0.0
142
0.0
143
25.399999999999999
144
1.0
145
0.0
146
1.0
147
1.0
 71
     0
 72
     0
 73
     0
 74
     0
 75
     0
 76
     0
 77
     3
 78
     8
170
     0
171
     2
172
     1
173
     0
174
     0
175
     0
176
     0
177
     0
178
     0
  0
DIMSTYLE
  2
STANDARD
 70
     0
  3

  4

  5

  6

  7

 40
1.0
 41
0.18
 42
0.0625
 43
0.38
 44
0.18
 45
0.0
 46
0.0
 47
0.0
 48
0.0
140
0.18
141
0.09
142
0.0
143
25.399999999999999
144
1.0
145
0.0
146
1.0
147
0.09
 71
     0
 72
     0
 73
     1
 74
     1
 75
     0
 76
     0
 77
     0
 78
     0
170
     0
171
     2
172
     0
173
     0
174
     0
175
     0
176
     0
177
     0
178
     0
  0
ENDTAB
  0
ENDSEC
  0
SECTION
  2
BLOCKS
  0
BLOCK
  8
0
  2
$MODEL_SPACE
 70
     0
 10
0.0
 20
0.0
 30
0.0
  3
$MODEL_SPACE
  1

  0
ENDBLK
  5
12
  8
0
  0
BLOCK
 67
     1
  8
0
  2
$PAPER_SPACE
 70
     0
 10
0.0
 20
0.0
 30
0.0
  3
$PAPER_SPACE
  1

  0
ENDBLK
  5
19
 67
     1
  8
0
  0
BLOCK
  8
0
  2
ARROW1
 70
     0
 10
0.0
 20
0.0
 30
0.0
  3
ARROW1
  1

  0
SOLID
  5
4A
  8
WAKU
  6
CONTINUOUS
 62
     4
 10
-1.0
 20
0.1666666666666714
 30
0.0
 11
-1.0
 21
-0.1666666666666714
 31
0.0
 12
0.0
 22
0.0
 32
0.0
 13
0.0
 23
0.0
 33
0.0
  0
ENDBLK
  5
4C
  8
0
  0
ENDSEC
  0
SECTION
  2
ENTITIES
  0
LINE
  5
73
  8
1
 10
125.3010409650129
 20
123.5796137834496
 30
0.0
 11
72.126017276814295
 21
123.5796137834496
 31
0.0
  0
LINE
  5
76
  8
3
 10
78.713529120913662
 20
127.9661137834496
 30
0.0
 11
84.714570296808745
 21
127.9661137834496
 31
0.0
  0
LINE
  5
78
  8
3
 10
78.713529120913662
 20
119.1931137834496
 30
0.0
 11
84.714570296808745
 21
119.1931137834496
 31
0.0
  0
LINE
  5
79
  8
0
 10
102.1329725373129
 20
123.5796137834496
 30
0.0
 11
95.713529120913662
 21
123.5796137834496
 31
0.0
  0
POLYLINE
  5
7A
  8
0
 66
     1
 10
0.0
 20
0.0
 30
0.0
  0
VERTEX
  5
232
  8
0
 10
102.71352912091361
 20
126.8296137834496
 30
0.0
  0
VERTEX
  5
233
  8
0
 10
102.7130591922903
 20
126.7405272282037
 30
0.0
  0
VERTEX
  5
234
  8
0
 10
102.7093279962217
 20
126.5631814560972
 30
0.0
  0
VERTEX
  5
235
  8
0
 10
102.7019312799062
 20
126.3867129664834
 30
0.0
  0
VERTEX
  5
236
  8
0
 10
102.6968766374044
 20
126.29872521233619
 30
0.0
  0
VERTEX
  5
237
  8
0
 10
102.6909261138465
 20
126.2108588294347
 30
0.0
  0
VERTEX
  5
238
  8
0
 10
102.6763581884162
 20
126.03536399491379
 30
0.0
  0
VERTEX
  5
239
  8
0
 10
102.65826234389991
 20
125.8599798945079
 30
0.0
  0
VERTEX
  5
23A
  8
0
 10
102.6366630086937
 20
125.68446313278019
 30
0.0
  0
VERTEX
  5
23B
  8
0
 10
102.61157455316309
 20
125.5085742524511
 30
0.0
  0
VERTEX
  5
23C
  8
0
 10
102.5830015652849
 20
125.33207655917791
 30
0.0
  0
VERTEX
  5
23D
  8
0
 10
102.5674071818198
 20
125.24352591769571
 30
0.0
  0
VERTEX
  5
23E
  8
0
 10
102.55093905298889
 20
125.1547349929637
 30
0.0
  0
VERTEX
  5
23F
  8
0
 10
102.5153725770283
 20
124.97631503422321
 30
0.0
  0
VERTEX
  5
240
  8
0
 10
102.4762783172179
 20
124.7965816333088
 30
0.0
  0
VERTEX
  5
241
  8
0
 10
102.4336230739703
 20
124.6152981528642
 30
0.0
  0
VERTEX
  5
242
  8
0
 10
102.3873642061982
 20
124.4322253127539
 30
0.0
  0
VERTEX
  5
243
  8
0
 10
102.3374495058289
 20
124.2471201275229
 30
0.0
  0
VERTEX
  5
244
  8
0
 10
102.31110224213801
 20
124.153728194094
 30
0.0
  0
VERTEX
  5
245
  8
0
 10
102.28381700837279
 20
124.0597348263765
 30
0.0
  0
VERTEX
  5
246
  8
0
 10
102.22639473818251
 20
123.869815745547
 30
0.0
  0
VERTEX
  5
247
  8
0
 10
102.16510038621919
 20
123.6771021826233
 30
0.0
  0
VERTEX
  5
248
  8
0
 10
102.1329725373129
 20
123.5796137834496
 30
0.0
  0
SEQEND
  5
249
  8
0
  0
POLYLINE
  5
7B
  8
0
 66
     1
 10
0.0
 20
0.0
 30
0.0
  0
VERTEX
  5
24A
  8
0
 10
102.1329725373129
 20
130.07961378344959
 30
0.0
  0
VERTEX
  5
24B
  8
0
 10
102.16510038621919
 20
129.982125384276
 30
0.0
  0
VERTEX
  5
24C
  8
0
 10
102.22639473818251
 20
129.7894118213523
 30
0.0
  0
VERTEX
  5
24D
  8
0
 10
102.28381700837279
 20
129.59949274052269
 30
0.0
  0
VERTEX
  5
24E
  8
0
 10
102.31110224213801
 20
129.5054993728053
 30
0.0
  0
VERTEX
  5
24F
  8
0
 10
102.3374495058289
 20
129.41210743937631
 30
0.0
  0
VERTEX
  5
250
  8
0
 10
102.3873642061982
 20
129.22700225414539
 30
0.0
  0
VERTEX
  5
251
  8
0
 10
102.4336230739703
 20
129.04392941403509
 30
0.0
  0
VERTEX
  5
252
  8
0
 10
102.4762783172179
 20
128.86264593359039
 30
0.0
  0
VERTEX
  5
253
  8
0
 10
102.5153725770283
 20
128.682912532676
 30
0.0
  0
VERTEX
  5
254
  8
0
 10
102.55093905298889
 20
128.50449257393561
 30
0.0
  0
VERTEX
  5
255
  8
0
 10
102.5674071818198
 20
128.4157016492035
 30
0.0
  0
VERTEX
  5
256
  8
0
 10
102.5830015652849
 20
128.32715100772131
 30
0.0
  0
VERTEX
  5
257
  8
0
 10
102.61157455316309
 20
128.15065331444811
 30
0.0
  0
VERTEX
  5
258
  8
0
 10
102.6366630086937
 20
127.974764434119
 30
0.0
  0
VERTEX
  5
259
  8
0
 10
102.65826234389991
 20
127.7992476723913
 30
0.0
  0
VERTEX
  5
25A
  8
0
 10
102.6763581884162
 20
127.6238635719854
 30
0.0
  0
VERTEX
  5
25B
  8
0
 10
102.6909261138465
 20
127.44836873746451
 30
0.0
  0
VERTEX
  5
25C
  8
0
 10
102.6968766374044
 20
127.360502354563
 30
0.0
  0
VERTEX
  5
25D
  8
0
 10
102.7019312799062
 20
127.2725146004158
 30
0.0
  0
VERTEX
  5
25E
  8
0
 10
102.7093279962217
 20
127.09604611080211
 30
0.0
  0
VERTEX
  5
25F
  8
0
 10
102.7130591922903
 20
126.9187003386955
 30
0.0
  0
VERTEX
  5
260
  8
0
 10
102.71352912091361
 20
126.8296137834496
 30
0.0
  0
SEQEND
  5
261
  8
0
  0
LINE
  5
7C
  8
0
 10
102.1329725373129
 20
130.07961378344959
 30
0.0
 11
95.713529120913662
 21
130.07961378344959
 31
0.0
  0
POLYLINE
  5
7D
  8
0
 66
     1
 10
0.0
 20
0.0
 30
0.0
  0
VERTEX
  5
262
  8
0
 10
102.71352912091361
 20
126.8296137834496
 30
0.0
  0
VERTEX
  5
263
  8
0
 10
102.7130591922903
 20
126.9187003386955
 30
0.0
  0
VERTEX
  5
264
  8
0
 10
102.7093279962217
 20
127.09604611080211
 30
0.0
  0
VERTEX
  5
265
  8
0
 10
102.7019312799062
 20
127.2725146004158
 30
0.0
  0
VERTEX
  5
266
  8
0
 10
102.6968766374044
 20
127.360502354563
 30
0.0
  0
VERTEX
  5
267
  8
0
 10
102.6909261138465
 20
127.44836873746451
 30
0.0
  0
VERTEX
  5
268
  8
0
 10
102.6763581884162
 20
127.6238635719854
 30
0.0
  0
VERTEX
  5
269
  8
0
 10
102.65826234389991
 20
127.7992476723913
 30
0.0
  0
VERTEX
  5
26A
  8
0
 10
102.6366630086937
 20
127.974764434119
 30
0.0
  0
VERTEX
  5
26B
  8
0
 10
102.61157455316309
 20
128.15065331444811
 30
0.0
  0
VERTEX
  5
26C
  8
0
 10
102.5830015652849
 20
128.32715100772131
 30
0.0
  0
VERTEX
  5
26D
  8
0
 10
102.5674071818198
 20
128.4157016492035
 30
0.0
  0
VERTEX
  5
26E
  8
0
 10
102.55093905298889
 20
128.50449257393561
 30
0.0
  0
VERTEX
  5
26F
  8
0
 10
102.5153725770283
 20
128.682912532676
 30
0.0
  0
VERTEX
  5
270
  8
0
 10
102.4762783172179
 20
128.86264593359039
 30
0.0
  0
VERTEX
  5
271
  8
0
 10
102.4336230739703
 20
129.04392941403509
 30
0.0
  0
VERTEX
  5
272
  8
0
 10
102.3873642061982
 20
129.22700225414539
 30
0.0
  0
VERTEX
  5
273
  8
0
 10
102.3374495058289
 20
129.41210743937631
 30
0.0
  0
VERTEX
  5
274
  8
0
 10
102.31110224213801
 20
129.5054993728053
 30
0.0
  0
VERTEX
  5
275
  8
0
 10
102.28381700837279
 20
129.59949274052269
 30
0.0
  0
VERTEX
  5
276
  8
0
 10
102.22639473818251
 20
129.7894118213523
 30
0.0
  0
VERTEX
  5
277
  8
0
 10
102.16510038621919
 20
129.982125384276
 30
0.0
  0
VERTEX
  5
278
  8
0
 10
102.1329725373129
 20
130.07961378344959
 30
0.0
  0
SEQEND
  5
279
  8
0
  0
POLYLINE
  5
7E
  8
0
 66
     1
 10
0.0
 20
0.0
 30
0.0
  0
VERTEX
  5
27A
  8
0
 10
102.1329725373129
 20
123.5796137834496
 30
0.0
  0
VERTEX
  5
27B
  8
0
 10
102.16510038621919
 20
123.6771021826233
 30
0.0
  0
VERTEX
  5
27C
  8
0
 10
102.22639473818251
 20
123.869815745547
 30
0.0
  0
VERTEX
  5
27D
  8
0
 10
102.28381700837291
 20
124.0597348263765
 30
0.0
  0
VERTEX
  5
27E
  8
0
 10
102.31110224213801
 20
124.153728194094
 30
0.0
  0
VERTEX
  5
27F
  8
0
 10
102.3374495058289
 20
124.2471201275229
 30
0.0
  0
VERTEX
  5
280
  8
0
 10
102.3873642061982
 20
124.4322253127539
 30
0.0
  0
VERTEX
  5
281
  8
0
 10
102.4336230739703
 20
124.6152981528642
 30
0.0
  0
VERTEX
  5
282
  8
0
 10
102.4762783172179
 20
124.7965816333088
 30
0.0
  0
VERTEX
  5
283
  8
0
 10
102.5153725770283
 20
124.97631503422321
 30
0.0
  0
VERTEX
  5
284
  8
0
 10
102.55093905298889
 20
125.1547349929637
 30
0.0
  0
VERTEX
  5
285
  8
0
 10
102.5674071818198
 20
125.24352591769571
 30
0.0
  0
VERTEX
  5
286
  8
0
 10
102.5830015652849
 20
125.33207655917791
 30
0.0
  0
VERTEX
  5
287
  8
0
 10
102.61157455316309
 20
125.5085742524511
 30
0.0
  0
VERTEX
  5
288
  8
0
 10
102.6366630086937
 20
125.68446313278019
 30
0.0
  0
VERTEX
  5
289
  8
0
 10
102.65826234389991
 20
125.8599798945079
 30
0.0
  0
VERTEX
  5
28A
  8
0
 10
102.6763581884162
 20
126.03536399491379
 30
0.0
  0
VERTEX
  5
28B
  8
0
 10
102.6909261138465
 20
126.2108588294347
 30
0.0
  0
VERTEX
  5
28C
  8
0
 10
102.6968766374044
 20
126.29872521233619
 30
0.0
  0
VERTEX
  5
28D
  8
0
 10
102.7019312799062
 20
126.3867129664834
 30
0.0
  0
VERTEX
  5
28E
  8
0
 10
102.7093279962217
 20
126.5631814560972
 30
0.0
  0
VERTEX
  5
28F
  8
0
 10
102.7130591922903
 20
126.7405272282037
 30
0.0
  0
VERTEX
  5
290
  8
0
 10
102.71352912091361
 20
126.8296137834496
 30
0.0
  0
SEQEND
  5
291
  8
0
  0
POLYLINE
  5
7F
  8
0
 66
     1
 10
0.0
 20
0.0
 30
0.0
  0
VERTEX
  5
292
  8
0
 10
102.71352912091361
 20
130.07961378344959
 30
0.0
  0
VERTEX
  5
293
  8
0
 10
102.7130591922903
 20
130.07961378344959
 30
0.0
  0
VERTEX
  5
294
  8
0
 10
102.7093279962217
 20
130.07961378344959
 30
0.0
  0
VERTEX
  5
295
  8
0
 10
102.7019312799062
 20
130.07961378344959
 30
0.0
  0
VERTEX
  5
296
  8
0
 10
102.6968766374044
 20
130.07961378344959
 30
0.0
  0
VERTEX
  5
297
  8
0
 10
102.6909261138465
 20
130.07961378344959
 30
0.0
  0
VERTEX
  5
298
  8
0
 10
102.6763581884162
 20
130.07961378344959
 30
0.0
  0
VERTEX
  5
299
  8
0
 10
102.65826234389991
 20
130.07961378344959
 30
0.0
  0
VERTEX
  5
29A
  8
0
 10
102.6366630086937
 20
130.07961378344959
 30
0.0
  0
VERTEX
  5
29B
  8
0
 10
102.61157455316309
 20
130.07961378344959
 30
0.0
  0
VERTEX
  5
29C
  8
0
 10
102.5830015652849
 20
130.07961378344959
 30
0.0
  0
VERTEX
  5
29D
  8
0
 10
102.5674071818198
 20
130.07961378344959
 30
0.0
  0
VERTEX
  5
29E
  8
0
 10
102.55093905298889
 20
130.07961378344959
 30
0.0
  0
VERTEX
  5
29F
  8
0
 10
102.5153725770283
 20
130.07961378344959
 30
0.0
  0
VERTEX
  5
2A0
  8
0
 10
102.4762783172179
 20
130.07961378344959
 30
0.0
  0
VERTEX
  5
2A1
  8
0
 10
102.4336230739703
 20
130.07961378344959
 30
0.0
  0
VERTEX
  5
2A2
  8
0
 10
102.3873642061982
 20
130.07961378344959
 30
0.0
  0
VERTEX
  5
2A3
  8
0
 10
102.3374495058289
 20
130.07961378344959
 30
0.0
  0
VERTEX
  5
2A4
  8
0
 10
102.31110224213801
 20
130.07961378344959
 30
0.0
  0
VERTEX
  5
2A5
  8
0
 10
102.28381700837279
 20
130.07961378344959
 30
0.0
  0
VERTEX
  5
2A6
  8
0
 10
102.22639473818251
 20
130.07961378344959
 30
0.0
  0
VERTEX
  5
2A7
  8
0
 10
102.16510038621919
 20
130.07961378344959
 30
0.0
  0
VERTEX
  5
2A8
  8
0
 10
102.1329725373129
 20
130.07961378344959
 30
0.0
  0
SEQEND
  5
2A9
  8
0
  0
POLYLINE
  5
80
  8
0
 66
     1
 10
0.0
 20
0.0
 30
0.0
  0
VERTEX
  5
2AA
  8
0
 10
102.1329725373129
 20
130.07961378344959
 30
0.0
  0
VERTEX
  5
2AB
  8
0
 10
102.16510038621919
 20
130.07961378344959
 30
0.0
  0
VERTEX
  5
2AC
  8
0
 10
102.22639473818251
 20
130.07961378344959
 30
0.0
  0
VERTEX
  5
2AD
  8
0
 10
102.28381700837279
 20
130.07961378344959
 30
0.0
  0
VERTEX
  5
2AE
  8
0
 10
102.31110224213801
 20
130.07961378344959
 30
0.0
  0
VERTEX
  5
2AF
  8
0
 10
102.3374495058289
 20
130.07961378344959
 30
0.0
  0
VERTEX
  5
2B0
  8
0
 10
102.3873642061982
 20
130.07961378344959
 30
0.0
  0
VERTEX
  5
2B1
  8
0
 10
102.4336230739703
 20
130.07961378344959
 30
0.0
  0
VERTEX
  5
2B2
  8
0
 10
102.4762783172179
 20
130.07961378344959
 30
0.0
  0
VERTEX
  5
2B3
  8
0
 10
102.5153725770283
 20
130.07961378344959
 30
0.0
  0
VERTEX
  5
2B4
  8
0
 10
102.55093905298889
 20
130.07961378344959
 30
0.0
  0
VERTEX
  5
2B5
  8
0
 10
102.5674071818198
 20
130.07961378344959
 30
0.0
  0
VERTEX
  5
2B6
  8
0
 10
102.5830015652849
 20
130.07961378344959
 30
0.0
  0
VERTEX
  5
2B7
  8
0
 10
102.61157455316309
 20
130.07961378344959
 30
0.0
  0
VERTEX
  5
2B8
  8
0
 10
102.6366630086937
 20
130.07961378344959
 30
0.0
  0
VERTEX
  5
2B9
  8
0
 10
102.65826234389991
 20
130.07961378344959
 30
0.0
  0
VERTEX
  5
2BA
  8
0
 10
102.6763581884162
 20
130.07961378344959
 30
0.0
  0
VERTEX
  5
2BB
  8
0
 10
102.6909261138465
 20
130.07961378344959
 30
0.0
  0
VERTEX
  5
2BC
  8
0
 10
102.6968766374044
 20
130.07961378344959
 30
0.0
  0
VERTEX
  5
2BD
  8
0
 10
102.7019312799062
 20
130.07961378344959
 30
0.0
  0
VERTEX
  5
2BE
  8
0
 10
102.7093279962217
 20
130.07961378344959
 30
0.0
  0
VERTEX
  5
2BF
  8
0
 10
102.7130591922903
 20
130.07961378344959
 30
0.0
  0
VERTEX
  5
2C0
  8
0
 10
102.71352912091361
 20
130.07961378344959
 30
0.0
  0
SEQEND
  5
2C1
  8
0
  0
POLYLINE
  5
81
  8
0
 66
     1
 10
0.0
 20
0.0
 30
0.0
  0
VERTEX
  5
2C2
  8
0
 10
102.71352912091361
 20
120.3296137834496
 30
0.0
  0
VERTEX
  5
2C3
  8
0
 10
102.7130591922903
 20
120.4187003386955
 30
0.0
  0
VERTEX
  5
2C4
  8
0
 10
102.7093279962217
 20
120.59604611080211
 30
0.0
  0
VERTEX
  5
2C5
  8
0
 10
102.7019312799062
 20
120.7725146004158
 30
0.0
  0
VERTEX
  5
2C6
  8
0
 10
102.6968766374044
 20
120.860502354563
 30
0.0
  0
VERTEX
  5
2C7
  8
0
 10
102.6909261138465
 20
120.94836873746451
 30
0.0
  0
VERTEX
  5
2C8
  8
0
 10
102.6763581884162
 20
121.1238635719855
 30
0.0
  0
VERTEX
  5
2C9
  8
0
 10
102.65826234389991
 20
121.2992476723913
 30
0.0
  0
VERTEX
  5
2CA
  8
0
 10
102.6366630086937
 20
121.474764434119
 30
0.0
  0
VERTEX
  5
2CB
  8
0
 10
102.61157455316309
 20
121.65065331444811
 30
0.0
  0
VERTEX
  5
2CC
  8
0
 10
102.5830015652849
 20
121.8271510077213
 30
0.0
  0
VERTEX
  5
2CD
  8
0
 10
102.5674071818198
 20
121.9157016492035
 30
0.0
  0
VERTEX
  5
2CE
  8
0
 10
102.55093905298889
 20
122.00449257393549
 30
0.0
  0
VERTEX
  5
2CF
  8
0
 10
102.5153725770283
 20
122.182912532676
 30
0.0
  0
VERTEX
  5
2D0
  8
0
 10
102.4762783172179
 20
122.3626459335904
 30
0.0
  0
VERTEX
  5
2D1
  8
0
 10
102.4336230739703
 20
122.54392941403511
 30
0.0
  0
VERTEX
  5
2D2
  8
0
 10
102.3873642061982
 20
122.7270022541454
 30
0.0
  0
VERTEX
  5
2D3
  8
0
 10
102.3374495058289
 20
122.9121074393763
 30
0.0
  0
VERTEX
  5
2D4
  8
0
 10
102.31110224213801
 20
123.0054993728053
 30
0.0
  0
VERTEX
  5
2D5
  8
0
 10
102.28381700837279
 20
123.09949274052271
 30
0.0
  0
VERTEX
  5
2D6
  8
0
 10
102.22639473818251
 20
123.2894118213523
 30
0.0
  0
VERTEX
  5
2D7
  8
0
 10
102.16510038621919
 20
123.482125384276
 30
0.0
  0
VERTEX
  5
2D8
  8
0
 10
102.1329725373129
 20
123.5796137834496
 30
0.0
  0
SEQEND
  5
2D9
  8
0
  0
POLYLINE
  5
82
  8
0
 66
     1
 10
0.0
 20
0.0
 30
0.0
  0
VERTEX
  5
2DA
  8
0
 10
102.1329725373129
 20
117.0796137834496
 30
0.0
  0
VERTEX
  5
2DB
  8
0
 10
102.16510038621919
 20
117.1771021826233
 30
0.0
  0
VERTEX
  5
2DC
  8
0
 10
102.22639473818251
 20
117.369815745547
 30
0.0
  0
VERTEX
  5
2DD
  8
0
 10
102.28381700837279
 20
117.5597348263766
 30
0.0
  0
VERTEX
  5
2DE
  8
0
 10
102.31110224213801
 20
117.653728194094
 30
0.0
  0
VERTEX
  5
2DF
  8
0
 10
102.3374495058289
 20
117.7471201275229
 30
0.0
  0
VERTEX
  5
2E0
  8
0
 10
102.3873642061982
 20
117.9322253127539
 30
0.0
  0
VERTEX
  5
2E1
  8
0
 10
102.4336230739703
 20
118.1152981528642
 30
0.0
  0
VERTEX
  5
2E2
  8
0
 10
102.4762783172179
 20
118.2965816333088
 30
0.0
  0
VERTEX
  5
2E3
  8
0
 10
102.5153725770283
 20
118.47631503422321
 30
0.0
  0
VERTEX
  5
2E4
  8
0
 10
102.55093905298889
 20
118.6547349929637
 30
0.0
  0
VERTEX
  5
2E5
  8
0
 10
102.5674071818198
 20
118.74352591769571
 30
0.0
  0
VERTEX
  5
2E6
  8
0
 10
102.5830015652849
 20
118.83207655917801
 30
0.0
  0
VERTEX
  5
2E7
  8
0
 10
102.61157455316309
 20
119.0085742524511
 30
0.0
  0
VERTEX
  5
2E8
  8
0
 10
102.6366630086937
 20
119.18446313278029
 30
0.0
  0
VERTEX
  5
2E9
  8
0
 10
102.65826234389991
 20
119.3599798945079
 30
0.0
  0
VERTEX
  5
2EA
  8
0
 10
102.6763581884162
 20
119.53536399491379
 30
0.0
  0
VERTEX
  5
2EB
  8
0
 10
102.6909261138465
 20
119.7108588294347
 30
0.0
  0
VERTEX
  5
2EC
  8
0
 10
102.6968766374044
 20
119.79872521233619
 30
0.0
  0
VERTEX
  5
2ED
  8
0
 10
102.7019312799062
 20
119.8867129664834
 30
0.0
  0
VERTEX
  5
2EE
  8
0
 10
102.7093279962217
 20
120.0631814560972
 30
0.0
  0
VERTEX
  5
2EF
  8
0
 10
102.7130591922903
 20
120.2405272282037
 30
0.0
  0
VERTEX
  5
2F0
  8
0
 10
102.71352912091361
 20
120.3296137834496
 30
0.0
  0
SEQEND
  5
2F1
  8
0
  0
POLYLINE
  5
83
  8
0
 66
     1
 10
0.0
 20
0.0
 30
0.0
  0
VERTEX
  5
2F2
  8
0
 10
102.71352912091361
 20
117.0796137834496
 30
0.0
  0
VERTEX
  5
2F3
  8
0
 10
102.7130591922903
 20
117.0796137834496
 30
0.0
  0
VERTEX
  5
2F4
  8
0
 10
102.7093279962217
 20
117.0796137834496
 30
0.0
  0
VERTEX
  5
2F5
  8
0
 10
102.7019312799062
 20
117.0796137834496
 30
0.0
  0
VERTEX
  5
2F6
  8
0
 10
102.6968766374044
 20
117.0796137834496
 30
0.0
  0
VERTEX
  5
2F7
  8
0
 10
102.6909261138465
 20
117.0796137834496
 30
0.0
  0
VERTEX
  5
2F8
  8
0
 10
102.6763581884162
 20
117.0796137834496
 30
0.0
  0
VERTEX
  5
2F9
  8
0
 10
102.65826234389991
 20
117.0796137834496
 30
0.0
  0
VERTEX
  5
2FA
  8
0
 10
102.6366630086937
 20
117.0796137834496
 30
0.0
  0
VERTEX
  5
2FB
  8
0
 10
102.61157455316309
 20
117.0796137834496
 30
0.0
  0
VERTEX
  5
2FC
  8
0
 10
102.5830015652849
 20
117.0796137834496
 30
0.0
  0
VERTEX
  5
2FD
  8
0
 10
102.5674071818198
 20
117.0796137834496
 30
0.0
  0
VERTEX
  5
2FE
  8
0
 10
102.55093905298889
 20
117.0796137834496
 30
0.0
  0
VERTEX
  5
2FF
  8
0
 10
102.5153725770283
 20
117.0796137834496
 30
0.0
  0
VERTEX
  5
300
  8
0
 10
102.4762783172179
 20
117.0796137834496
 30
0.0
  0
VERTEX
  5
301
  8
0
 10
102.4336230739703
 20
117.0796137834496
 30
0.0
  0
VERTEX
  5
302
  8
0
 10
102.3873642061982
 20
117.0796137834496
 30
0.0
  0
VERTEX
  5
303
  8
0
 10
102.3374495058289
 20
117.0796137834496
 30
0.0
  0
VERTEX
  5
304
  8
0
 10
102.31110224213801
 20
117.0796137834496
 30
0.0
  0
VERTEX
  5
305
  8
0
 10
102.28381700837279
 20
117.0796137834496
 30
0.0
  0
VERTEX
  5
306
  8
0
 10
102.22639473818251
 20
117.0796137834496
 30
0.0
  0
VERTEX
  5
307
  8
0
 10
102.16510038621919
 20
117.0796137834496
 30
0.0
  0
VERTEX
  5
308
  8
0
 10
102.1329725373129
 20
117.0796137834496
 30
0.0
  0
SEQEND
  5
309
  8
0
  0
POLYLINE
  5
84
  8
0
 66
     1
 10
0.0
 20
0.0
 30
0.0
  0
VERTEX
  5
30A
  8
0
 10
102.1329725373129
 20
117.0796137834496
 30
0.0
  0
VERTEX
  5
30B
  8
0
 10
102.16510038621919
 20
117.0796137834496
 30
0.0
  0
VERTEX
  5
30C
  8
0
 10
102.22639473818251
 20
117.0796137834496
 30
0.0
  0
VERTEX
  5
30D
  8
0
 10
102.28381700837279
 20
117.0796137834496
 30
0.0
  0
VERTEX
  5
30E
  8
0
 10
102.31110224213801
 20
117.0796137834496
 30
0.0
  0
VERTEX
  5
30F
  8
0
 10
102.3374495058289
 20
117.0796137834496
 30
0.0
  0
VERTEX
  5
310
  8
0
 10
102.3873642061982
 20
117.0796137834496
 30
0.0
  0
VERTEX
  5
311
  8
0
 10
102.4336230739703
 20
117.0796137834496
 30
0.0
  0
VERTEX
  5
312
  8
0
 10
102.4762783172179
 20
117.0796137834496
 30
0.0
  0
VERTEX
  5
313
  8
0
 10
102.5153725770283
 20
117.0796137834496
 30
0.0
  0
VERTEX
  5
314
  8
0
 10
102.55093905298889
 20
117.0796137834496
 30
0.0
  0
VERTEX
  5
315
  8
0
 10
102.5674071818198
 20
117.0796137834496
 30
0.0
  0
VERTEX
  5
316
  8
0
 10
102.5830015652849
 20
117.0796137834496
 30
0.0
  0
VERTEX
  5
317
  8
0
 10
102.61157455316309
 20
117.0796137834496
 30
0.0
  0
VERTEX
  5
318
  8
0
 10
102.6366630086937
 20
117.0796137834496
 30
0.0
  0
VERTEX
  5
319
  8
0
 10
102.65826234389991
 20
117.0796137834496
 30
0.0
  0
VERTEX
  5
31A
  8
0
 10
102.6763581884162
 20
117.0796137834496
 30
0.0
  0
VERTEX
  5
31B
  8
0
 10
102.6909261138465
 20
117.0796137834496
 30
0.0
  0
VERTEX
  5
31C
  8
0
 10
102.6968766374044
 20
117.0796137834496
 30
0.0
  0
VERTEX
  5
31D
  8
0
 10
102.7019312799062
 20
117.0796137834496
 30
0.0
  0
VERTEX
  5
31E
  8
0
 10
102.7093279962217
 20
117.0796137834496
 30
0.0
  0
VERTEX
  5
31F
  8
0
 10
102.7130591922903
 20
117.0796137834496
 30
0.0
  0
VERTEX
  5
320
  8
0
 10
102.71352912091361
 20
117.0796137834496
 30
0.0
  0
SEQEND
  5
321
  8
0
  0
LINE
  5
85
  8
0
 10
102.1329725373129
 20
117.0796137834496
 30
0.0
 11
95.713529120913662
 21
117.0796137834496
 31
0.0
  0
LINE
  5
86
  8
0
 10
95.713529120913662
 20
117.0796137834496
 30
0.0
 11
95.713529120913662
 21
130.07961378344959
 31
0.0
  0
POLYLINE
  5
87
  8
0
 66
     1
 10
0.0
 20
0.0
 30
0.0
  0
VERTEX
  5
322
  8
0
 10
102.71352912091361
 20
120.3296137834496
 30
0.0
  0
VERTEX
  5
323
  8
0
 10
102.7130591922903
 20
120.2405272282037
 30
0.0
  0
VERTEX
  5
324
  8
0
 10
102.7093279962217
 20
120.0631814560972
 30
0.0
  0
VERTEX
  5
325
  8
0
 10
102.7019312799062
 20
119.8867129664834
 30
0.0
  0
VERTEX
  5
326
  8
0
 10
102.6968766374044
 20
119.79872521233619
 30
0.0
  0
VERTEX
  5
327
  8
0
 10
102.6909261138465
 20
119.7108588294347
 30
0.0
  0
VERTEX
  5
328
  8
0
 10
102.6763581884162
 20
119.53536399491379
 30
0.0
  0
VERTEX
  5
329
  8
0
 10
102.65826234389991
 20
119.3599798945079
 30
0.0
  0
VERTEX
  5
32A
  8
0
 10
102.6366630086937
 20
119.18446313278029
 30
0.0
  0
VERTEX
  5
32B
  8
0
 10
102.61157455316309
 20
119.0085742524511
 30
0.0
  0
VERTEX
  5
32C
  8
0
 10
102.5830015652849
 20
118.83207655917801
 30
0.0
  0
VERTEX
  5
32D
  8
0
 10
102.5674071818198
 20
118.74352591769571
 30
0.0
  0
VERTEX
  5
32E
  8
0
 10
102.55093905298889
 20
118.6547349929637
 30
0.0
  0
VERTEX
  5
32F
  8
0
 10
102.5153725770283
 20
118.47631503422321
 30
0.0
  0
VERTEX
  5
330
  8
0
 10
102.4762783172179
 20
118.2965816333088
 30
0.0
  0
VERTEX
  5
331
  8
0
 10
102.4336230739703
 20
118.1152981528642
 30
0.0
  0
VERTEX
  5
332
  8
0
 10
102.3873642061982
 20
117.9322253127539
 30
0.0
  0
VERTEX
  5
333
  8
0
 10
102.3374495058289
 20
117.7471201275229
 30
0.0
  0
VERTEX
  5
334
  8
0
 10
102.31110224213801
 20
117.653728194094
 30
0.0
  0
VERTEX
  5
335
  8
0
 10
102.28381700837279
 20
117.5597348263766
 30
0.0
  0
VERTEX
  5
336
  8
0
 10
102.22639473818251
 20
117.369815745547
 30
0.0
  0
VERTEX
  5
337
  8
0
 10
102.16510038621919
 20
117.1771021826233
 30
0.0
  0
VERTEX
  5
338
  8
0
 10
102.1329725373129
 20
117.0796137834496
 30
0.0
  0
SEQEND
  5
339
  8
0
  0
POLYLINE
  5
88
  8
0
 66
     1
 10
0.0
 20
0.0
 30
0.0
  0
VERTEX
  5
33A
  8
0
 10
102.1329725373129
 20
123.5796137834496
 30
0.0
  0
VERTEX
  5
33B
  8
0
 10
102.16510038621919
 20
123.482125384276
 30
0.0
  0
VERTEX
  5
33C
  8
0
 10
102.22639473818251
 20
123.2894118213522
 30
0.0
  0
VERTEX
  5
33D
  8
0
 10
102.28381700837291
 20
123.09949274052271
 30
0.0
  0
VERTEX
  5
33E
  8
0
 10
102.31110224213801
 20
123.0054993728053
 30
0.0
  0
VERTEX
  5
33F
  8
0
 10
102.3374495058289
 20
122.9121074393763
 30
0.0
  0
VERTEX
  5
340
  8
0
 10
102.3873642061982
 20
122.7270022541454
 30
0.0
  0
VERTEX
  5
341
  8
0
 10
102.4336230739703
 20
122.54392941403511
 30
0.0
  0
VERTEX
  5
342
  8
0
 10
102.4762783172179
 20
122.3626459335904
 30
0.0
  0
VERTEX
  5
343
  8
0
 10
102.5153725770283
 20
122.182912532676
 30
0.0
  0
VERTEX
  5
344
  8
0
 10
102.55093905298889
 20
122.00449257393549
 30
0.0
  0
VERTEX
  5
345
  8
0
 10
102.5674071818198
 20
121.9157016492035
 30
0.0
  0
VERTEX
  5
346
  8
0
 10
102.5830015652849
 20
121.8271510077213
 30
0.0
  0
VERTEX
  5
347
  8
0
 10
102.61157455316309
 20
121.65065331444811
 30
0.0
  0
VERTEX
  5
348
  8
0
 10
102.6366630086937
 20
121.474764434119
 30
0.0
  0
VERTEX
  5
349
  8
0
 10
102.65826234389991
 20
121.2992476723913
 30
0.0
  0
VERTEX
  5
34A
  8
0
 10
102.6763581884162
 20
121.1238635719855
 30
0.0
  0
VERTEX
  5
34B
  8
0
 10
102.6909261138465
 20
120.94836873746451
 30
0.0
  0
VERTEX
  5
34C
  8
0
 10
102.6968766374044
 20
120.860502354563
 30
0.0
  0
VERTEX
  5
34D
  8
0
 10
102.7019312799062
 20
120.7725146004158
 30
0.0
  0
VERTEX
  5
34E
  8
0
 10
102.7093279962217
 20
120.59604611080211
 30
0.0
  0
VERTEX
  5
34F
  8
0
 10
102.7130591922903
 20
120.4187003386955
 30
0.0
  0
VERTEX
  5
350
  8
0
 10
102.71352912091361
 20
120.3296137834496
 30
0.0
  0
SEQEND
  5
351
  8
0
  0
LINE
  5
89
  8
0
 10
102.71352912091361
 20
130.07961378344959
 30
0.0
 11
102.71352912091361
 21
117.0796137834496
 31
0.0
  0
LINE
  5
8A
  8
0
 10
78.713529120913662
 20
119.1931137834496
 30
0.0
 11
78.713529120913662
 21
127.9661137834496
 31
0.0
  0
LINE
  5
8B
  8
0
 10
78.713529120912128
 20
121.0796137834496
 30
0.0
 11
78.713529120915197
 21
126.0796137834496
 31
0.0
  0
LINE
  5
8C
  8
0
 10
79.32702912091365
 20
118.5796137834496
 30
0.0
 11
79.32702912091365
 21
128.57961378344959
 31
0.0
  0
LINE
  5
8D
  8
0
 10
75.013529120912111
 20
121.0796137834496
 30
0.0
 11
75.013529120915209
 21
126.0796137834496
 31
0.0
  0
LINE
  5
8E
  8
0
 10
103.9135291209099
 20
117.5796137834496
 30
0.0
 11
103.9135291209173
 21
129.57961378344959
 31
0.0
  0
LINE
  5
8F
  8
0
 10
111.8211206754788
 20
117.5796137834496
 30
0.0
 11
111.8211206754862
 21
129.57961378344959
 31
0.0
  0
LINE
  5
90
  8
0
 10
113.4042151511216
 20
117.0145070314579
 30
0.0
 11
113.4042151511297
 21
130.14472053544131
 31
0.0
  0
LINE
  5
91
  8
0
 10
117.5228430906954
 20
113.64472053544129
 30
0.0
 11
117.5228430907077
 21
133.5145070314579
 31
0.0
  0
LINE
  5
92
  8
0
 10
119.1059375663383
 20
113.0796137834496
 30
0.0
 11
119.1059375663512
 21
134.07961378344959
 31
0.0
  0
LINE
  5
93
  8
0
 10
122.51352912090719
 20
113.0796137834496
 30
0.0
 11
122.5135291209201
 21
134.07961378344959
 31
0.0
  0
LINE
  5
94
  8
0
 10
123.71352912090779
 20
114.27961378345
 30
0.0
 11
123.7135291209193
 21
132.87961378344929
 31
0.0
  0
LINE
  5
95
  8
0
 10
79.32702912091365
 20
128.57961378344959
 30
0.0
 11
78.713529120913662
 21
127.9661137834496
 31
0.0
  0
LINE
  5
96
  8
0
 10
78.713529120913662
 20
119.1931137834496
 30
0.0
 11
79.32702912091365
 21
118.5796137834496
 31
0.0
  0
LINE
  5
97
  8
0
 10
95.713529120913662
 20
128.57961378344959
 30
0.0
 11
89.687978121861434
 21
128.57961378344959
 31
0.0
  0
LINE
  5
98
  8
0
 10
79.32702912091365
 20
118.5796137834496
 30
0.0
 11
84.739080119965877
 21
118.5796137834496
 31
0.0
  0
LINE
  5
99
  8
0
 10
78.713529120913662
 20
126.0796137834496
 30
0.0
 11
75.013529120913674
 21
126.0796137834496
 31
0.0
  0
LINE
  5
9A
  8
0
 10
75.013529120913674
 20
121.0796137834496
 30
0.0
 11
78.713529120913662
 21
121.0796137834496
 31
0.0
  0
ARC
  5
9B
  8
0
 10
103.91352912091359
 20
118.77961378344961
 30
0.0
 40
1.2000000000000051
 50
180.0
 51
270.0
  0
ARC
  5
9C
  8
0
 10
103.91352912091359
 20
128.3796137834496
 30
0.0
 40
1.2000000000000031
 50
89.999999999999986
 51
180.0
  0
LINE
  5
9D
  8
0
 10
111.8211206754825
 20
129.57961378344959
 30
0.0
 11
103.91352912091359
 21
129.57961378344959
 31
0.0
  0
LINE
  5
9E
  8
0
 10
103.91352912091359
 20
117.5796137834496
 30
0.0
 11
111.8211206754825
 21
117.5796137834496
 31
0.0
  0
ARC
  5
9F
  8
0
 10
111.8211206754825
 20
115.0796137834496
 30
0.0
 40
2.5000000000000022
 50
50.710593137499849
 51
89.999999999999986
  0
ARC
  5
A0
  8
0
 10
111.8211206754825
 20
132.07961378344959
 30
0.0
 40
2.5000000000000031
 50
270.0
 51
309.28940686250007
  0
LINE
  5
A1
  8
0
 10
117.5228430907016
 20
133.5145070314579
 30
0.0
 11
113.4042151511257
 21
130.14472053544131
 31
0.0
  0
LINE
  5
A2
  8
0
 10
113.4042151511257
 20
117.0145070314579
 30
0.0
 11
117.5228430907016
 21
113.64472053544129
 31
0.0
  0
ARC
  5
A3
  8
0
 10
119.10593756634471
 20
115.5796137834496
 30
0.0
 40
2.4999999999999818
 50
230.7105931374999
 51
270.0
  0
ARC
  5
A4
  8
0
 10
119.10593756634471
 20
131.57961378344959
 30
0.0
 40
2.5000000000000089
 50
89.999999146226344
 51
129.2894068625001
  0
LINE
  5
A5
  8
0
 10
122.5135291209136
 20
134.07961378344959
 30
0.0
 11
119.10593756634471
 21
134.07961378344959
 31
0.0
  0
LINE
  5
A6
  8
0
 10
119.10593756634471
 20
113.0796137834496
 30
0.0
 11
122.5135291209136
 21
113.0796137834496
 31
0.0
  0
ARC
  5
A7
  8
0
 10
122.5135291209137
 20
114.27961378344951
 30
0.0
 40
1.199999999999841
 50
270.0
 51
0.0
  0
ARC
  5
A8
  8
0
 10
122.5135291209137
 20
132.8796137834498
 30
0.0
 40
1.1999999999998421
 50
0.0
 51
89.999999999999986
  0
LINE
  5
A9
  8
1
 10
125.3010409650129
 20
59.676430649611767
 30
0.0
 11
72.126017276814324
 21
59.676430649611802
 31
0.0
  0
LINE
  5
AA
  8
3
 10
78.713529120913677
 20
64.062930649611786
 30
0.0
 11
84.713529120913677
 21
64.062930649611786
 31
0.0
  0
LINE
  5
AB
  8
0
 10
93.713529120913677
 20
54.676430649611767
 30
0.0
 11
93.713529120913677
 21
64.676430649611774
 31
0.0
  0
LINE
  5
AC
  8
3
 10
78.713529120913677
 20
55.28993064961179
 30
0.0
 11
84.713529120913677
 21
55.289930649611797
 31
0.0
  0
LINE
  5
AD
  8
0
 10
102.1329725373129
 20
67.181984149076925
 30
0.0
 11
95.713529120913677
 21
67.181984149076925
 31
0.0
  0
POLYLINE
  5
AE
  8
0
 66
     1
 10
0.0
 20
0.0
 30
0.0
  0
VERTEX
  5
352
  8
0
 10
102.71352912091361
 20
65.305595774210616
 30
0.0
  0
VERTEX
  5
353
  8
0
 10
102.7130591922904
 20
65.357029920863027
 30
0.0
  0
VERTEX
  5
354
  8
0
 10
102.7093279962217
 20
65.459420550128385
 30
0.0
  0
VERTEX
  5
355
  8
0
 10
102.7019312799062
 20
65.561304680110368
 30
0.0
  0
VERTEX
  5
356
  8
0
 10
102.6968766374044
 20
65.612104433652632
 30
0.0
  0
VERTEX
  5
357
  8
0
 10
102.6909261138465
 20
65.662834113473565
 30
0.0
  0
VERTEX
  5
358
  8
0
 10
102.6763581884162
 20
65.764156103425591
 30
0.0
  0
VERTEX
  5
359
  8
0
 10
102.65826234389991
 20
65.865414161006527
 30
0.0
  0
VERTEX
  5
35A
  8
0
 10
102.6366630086938
 20
65.966748810637256
 30
0.0
  0
VERTEX
  5
35B
  8
0
 10
102.61157455316309
 20
66.068298303042752
 30
0.0
  0
VERTEX
  5
35C
  8
0
 10
102.5830015652849
 20
66.170199293765364
 30
0.0
  0
VERTEX
  5
35D
  8
0
 10
102.5674071818198
 20
66.221324030462057
 30
0.0
  0
VERTEX
  5
35E
  8
0
 10
102.55093905298889
 20
66.272587494757687
 30
0.0
  0
VERTEX
  5
35F
  8
0
 10
102.5153725770283
 20
66.375598305965283
 30
0.0
  0
VERTEX
  5
360
  8
0
 10
102.4762783172179
 20
66.479367433365582
 30
0.0
  0
VERTEX
  5
361
  8
0
 10
102.4336230739703
 20
66.584031499599917
 30
0.0
  0
VERTEX
  5
362
  8
0
 10
102.3873642061982
 20
66.68972865311892
 30
0.0
  0
VERTEX
  5
363
  8
0
 10
102.3374495058289
 20
66.796599181640431
 30
0.0
  0
VERTEX
  5
364
  8
0
 10
102.31110224213801
 20
66.850519039545759
 30
0.0
  0
VERTEX
  5
365
  8
0
 10
102.28381700837279
 20
66.904786135699453
 30
0.0
  0
VERTEX
  5
366
  8
0
 10
102.22639473818251
 20
67.014435968140646
 30
0.0
  0
VERTEX
  5
367
  8
0
 10
102.16510038621919
 20
67.125699195571116
 30
0.0
  0
VERTEX
  5
368
  8
0
 10
102.1329725373129
 20
67.181984149076925
 30
0.0
  0
SEQEND
  5
369
  8
0
  0
POLYLINE
  5
AF
  8
0
 66
     1
 10
0.0
 20
0.0
 30
0.0
  0
VERTEX
  5
36A
  8
0
 10
102.1329725373129
 20
63.429207399344342
 30
0.0
  0
VERTEX
  5
36B
  8
0
 10
102.16510038621919
 20
63.485492352850123
 30
0.0
  0
VERTEX
  5
36C
  8
0
 10
102.22639473818251
 20
63.596755580280622
 30
0.0
  0
VERTEX
  5
36D
  8
0
 10
102.28381700837279
 20
63.7064054127218
 30
0.0
  0
VERTEX
  5
36E
  8
0
 10
102.31110224213801
 20
63.760672508875501
 30
0.0
  0
VERTEX
  5
36F
  8
0
 10
102.3374495058289
 20
63.814592366780822
 30
0.0
  0
VERTEX
  5
370
  8
0
 10
102.3873642061982
 20
63.921462895302341
 30
0.0
  0
VERTEX
  5
371
  8
0
 10
102.4336230739703
 20
64.027160048821344
 30
0.0
  0
VERTEX
  5
372
  8
0
 10
102.4762783172179
 20
64.131824115055679
 30
0.0
  0
VERTEX
  5
373
  8
0
 10
102.5153725770283
 20
64.235593242455963
 30
0.0
  0
VERTEX
  5
374
  8
0
 10
102.55093905298889
 20
64.338604053663573
 30
0.0
  0
VERTEX
  5
375
  8
0
 10
102.5674071818198
 20
64.389867517959203
 30
0.0
  0
VERTEX
  5
376
  8
0
 10
102.5830015652849
 20
64.440992254655896
 30
0.0
  0
VERTEX
  5
377
  8
0
 10
102.61157455316309
 20
64.542893245378494
 30
0.0
  0
VERTEX
  5
378
  8
0
 10
102.6366630086938
 20
64.644442737783976
 30
0.0
  0
VERTEX
  5
379
  8
0
 10
102.65826234389991
 20
64.745777387414734
 30
0.0
  0
VERTEX
  5
37A
  8
0
 10
102.6763581884162
 20
64.84703544499564
 30
0.0
  0
VERTEX
  5
37B
  8
0
 10
102.6909261138465
 20
64.948357434947695
 30
0.0
  0
VERTEX
  5
37C
  8
0
 10
102.6968766374044
 20
64.999087114768614
 30
0.0
  0
VERTEX
  5
37D
  8
0
 10
102.7019312799062
 20
65.049886868310892
 30
0.0
  0
VERTEX
  5
37E
  8
0
 10
102.7093279962217
 20
65.151770998292875
 30
0.0
  0
VERTEX
  5
37F
  8
0
 10
102.7130591922904
 20
65.254161627558233
 30
0.0
  0
VERTEX
  5
380
  8
0
 10
102.71352912091361
 20
65.305595774210616
 30
0.0
  0
SEQEND
  5
381
  8
0
  0
POLYLINE
  5
B0
  8
0
 66
     1
 10
0.0
 20
0.0
 30
0.0
  0
VERTEX
  5
382
  8
0
 10
102.71352912091361
 20
54.047265525012932
 30
0.0
  0
VERTEX
  5
383
  8
0
 10
102.7130591922904
 20
54.098699671665322
 30
0.0
  0
VERTEX
  5
384
  8
0
 10
102.7093279962217
 20
54.201090300930673
 30
0.0
  0
VERTEX
  5
385
  8
0
 10
102.7019312799062
 20
54.302974430912663
 30
0.0
  0
VERTEX
  5
386
  8
0
 10
102.6968766374044
 20
54.353774184454949
 30
0.0
  0
VERTEX
  5
387
  8
0
 10
102.6909261138465
 20
54.404503864275853
 30
0.0
  0
VERTEX
  5
388
  8
0
 10
102.6763581884162
 20
54.505825854227901
 30
0.0
  0
VERTEX
  5
389
  8
0
 10
102.65826234389991
 20
54.607083911808843
 30
0.0
  0
VERTEX
  5
38A
  8
0
 10
102.6366630086938
 20
54.708418561439572
 30
0.0
  0
VERTEX
  5
38B
  8
0
 10
102.61157455316309
 20
54.80996805384504
 30
0.0
  0
VERTEX
  5
38C
  8
0
 10
102.5830015652849
 20
54.911869044567652
 30
0.0
  0
VERTEX
  5
38D
  8
0
 10
102.5674071818198
 20
54.962993781264338
 30
0.0
  0
VERTEX
  5
38E
  8
0
 10
102.55093905298889
 20
55.014257245559968
 30
0.0
  0
VERTEX
  5
38F
  8
0
 10
102.5153725770283
 20
55.117268056767621
 30
0.0
  0
VERTEX
  5
390
  8
0
 10
102.4762783172179
 20
55.221037184167862
 30
0.0
  0
VERTEX
  5
391
  8
0
 10
102.4336230739703
 20
55.325701250402233
 30
0.0
  0
VERTEX
  5
392
  8
0
 10
102.3873642061982
 20
55.431398403921207
 30
0.0
  0
VERTEX
  5
393
  8
0
 10
102.3374495058289
 20
55.538268932442719
 30
0.0
  0
VERTEX
  5
394
  8
0
 10
102.31110224213801
 20
55.592188790348082
 30
0.0
  0
VERTEX
  5
395
  8
0
 10
102.28381700837279
 20
55.646455886501769
 30
0.0
  0
VERTEX
  5
396
  8
0
 10
102.22639473818251
 20
55.756105718942933
 30
0.0
  0
VERTEX
  5
397
  8
0
 10
102.16510038621919
 20
55.867368946373432
 30
0.0
  0
VERTEX
  5
398
  8
0
 10
102.1329725373129
 20
55.923653899879213
 30
0.0
  0
SEQEND
  5
399
  8
0
  0
POLYLINE
  5
B1
  8
0
 66
     1
 10
0.0
 20
0.0
 30
0.0
  0
VERTEX
  5
39A
  8
0
 10
102.1329725373129
 20
52.170877150146623
 30
0.0
  0
VERTEX
  5
39B
  8
0
 10
102.16510038621919
 20
52.227162103652432
 30
0.0
  0
VERTEX
  5
39C
  8
0
 10
102.22639473818251
 20
52.338425331082902
 30
0.0
  0
VERTEX
  5
39D
  8
0
 10
102.28381700837279
 20
52.448075163524088
 30
0.0
  0
VERTEX
  5
39E
  8
0
 10
102.31110224213801
 20
52.502342259677789
 30
0.0
  0
VERTEX
  5
39F
  8
0
 10
102.3374495058289
 20
52.55626211758311
 30
0.0
  0
VERTEX
  5
3A0
  8
0
 10
102.3873642061982
 20
52.663132646104629
 30
0.0
  0
VERTEX
  5
3A1
  8
0
 10
102.4336230739703
 20
52.768829799623632
 30
0.0
  0
VERTEX
  5
3A2
  8
0
 10
102.4762783172179
 20
52.873493865857988
 30
0.0
  0
VERTEX
  5
3A3
  8
0
 10
102.5153725770283
 20
52.97726299325825
 30
0.0
  0
VERTEX
  5
3A4
  8
0
 10
102.55093905298889
 20
53.080273804465882
 30
0.0
  0
VERTEX
  5
3A5
  8
0
 10
102.5674071818198
 20
53.131537268761512
 30
0.0
  0
VERTEX
  5
3A6
  8
0
 10
102.5830015652849
 20
53.182662005458177
 30
0.0
  0
VERTEX
  5
3A7
  8
0
 10
102.61157455316309
 20
53.284562996180789
 30
0.0
  0
VERTEX
  5
3A8
  8
0
 10
102.6366630086938
 20
53.386112488586292
 30
0.0
  0
VERTEX
  5
3A9
  8
0
 10
102.65826234389991
 20
53.487447138217021
 30
0.0
  0
VERTEX
  5
3AA
  8
0
 10
102.6763581884162
 20
53.588705195797949
 30
0.0
  0
VERTEX
  5
3AB
  8
0
 10
102.6909261138465
 20
53.690027185750012
 30
0.0
  0
VERTEX
  5
3AC
  8
0
 10
102.6968766374044
 20
53.740756865570908
 30
0.0
  0
VERTEX
  5
3AD
  8
0
 10
102.7019312799062
 20
53.79155661911318
 30
0.0
  0
VERTEX
  5
3AE
  8
0
 10
102.7093279962217
 20
53.893440749095163
 30
0.0
  0
VERTEX
  5
3AF
  8
0
 10
102.7130591922904
 20
53.995831378360521
 30
0.0
  0
VERTEX
  5
3B0
  8
0
 10
102.71352912091361
 20
54.047265525012932
 30
0.0
  0
SEQEND
  5
3B1
  8
0
  0
LINE
  5
B2
  8
0
 10
102.1329725373129
 20
52.170877150146623
 30
0.0
 11
95.713529120913677
 21
52.170877150146623
 31
0.0
  0
POLYLINE
  5
B3
  8
0
 66
     1
 10
0.0
 20
0.0
 30
0.0
  0
VERTEX
  5
3B2
  8
0
 10
102.71352912091361
 20
59.676430649611767
 30
0.0
  0
VERTEX
  5
3B3
  8
0
 10
102.7130591922904
 20
59.779298942916569
 30
0.0
  0
VERTEX
  5
3B4
  8
0
 10
102.7093279962217
 20
59.984080201447277
 30
0.0
  0
VERTEX
  5
3B5
  8
0
 10
102.7019312799062
 20
60.187848461411249
 30
0.0
  0
VERTEX
  5
3B6
  8
0
 10
102.6968766374044
 20
60.289447968495807
 30
0.0
  0
VERTEX
  5
3B7
  8
0
 10
102.6909261138465
 20
60.390907328137651
 30
0.0
  0
VERTEX
  5
3B8
  8
0
 10
102.6763581884162
 20
60.593551308041718
 30
0.0
  0
VERTEX
  5
3B9
  8
0
 10
102.65826234389991
 20
60.796067423203567
 30
0.0
  0
VERTEX
  5
3BA
  8
0
 10
102.6366630086938
 20
60.998736722465061
 30
0.0
  0
VERTEX
  5
3BB
  8
0
 10
102.61157455316309
 20
61.201835707276011
 30
0.0
  0
VERTEX
  5
3BC
  8
0
 10
102.5830015652849
 20
61.405637688721242
 30
0.0
  0
VERTEX
  5
3BD
  8
0
 10
102.5674071818198
 20
61.507887162114621
 30
0.0
  0
VERTEX
  5
3BE
  8
0
 10
102.55093905298889
 20
61.610414090705881
 30
0.0
  0
VERTEX
  5
3BF
  8
0
 10
102.5153725770283
 20
61.816435713121109
 30
0.0
  0
VERTEX
  5
3C0
  8
0
 10
102.4762783172179
 20
62.023973967921677
 30
0.0
  0
VERTEX
  5
3C1
  8
0
 10
102.4336230739703
 20
62.233302100390368
 30
0.0
  0
VERTEX
  5
3C2
  8
0
 10
102.3873642061982
 20
62.444696407428353
 30
0.0
  0
VERTEX
  5
3C3
  8
0
 10
102.3374495058289
 20
62.658437464471383
 30
0.0
  0
VERTEX
  5
3C4
  8
0
 10
102.31110224213801
 20
62.766277180282032
 30
0.0
  0
VERTEX
  5
3C5
  8
0
 10
102.28381700837279
 20
62.87481137258942
 30
0.0
  0
VERTEX
  5
3C6
  8
0
 10
102.22639473818251
 20
63.094111037471841
 30
0.0
  0
VERTEX
  5
3C7
  8
0
 10
102.16510038621919
 20
63.316637492332767
 30
0.0
  0
VERTEX
  5
3C8
  8
0
 10
102.1329725373129
 20
63.429207399344342
 30
0.0
  0
SEQEND
  5
3C9
  8
0
  0
POLYLINE
  5
B4
  8
0
 66
     1
 10
0.0
 20
0.0
 30
0.0
  0
VERTEX
  5
3CA
  8
0
 10
102.1329725373129
 20
55.923653899879213
 30
0.0
  0
VERTEX
  5
3CB
  8
0
 10
102.16510038621919
 20
56.036223806890781
 30
0.0
  0
VERTEX
  5
3CC
  8
0
 10
102.22639473818251
 20
56.258750261751743
 30
0.0
  0
VERTEX
  5
3CD
  8
0
 10
102.28381700837279
 20
56.478049926634128
 30
0.0
  0
VERTEX
  5
3CE
  8
0
 10
102.31110224213801
 20
56.586584118941509
 30
0.0
  0
VERTEX
  5
3CF
  8
0
 10
102.3374495058289
 20
56.6944238347522
 30
0.0
  0
VERTEX
  5
3D0
  8
0
 10
102.3873642061982
 20
56.908164891795188
 30
0.0
  0
VERTEX
  5
3D1
  8
0
 10
102.4336230739703
 20
57.119559198833201
 30
0.0
  0
VERTEX
  5
3D2
  8
0
 10
102.4762783172179
 20
57.3288873313019
 30
0.0
  0
VERTEX
  5
3D3
  8
0
 10
102.5153725770283
 20
57.536425586102439
 30
0.0
  0
VERTEX
  5
3D4
  8
0
 10
102.55093905298889
 20
57.742447208517682
 30
0.0
  0
VERTEX
  5
3D5
  8
0
 10
102.5674071818198
 20
57.84497413710892
 30
0.0
  0
VERTEX
  5
3D6
  8
0
 10
102.5830015652849
 20
57.947223610502299
 30
0.0
  0
VERTEX
  5
3D7
  8
0
 10
102.61157455316309
 20
58.15102559194753
 30
0.0
  0
VERTEX
  5
3D8
  8
0
 10
102.6366630086938
 20
58.354124576758487
 30
0.0
  0
VERTEX
  5
3D9
  8
0
 10
102.65826234389991
 20
58.556793876019981
 30
0.0
  0
VERTEX
  5
3DA
  8
0
 10
102.6763581884162
 20
58.759309991181823
 30
0.0
  0
VERTEX
  5
3DB
  8
0
 10
102.6909261138465
 20
58.961953971085897
 30
0.0
  0
VERTEX
  5
3DC
  8
0
 10
102.6968766374044
 20
59.063413330727741
 30
0.0
  0
VERTEX
  5
3DD
  8
0
 10
102.7019312799062
 20
59.165012837812291
 30
0.0
  0
VERTEX
  5
3DE
  8
0
 10
102.7093279962217
 20
59.368781097776271
 30
0.0
  0
VERTEX
  5
3DF
  8
0
 10
102.7130591922904
 20
59.573562356306972
 30
0.0
  0
VERTEX
  5
3E0
  8
0
 10
102.71352912091361
 20
59.676430649611767
 30
0.0
  0
SEQEND
  5
3E1
  8
0
  0
POLYLINE
  5
B5
  8
0
 66
     1
 10
0.0
 20
0.0
 30
0.0
  0
VERTEX
  5
3E2
  8
0
 10
102.71352912091361
 20
54.047265525012932
 30
0.0
  0
VERTEX
  5
3E3
  8
0
 10
102.7130591922904
 20
53.995831378360521
 30
0.0
  0
VERTEX
  5
3E4
  8
0
 10
102.7093279962217
 20
53.893440749095191
 30
0.0
  0
VERTEX
  5
3E5
  8
0
 10
102.7019312799062
 20
53.79155661911318
 30
0.0
  0
VERTEX
  5
3E6
  8
0
 10
102.6968766374044
 20
53.740756865570908
 30
0.0
  0
VERTEX
  5
3E7
  8
0
 10
102.6909261138465
 20
53.690027185750012
 30
0.0
  0
VERTEX
  5
3E8
  8
0
 10
102.6763581884162
 20
53.588705195797949
 30
0.0
  0
VERTEX
  5
3E9
  8
0
 10
102.65826234389991
 20
53.487447138217021
 30
0.0
  0
VERTEX
  5
3EA
  8
0
 10
102.6366630086938
 20
53.386112488586292
 30
0.0
  0
VERTEX
  5
3EB
  8
0
 10
102.61157455316309
 20
53.284562996180789
 30
0.0
  0
VERTEX
  5
3EC
  8
0
 10
102.5830015652849
 20
53.182662005458177
 30
0.0
  0
VERTEX
  5
3ED
  8
0
 10
102.5674071818198
 20
53.131537268761512
 30
0.0
  0
VERTEX
  5
3EE
  8
0
 10
102.55093905298889
 20
53.080273804465882
 30
0.0
  0
VERTEX
  5
3EF
  8
0
 10
102.5153725770283
 20
52.97726299325825
 30
0.0
  0
VERTEX
  5
3F0
  8
0
 10
102.4762783172179
 20
52.873493865857988
 30
0.0
  0
VERTEX
  5
3F1
  8
0
 10
102.4336230739703
 20
52.768829799623632
 30
0.0
  0
VERTEX
  5
3F2
  8
0
 10
102.3873642061982
 20
52.663132646104629
 30
0.0
  0
VERTEX
  5
3F3
  8
0
 10
102.3374495058289
 20
52.55626211758311
 30
0.0
  0
VERTEX
  5
3F4
  8
0
 10
102.31110224213801
 20
52.502342259677789
 30
0.0
  0
VERTEX
  5
3F5
  8
0
 10
102.28381700837279
 20
52.448075163524088
 30
0.0
  0
VERTEX
  5
3F6
  8
0
 10
102.22639473818251
 20
52.338425331082902
 30
0.0
  0
VERTEX
  5
3F7
  8
0
 10
102.16510038621919
 20
52.227162103652432
 30
0.0
  0
VERTEX
  5
3F8
  8
0
 10
102.1329725373129
 20
52.170877150146623
 30
0.0
  0
SEQEND
  5
3F9
  8
0
  0
POLYLINE
  5
B6
  8
0
 66
     1
 10
0.0
 20
0.0
 30
0.0
  0
VERTEX
  5
3FA
  8
0
 10
102.1329725373129
 20
55.923653899879213
 30
0.0
  0
VERTEX
  5
3FB
  8
0
 10
102.16510038621919
 20
55.867368946373432
 30
0.0
  0
VERTEX
  5
3FC
  8
0
 10
102.22639473818251
 20
55.756105718942933
 30
0.0
  0
VERTEX
  5
3FD
  8
0
 10
102.28381700837279
 20
55.646455886501769
 30
0.0
  0
VERTEX
  5
3FE
  8
0
 10
102.31110224213801
 20
55.592188790348082
 30
0.0
  0
VERTEX
  5
3FF
  8
0
 10
102.3374495058289
 20
55.538268932442719
 30
0.0
  0
VERTEX
  5
400
  8
0
 10
102.3873642061982
 20
55.431398403921207
 30
0.0
  0
VERTEX
  5
401
  8
0
 10
102.4336230739703
 20
55.325701250402233
 30
0.0
  0
VERTEX
  5
402
  8
0
 10
102.4762783172179
 20
55.221037184167862
 30
0.0
  0
VERTEX
  5
403
  8
0
 10
102.5153725770283
 20
55.117268056767621
 30
0.0
  0
VERTEX
  5
404
  8
0
 10
102.55093905298889
 20
55.014257245559968
 30
0.0
  0
VERTEX
  5
405
  8
0
 10
102.5674071818198
 20
54.962993781264338
 30
0.0
  0
VERTEX
  5
406
  8
0
 10
102.5830015652849
 20
54.911869044567652
 30
0.0
  0
VERTEX
  5
407
  8
0
 10
102.61157455316309
 20
54.80996805384504
 30
0.0
  0
VERTEX
  5
408
  8
0
 10
102.6366630086938
 20
54.708418561439572
 30
0.0
  0
VERTEX
  5
409
  8
0
 10
102.65826234389991
 20
54.607083911808843
 30
0.0
  0
VERTEX
  5
40A
  8
0
 10
102.6763581884162
 20
54.505825854227901
 30
0.0
  0
VERTEX
  5
40B
  8
0
 10
102.6909261138465
 20
54.404503864275853
 30
0.0
  0
VERTEX
  5
40C
  8
0
 10
102.6968766374044
 20
54.353774184454949
 30
0.0
  0
VERTEX
  5
40D
  8
0
 10
102.7019312799062
 20
54.302974430912663
 30
0.0
  0
VERTEX
  5
40E
  8
0
 10
102.7093279962217
 20
54.201090300930673
 30
0.0
  0
VERTEX
  5
40F
  8
0
 10
102.7130591922904
 20
54.098699671665322
 30
0.0
  0
VERTEX
  5
410
  8
0
 10
102.71352912091361
 20
54.047265525012932
 30
0.0
  0
SEQEND
  5
411
  8
0
  0
LINE
  5
B7
  8
0
 10
102.1329725373129
 20
55.923653899879213
 30
0.0
 11
95.713529120913677
 21
55.923653899879213
 31
0.0
  0
POLYLINE
  5
B8
  8
0
 66
     1
 10
0.0
 20
0.0
 30
0.0
  0
VERTEX
  5
412
  8
0
 10
102.71352912091361
 20
59.676430649611767
 30
0.0
  0
VERTEX
  5
413
  8
0
 10
102.7130591922904
 20
59.573562356306972
 30
0.0
  0
VERTEX
  5
414
  8
0
 10
102.7093279962217
 20
59.368781097776271
 30
0.0
  0
VERTEX
  5
415
  8
0
 10
102.7019312799062
 20
59.165012837812291
 30
0.0
  0
VERTEX
  5
416
  8
0
 10
102.6968766374044
 20
59.063413330727741
 30
0.0
  0
VERTEX
  5
417
  8
0
 10
102.6909261138465
 20
58.961953971085897
 30
0.0
  0
VERTEX
  5
418
  8
0
 10
102.6763581884162
 20
58.759309991181823
 30
0.0
  0
VERTEX
  5
419
  8
0
 10
102.65826234389991
 20
58.556793876019981
 30
0.0
  0
VERTEX
  5
41A
  8
0
 10
102.6366630086938
 20
58.354124576758487
 30
0.0
  0
VERTEX
  5
41B
  8
0
 10
102.61157455316309
 20
58.15102559194753
 30
0.0
  0
VERTEX
  5
41C
  8
0
 10
102.5830015652849
 20
57.947223610502299
 30
0.0
  0
VERTEX
  5
41D
  8
0
 10
102.5674071818198
 20
57.84497413710892
 30
0.0
  0
VERTEX
  5
41E
  8
0
 10
102.55093905298889
 20
57.742447208517682
 30
0.0
  0
VERTEX
  5
41F
  8
0
 10
102.5153725770283
 20
57.536425586102439
 30
0.0
  0
VERTEX
  5
420
  8
0
 10
102.4762783172179
 20
57.3288873313019
 30
0.0
  0
VERTEX
  5
421
  8
0
 10
102.4336230739703
 20
57.119559198833201
 30
0.0
  0
VERTEX
  5
422
  8
0
 10
102.3873642061982
 20
56.908164891795188
 30
0.0
  0
VERTEX
  5
423
  8
0
 10
102.3374495058289
 20
56.694423834752172
 30
0.0
  0
VERTEX
  5
424
  8
0
 10
102.31110224213801
 20
56.586584118941509
 30
0.0
  0
VERTEX
  5
425
  8
0
 10
102.28381700837279
 20
56.478049926634128
 30
0.0
  0
VERTEX
  5
426
  8
0
 10
102.22639473818251
 20
56.258750261751743
 30
0.0
  0
VERTEX
  5
427
  8
0
 10
102.16510038621919
 20
56.036223806890781
 30
0.0
  0
VERTEX
  5
428
  8
0
 10
102.1329725373129
 20
55.923653899879213
 30
0.0
  0
SEQEND
  5
429
  8
0
  0
POLYLINE
  5
B9
  8
0
 66
     1
 10
0.0
 20
0.0
 30
0.0
  0
VERTEX
  5
42A
  8
0
 10
102.1329725373129
 20
63.429207399344342
 30
0.0
  0
VERTEX
  5
42B
  8
0
 10
102.16510038621919
 20
63.316637492332767
 30
0.0
  0
VERTEX
  5
42C
  8
0
 10
102.22639473818251
 20
63.094111037471841
 30
0.0
  0
VERTEX
  5
42D
  8
0
 10
102.28381700837279
 20
62.87481137258942
 30
0.0
  0
VERTEX
  5
42E
  8
0
 10
102.31110224213801
 20
62.766277180282032
 30
0.0
  0
VERTEX
  5
42F
  8
0
 10
102.3374495058289
 20
62.658437464471348
 30
0.0
  0
VERTEX
  5
430
  8
0
 10
102.3873642061982
 20
62.444696407428353
 30
0.0
  0
VERTEX
  5
431
  8
0
 10
102.4336230739703
 20
62.233302100390368
 30
0.0
  0
VERTEX
  5
432
  8
0
 10
102.4762783172179
 20
62.023973967921677
 30
0.0
  0
VERTEX
  5
433
  8
0
 10
102.5153725770283
 20
61.816435713121109
 30
0.0
  0
VERTEX
  5
434
  8
0
 10
102.55093905298889
 20
61.610414090705881
 30
0.0
  0
VERTEX
  5
435
  8
0
 10
102.5674071818198
 20
61.507887162114621
 30
0.0
  0
VERTEX
  5
436
  8
0
 10
102.5830015652849
 20
61.405637688721242
 30
0.0
  0
VERTEX
  5
437
  8
0
 10
102.61157455316309
 20
61.201835707276011
 30
0.0
  0
VERTEX
  5
438
  8
0
 10
102.6366630086938
 20
60.998736722465061
 30
0.0
  0
VERTEX
  5
439
  8
0
 10
102.65826234389991
 20
60.796067423203567
 30
0.0
  0
VERTEX
  5
43A
  8
0
 10
102.6763581884162
 20
60.593551308041718
 30
0.0
  0
VERTEX
  5
43B
  8
0
 10
102.6909261138465
 20
60.390907328137651
 30
0.0
  0
VERTEX
  5
43C
  8
0
 10
102.6968766374044
 20
60.289447968495807
 30
0.0
  0
VERTEX
  5
43D
  8
0
 10
102.7019312799062
 20
60.187848461411249
 30
0.0
  0
VERTEX
  5
43E
  8
0
 10
102.7093279962217
 20
59.984080201447277
 30
0.0
  0
VERTEX
  5
43F
  8
0
 10
102.7130591922904
 20
59.779298942916569
 30
0.0
  0
VERTEX
  5
440
  8
0
 10
102.71352912091361
 20
59.676430649611767
 30
0.0
  0
SEQEND
  5
441
  8
0
  0
LINE
  5
BA
  8
0
 10
102.1329725373129
 20
63.429207399344342
 30
0.0
 11
95.713529120913677
 21
63.429207399344342
 31
0.0
  0
LINE
  5
BB
  8
0
 10
95.713529120913677
 20
52.170877150146623
 30
0.0
 11
95.713529120913677
 21
67.181984149076925
 31
0.0
  0
POLYLINE
  5
BC
  8
0
 66
     1
 10
0.0
 20
0.0
 30
0.0
  0
VERTEX
  5
442
  8
0
 10
102.71352912091361
 20
65.305595774210616
 30
0.0
  0
VERTEX
  5
443
  8
0
 10
102.7130591922904
 20
65.254161627558233
 30
0.0
  0
VERTEX
  5
444
  8
0
 10
102.7093279962217
 20
65.151770998292875
 30
0.0
  0
VERTEX
  5
445
  8
0
 10
102.7019312799062
 20
65.049886868310892
 30
0.0
  0
VERTEX
  5
446
  8
0
 10
102.6968766374044
 20
64.999087114768614
 30
0.0
  0
VERTEX
  5
447
  8
0
 10
102.6909261138465
 20
64.948357434947695
 30
0.0
  0
VERTEX
  5
448
  8
0
 10
102.6763581884162
 20
64.84703544499564
 30
0.0
  0
VERTEX
  5
449
  8
0
 10
102.65826234389991
 20
64.745777387414734
 30
0.0
  0
VERTEX
  5
44A
  8
0
 10
102.6366630086938
 20
64.644442737784004
 30
0.0
  0
VERTEX
  5
44B
  8
0
 10
102.61157455316309
 20
64.542893245378494
 30
0.0
  0
VERTEX
  5
44C
  8
0
 10
102.5830015652849
 20
64.440992254655896
 30
0.0
  0
VERTEX
  5
44D
  8
0
 10
102.5674071818198
 20
64.389867517959203
 30
0.0
  0
VERTEX
  5
44E
  8
0
 10
102.55093905298889
 20
64.338604053663573
 30
0.0
  0
VERTEX
  5
44F
  8
0
 10
102.5153725770283
 20
64.235593242455963
 30
0.0
  0
VERTEX
  5
450
  8
0
 10
102.4762783172179
 20
64.131824115055679
 30
0.0
  0
VERTEX
  5
451
  8
0
 10
102.4336230739703
 20
64.027160048821344
 30
0.0
  0
VERTEX
  5
452
  8
0
 10
102.3873642061982
 20
63.921462895302341
 30
0.0
  0
VERTEX
  5
453
  8
0
 10
102.3374495058289
 20
63.814592366780822
 30
0.0
  0
VERTEX
  5
454
  8
0
 10
102.31110224213801
 20
63.760672508875501
 30
0.0
  0
VERTEX
  5
455
  8
0
 10
102.28381700837279
 20
63.7064054127218
 30
0.0
  0
VERTEX
  5
456
  8
0
 10
102.22639473818251
 20
63.596755580280622
 30
0.0
  0
VERTEX
  5
457
  8
0
 10
102.16510038621919
 20
63.485492352850123
 30
0.0
  0
VERTEX
  5
458
  8
0
 10
102.1329725373129
 20
63.429207399344342
 30
0.0
  0
SEQEND
  5
459
  8
0
  0
POLYLINE
  5
BD
  8
0
 66
     1
 10
0.0
 20
0.0
 30
0.0
  0
VERTEX
  5
45A
  8
0
 10
102.1329725373129
 20
67.181984149076925
 30
0.0
  0
VERTEX
  5
45B
  8
0
 10
102.16510038621919
 20
67.125699195571116
 30
0.0
  0
VERTEX
  5
45C
  8
0
 10
102.22639473818251
 20
67.014435968140646
 30
0.0
  0
VERTEX
  5
45D
  8
0
 10
102.28381700837279
 20
66.904786135699453
 30
0.0
  0
VERTEX
  5
45E
  8
0
 10
102.31110224213801
 20
66.850519039545759
 30
0.0
  0
VERTEX
  5
45F
  8
0
 10
102.3374495058289
 20
66.796599181640431
 30
0.0
  0
VERTEX
  5
460
  8
0
 10
102.3873642061982
 20
66.68972865311892
 30
0.0
  0
VERTEX
  5
461
  8
0
 10
102.4336230739703
 20
66.584031499599917
 30
0.0
  0
VERTEX
  5
462
  8
0
 10
102.4762783172179
 20
66.479367433365582
 30
0.0
  0
VERTEX
  5
463
  8
0
 10
102.5153725770283
 20
66.375598305965283
 30
0.0
  0
VERTEX
  5
464
  8
0
 10
102.55093905298889
 20
66.272587494757687
 30
0.0
  0
VERTEX
  5
465
  8
0
 10
102.5674071818198
 20
66.221324030462057
 30
0.0
  0
VERTEX
  5
466
  8
0
 10
102.5830015652849
 20
66.170199293765364
 30
0.0
  0
VERTEX
  5
467
  8
0
 10
102.61157455316309
 20
66.068298303042752
 30
0.0
  0
VERTEX
  5
468
  8
0
 10
102.6366630086938
 20
65.966748810637256
 30
0.0
  0
VERTEX
  5
469
  8
0
 10
102.65826234389991
 20
65.865414161006527
 30
0.0
  0
VERTEX
  5
46A
  8
0
 10
102.6763581884162
 20
65.764156103425591
 30
0.0
  0
VERTEX
  5
46B
  8
0
 10
102.6909261138465
 20
65.662834113473565
 30
0.0
  0
VERTEX
  5
46C
  8
0
 10
102.6968766374044
 20
65.612104433652632
 30
0.0
  0
VERTEX
  5
46D
  8
0
 10
102.7019312799062
 20
65.561304680110368
 30
0.0
  0
VERTEX
  5
46E
  8
0
 10
102.7093279962217
 20
65.459420550128385
 30
0.0
  0
VERTEX
  5
46F
  8
0
 10
102.7130591922904
 20
65.357029920863027
 30
0.0
  0
VERTEX
  5
470
  8
0
 10
102.71352912091361
 20
65.305595774210616
 30
0.0
  0
SEQEND
  5
471
  8
0
  0
LINE
  5
BE
  8
0
 10
102.71352912091361
 20
53.176430649611781
 30
0.0
 11
102.71352912091361
 21
66.176430649611774
 31
0.0
  0
LINE
  5
BF
  8
0
 10
78.713529120913677
 20
55.28993064961179
 30
0.0
 11
78.713529120913677
 21
64.062930649611786
 31
0.0
  0
LINE
  5
C0
  8
0
 10
78.713529120913677
 20
62.176430649611767
 30
0.0
 11
78.713529120913677
 21
57.176430649611767
 31
0.0
  0
LINE
  5
C1
  8
0
 10
79.327029120913664
 20
54.676430649611767
 30
0.0
 11
79.327029120913664
 21
64.676430649611774
 31
0.0
  0
LINE
  5
C2
  8
0
 10
75.01352912091366
 20
57.176430649611802
 30
0.0
 11
75.01352912091366
 21
62.176430649611802
 31
0.0
  0
LINE
  5
C3
  8
0
 10
103.91352912091359
 20
53.676430649611767
 30
0.0
 11
103.91352912091359
 21
65.676430649611774
 31
0.0
  0
LINE
  5
C4
  8
0
 10
111.8211206754825
 20
53.676430649611767
 30
0.0
 11
111.8211206754825
 21
65.676430649611774
 31
0.0
  0
LINE
  5
C5
  8
0
 10
113.4042151511257
 20
53.111323897620082
 30
0.0
 11
113.4042151511257
 21
66.241537401603466
 31
0.0
  0
LINE
  5
C6
  8
0
 10
117.5228430907016
 20
49.741537401603459
 30
0.0
 11
117.5228430907016
 21
69.611323897620082
 31
0.0
  0
LINE
  5
C7
  8
0
 10
119.10593756634471
 20
49.176430649611767
 30
0.0
 11
119.10593756634471
 21
70.176430649611774
 31
0.0
  0
LINE
  5
C8
  8
0
 10
122.5135291209136
 20
49.176430649611767
 30
0.0
 11
122.5135291209136
 21
70.176430649611774
 31
0.0
  0
LINE
  5
C9
  8
0
 10
123.71352912091351
 20
50.376430649612132
 30
0.0
 11
123.71352912091351
 21
68.976430649611416
 31
0.0
  0
LINE
  5
CA
  8
0
 10
102.71352912091361
 20
66.176430649611774
 30
0.0
 11
102.1329725373129
 21
67.181984149076925
 31
0.0
  0
LINE
  5
CB
  8
0
 10
102.1329725373129
 20
52.170877150146623
 30
0.0
 11
102.71352912091361
 21
53.176430649611781
 31
0.0
  0
LINE
  5
CC
  8
0
 10
79.327029120913664
 20
64.676430649611774
 30
0.0
 11
78.713529120913677
 21
64.062930649611786
 31
0.0
  0
LINE
  5
CD
  8
0
 10
78.713529120913677
 20
55.28993064961179
 30
0.0
 11
79.327029120913664
 21
54.676430649611767
 31
0.0
  0
LINE
  5
CE
  8
0
 10
95.713529120913677
 20
64.676430649611774
 30
0.0
 11
89.713529120913677
 21
64.676430649611774
 31
0.0
  0
LINE
  5
CF
  8
0
 10
79.327029120913664
 20
54.676430649611767
 30
0.0
 11
84.713529120913677
 21
54.676430649611781
 31
0.0
  0
LINE
  5
D0
  8
0
 10
78.713529120913677
 20
62.176430649611767
 30
0.0
 11
75.01352912091366
 21
62.176430649611802
 31
0.0
  0
LINE
  5
D1
  8
0
 10
75.01352912091366
 20
57.176430649611802
 30
0.0
 11
78.713529120913677
 21
57.176430649611767
 31
0.0
  0
ARC
  5
D2
  8
0
 10
103.91352912091359
 20
54.876430649611791
 30
0.0
 40
1.2000000000000051
 50
180.0
 51
270.0
  0
ARC
  5
D3
  8
0
 10
103.91352912091359
 20
64.476430649611757
 30
0.0
 40
1.2000000000000051
 50
89.999999999999986
 51
179.99999715408831
  0
LINE
  5
D4
  8
0
 10
111.8211206754825
 20
65.676430649611774
 30
0.0
 11
103.91352912091359
 21
65.676430649611774
 31
0.0
  0
LINE
  5
D5
  8
0
 10
103.91352912091359
 20
53.676430649611767
 30
0.0
 11
111.8211206754825
 21
53.676430649611767
 31
0.0
  0
ARC
  5
D6
  8
0
 10
111.8211206754825
 20
51.176430649611767
 30
0.0
 40
2.5000000000000022
 50
50.71059313749997
 51
89.999999999999986
  0
ARC
  5
D7
  8
0
 10
111.8211206754825
 20
68.176430649611774
 30
0.0
 40
2.5000000000000031
 50
270.0
 51
309.28940686250002
  0
LINE
  5
D8
  8
0
 10
117.5228430907016
 20
69.611323897620082
 30
0.0
 11
113.4042151511257
 21
66.241537401603466
 31
0.0
  0
LINE
  5
D9
  8
0
 10
113.4042151511257
 20
53.111323897620082
 30
0.0
 11
117.5228430907016
 21
49.741537401603459
 31
0.0
  0
ARC
  5
DA
  8
0
 10
119.10593756634471
 20
51.676430649611753
 30
0.0
 40
2.4999999999999818
 50
230.71059313750001
 51
270.0
  0
ARC
  5
DB
  8
0
 10
119.10593756634471
 20
67.676430649611774
 30
0.0
 40
2.5000000000000089
 50
89.999999146226344
 51
129.2894068624999
  0
LINE
  5
DC
  8
0
 10
122.5135291209136
 20
70.176430649611774
 30
0.0
 11
119.10593756634471
 21
70.176430649611774
 31
0.0
  0
LINE
  5
DD
  8
0
 10
119.10593756634471
 20
49.176430649611767
 30
0.0
 11
122.5135291209136
 21
49.176430649611767
 31
0.0
  0
ARC
  5
DE
  8
0
 10
122.5135291209137
 20
50.376430649611621
 30
0.0
 40
1.199999999999841
 50
270.0
 51
0.0
  0
ARC
  5
DF
  8
0
 10
122.5135291209137
 20
68.976430649611927
 30
0.0
 40
1.1999999999998421
 50
0.0
 51
89.999999999999986
  0
LINE
  5
E0
  8
0
 10
123.71352912091361
 20
54.651619205038003
 30
0.0
 11
123.71352912091361
 21
64.701242094185545
 31
0.0
  0
LINE
  5
E1
  8
1
 10
34.825685676011972
 20
72.719009130009113
 30
0.0
 11
34.825685676011972
 21
46.633852169214428
 31
0.0
  0
LINE
  5
E2
  8
1
 10
21.78310719561463
 20
59.676430649611767
 30
0.0
 11
47.86826415640931
 21
59.676430649611767
 31
0.0
  0
CIRCLE
  5
E3
  8
0
 10
34.825685676011972
 20
59.676430649611767
 30
0.0
 40
10.5
  0
CIRCLE
  5
E4
  8
0
 10
34.825685676011972
 20
59.676430649611767
 30
0.0
 40
5.0
  0
CIRCLE
  5
E5
  8
3
 10
34.825685676011972
 20
59.676430649611767
 30
0.0
 40
4.3865000000000123
  0
CIRCLE
  5
E6
  8
0
 10
34.825685676011972
 20
59.676430649611767
 30
0.0
 40
2.500000000000028
  0
CIRCLE
  5
E7
  8
0
 10
34.825685676011972
 20
59.676430649611767
 30
0.0
 40
1.7494446500535039
  0
LINE
  5
E8
  8
2
 10
41.325685676011958
 20
63.429207399344342
 30
0.0
 11
41.325685676011958
 21
55.923653899879213
 31
0.0
  0
LINE
  5
EB
  8
2
 10
41.325685676011958
 20
55.923653899879213
 30
0.0
 11
34.825685676011972
 21
52.170877150146623
 31
0.0
  0
LINE
  5
EC
  8
2
 10
28.325685676011972
 20
63.429207399344342
 30
0.0
 11
28.325685676011972
 21
55.923653899879213
 31
0.0
  0
LINE
  5
ED
  8
2
 10
28.325685676011972
 20
55.923653899879213
 30
0.0
 11
34.825685676011972
 21
52.170877150146623
 31
0.0
  0
LINE
  5
EE
  8
2
 10
34.825685676011972
 20
67.181984149076925
 30
0.0
 11
28.325685676011972
 21
63.429207399344342
 31
0.0
  0
LINE
  5
EF
  8
2
 10
34.825685676011972
 20
67.181984149076925
 30
0.0
 11
41.325685676011958
 21
63.429207399344342
 31
0.0
  0
LINE
  5
F0
  8
0
 10
93.713529120913648
 20
128.57961378344959
 30
0.0
 11
93.713529120913648
 21
118.5796137834496
 31
0.0
  0
CIRCLE
  5
F1
  8
0
 10
169.61202334102239
 20
59.676430649611767
 30
0.0
 40
10.5
  0
LINE
  5
F2
  8
1
 10
156.56944486062511
 20
59.676430649611767
 30
0.0
 11
182.65460182141979
 21
59.676430649611767
 31
0.0
  0
LINE
  5
F3
  8
1
 10
169.61202334102239
 20
72.719009130009113
 30
0.0
 11
169.61202334102239
 21
46.633852169214428
 31
0.0
  0
LINE
  5
F4
  8
3
 10
93.713529120913648
 20
127.9661137834496
 30
0.0
 11
94.776142291357203
 21
128.57961378344959
 31
0.0
  0
LINE
  5
F5
  8
3
 10
93.713529120913648
 20
119.1931137834496
 30
0.0
 11
94.776142291357203
 21
118.5796137834496
 31
0.0
  0
LINE
  5
F6
  8
3
 10
93.71352912091362
 20
64.062930649611786
 30
0.0
 11
94.776142291357147
 21
64.676430649611802
 31
0.0
  0
LINE
  5
F7
  8
3
 10
93.71352912091362
 20
55.289930649611819
 30
0.0
 11
94.776142291357147
 21
54.676430649611802
 31
0.0
  0
LINE
  5
F8
  8
0
 10
85.472718499468513
 20
49.86147607338814
 30
0.0
 11
84.713529120913677
 21
51.176430649611781
 31
0.0
  0
LINE
  5
F9
  8
0
 10
84.713529120913677
 20
68.176430649611788
 30
0.0
 11
85.472718499468513
 21
69.49138522583543
 31
0.0
  0
LINE
  5
FA
  8
0
 10
89.713529120913677
 20
51.176430649611781
 30
0.0
 11
88.954339742358826
 21
49.86147607338814
 31
0.0
  0
LINE
  5
FB
  8
0
 10
88.954339742358826
 20
69.49138522583543
 30
0.0
 11
89.713529120913677
 21
68.176430649611788
 31
0.0
  0
LINE
  5
FC
  8
0
 10
84.713529120913677
 20
51.176430649611781
 30
0.0
 11
84.713529120913677
 21
68.176430649611788
 31
0.0
  0
LINE
  5
FD
  8
0
 10
89.713529120913677
 20
51.176430649611781
 30
0.0
 11
89.713529120913677
 21
68.176430649611788
 31
0.0
  0
POLYLINE
  5
FE
  8
0
 66
     1
 10
0.0
 20
0.0
 30
0.0
  0
VERTEX
  5
472
  8
0
 10
85.472718499468513
 20
69.49138522583543
 30
0.0
  0
VERTEX
  5
473
  8
0
 10
85.43040434196331
 20
69.417248620037796
 30
0.0
  0
VERTEX
  5
474
  8
0
 10
85.349753315344543
 20
69.270798971487736
 30
0.0
  0
VERTEX
  5
475
  8
0
 10
85.274292756586078
 20
69.126604240615976
 30
0.0
  0
VERTEX
  5
476
  8
0
 10
85.238470195150924
 20
69.055288013672381
 30
0.0
  0
VERTEX
  5
477
  8
0
 10
85.203900616250635
 20
68.984459006420039
 30
0.0
  0
VERTEX
  5
478
  8
0
 10
85.138469185641668
 20
68.844164259149508
 30
0.0
  0
VERTEX
  5
479
  8
0
 10
85.077904551762387
 20
68.705526468884315
 30
0.0
  0
VERTEX
  5
47A
  8
0
 10
85.022126148392914
 20
68.568356694546296
 30
0.0
  0
VERTEX
  5
47B
  8
0
 10
84.971066398779215
 20
68.432469724715105
 30
0.0
  0
VERTEX
  5
47C
  8
0
 10
84.924670446605134
 20
68.297683242031866
 30
0.0
  0
VERTEX
  5
47D
  8
0
 10
84.90320768343625
 20
68.230646298561638
 30
0.0
  0
VERTEX
  5
47E
  8
0
 10
84.882895973039183
 20
68.163817003250713
 30
0.0
  0
VERTEX
  5
47F
  8
0
 10
84.845713098742067
 20
68.030692027146259
 30
0.0
  0
VERTEX
  5
480
  8
0
 10
84.813104370803146
 20
67.898129782503972
 30
0.0
  0
VERTEX
  5
481
  8
0
 10
84.785064835675044
 20
67.765951368311363
 30
0.0
  0
VERTEX
  5
482
  8
0
 10
84.761602200310676
 20
67.633976678024482
 30
0.0
  0
VERTEX
  5
483
  8
0
 10
84.742737084907475
 20
67.502023539398806
 30
0.0
  0
VERTEX
  5
484
  8
0
 10
84.73503865579724
 20
67.435997339211411
 30
0.0
  0
VERTEX
  5
485
  8
0
 10
84.728503371951547
 20
67.36990682083588
 30
0.0
  0
VERTEX
  5
486
  8
0
 10
84.718948657663304
 20
67.237437494486471
 30
0.0
  0
VERTEX
  5
487
  8
0
 10
84.714134813508736
 20
67.104421645451581
 30
0.0
  0
VERTEX
  5
488
  8
0
 10
84.713529120913677
 20
67.037646581779512
 30
0.0
  0
SEQEND
  5
489
  8
0
  0
POLYLINE
  5
FF
  8
0
 66
     1
 10
0.0
 20
0.0
 30
0.0
  0
VERTEX
  5
48A
  8
0
 10
84.713529120913677
 20
67.037646581779512
 30
0.0
  0
VERTEX
  5
48B
  8
0
 10
84.714134813508736
 20
66.970871518107444
 30
0.0
  0
VERTEX
  5
48C
  8
0
 10
84.718948657663304
 20
66.837855669072567
 30
0.0
  0
VERTEX
  5
48D
  8
0
 10
84.728503371951547
 20
66.705386342723159
 30
0.0
  0
VERTEX
  5
48E
  8
0
 10
84.73503865579724
 20
66.639295824347627
 30
0.0
  0
VERTEX
  5
48F
  8
0
 10
84.742737084907475
 20
66.573269624160233
 30
0.0
  0
VERTEX
  5
490
  8
0
 10
84.761602200310676
 20
66.441316485534557
 30
0.0
  0
VERTEX
  5
491
  8
0
 10
84.785064835675044
 20
66.309341795247661
 30
0.0
  0
VERTEX
  5
492
  8
0
 10
84.813104370803146
 20
66.177163381055067
 30
0.0
  0
VERTEX
  5
493
  8
0
 10
84.845713098742067
 20
66.044601136412794
 30
0.0
  0
VERTEX
  5
494
  8
0
 10
84.882895973039183
 20
65.911476160308325
 30
0.0
  0
VERTEX
  5
495
  8
0
 10
84.90320768343625
 20
65.844646864997401
 30
0.0
  0
VERTEX
  5
496
  8
0
 10
84.924670446605134
 20
65.777609921527173
 30
0.0
  0
VERTEX
  5
497
  8
0
 10
84.971066398779215
 20
65.642823438843919
 30
0.0
  0
VERTEX
  5
498
  8
0
 10
85.022126148392914
 20
65.506936469012743
 30
0.0
  0
VERTEX
  5
499
  8
0
 10
85.077904551762387
 20
65.369766694674723
 30
0.0
  0
VERTEX
  5
49A
  8
0
 10
85.138469185641668
 20
65.23112890440953
 30
0.0
  0
VERTEX
  5
49B
  8
0
 10
85.203900616250635
 20
65.090834157139
 30
0.0
  0
VERTEX
  5
49C
  8
0
 10
85.238470195150924
 20
65.020005149886643
 30
0.0
  0
VERTEX
  5
49D
  8
0
 10
85.274292756586078
 20
64.948688922943063
 30
0.0
  0
VERTEX
  5
49E
  8
0
 10
85.349753315344543
 20
64.804494192071303
 30
0.0
  0
VERTEX
  5
49F
  8
0
 10
85.43040434196331
 20
64.658044543521228
 30
0.0
  0
VERTEX
  5
4A0
  8
0
 10
85.472718499468513
 20
64.583907937723609
 30
0.0
  0
SEQEND
  5
4A1
  8
0
  0
POLYLINE
  5
100
  8
0
 66
     1
 10
0.0
 20
0.0
 30
0.0
  0
VERTEX
  5
4A2
  8
0
 10
88.954339742358826
 20
64.583907937723609
 30
0.0
  0
VERTEX
  5
4A3
  8
0
 10
88.996653899864043
 20
64.658044543521228
 30
0.0
  0
VERTEX
  5
4A4
  8
0
 10
89.077304926482824
 20
64.804494192071303
 30
0.0
  0
VERTEX
  5
4A5
  8
0
 10
89.152765485241275
 20
64.948688922943063
 30
0.0
  0
VERTEX
  5
4A6
  8
0
 10
89.188588046676415
 20
65.020005149886643
 30
0.0
  0
VERTEX
  5
4A7
  8
0
 10
89.223157625576704
 20
65.090834157138985
 30
0.0
  0
VERTEX
  5
4A8
  8
0
 10
89.288589056185685
 20
65.23112890440953
 30
0.0
  0
VERTEX
  5
4A9
  8
0
 10
89.349153690064938
 20
65.369766694674723
 30
0.0
  0
VERTEX
  5
4AA
  8
0
 10
89.404932093434425
 20
65.506936469012743
 30
0.0
  0
VERTEX
  5
4AB
  8
0
 10
89.455991843048139
 20
65.642823438843919
 30
0.0
  0
VERTEX
  5
4AC
  8
0
 10
89.502387795222234
 20
65.777609921527173
 30
0.0
  0
VERTEX
  5
4AD
  8
0
 10
89.523850558391146
 20
65.844646864997401
 30
0.0
  0
VERTEX
  5
4AE
  8
0
 10
89.544162268788185
 20
65.911476160308325
 30
0.0
  0
VERTEX
  5
4AF
  8
0
 10
89.581345143085287
 20
66.044601136412794
 30
0.0
  0
VERTEX
  5
4B0
  8
0
 10
89.613953871024194
 20
66.177163381055081
 30
0.0
  0
VERTEX
  5
4B1
  8
0
 10
89.641993406152324
 20
66.309341795247661
 30
0.0
  0
VERTEX
  5
4B2
  8
0
 10
89.665456041516677
 20
66.441316485534557
 30
0.0
  0
VERTEX
  5
4B3
  8
0
 10
89.684321156919907
 20
66.573269624160233
 30
0.0
  0
VERTEX
  5
4B4
  8
0
 10
89.692019586030113
 20
66.639295824347641
 30
0.0
  0
VERTEX
  5
4B5
  8
0
 10
89.698554869875807
 20
66.705386342723159
 30
0.0
  0
VERTEX
  5
4B6
  8
0
 10
89.708109584164049
 20
66.837855669072582
 30
0.0
  0
VERTEX
  5
4B7
  8
0
 10
89.712923428318618
 20
66.970871518107444
 30
0.0
  0
VERTEX
  5
4B8
  8
0
 10
89.713529120913677
 20
67.037646581779512
 30
0.0
  0
SEQEND
  5
4B9
  8
0
  0
POLYLINE
  5
101
  8
0
 66
     1
 10
0.0
 20
0.0
 30
0.0
  0
VERTEX
  5
4BA
  8
0
 10
89.713529120913677
 20
67.037646581779512
 30
0.0
  0
VERTEX
  5
4BB
  8
0
 10
89.712923428318618
 20
67.104421645451581
 30
0.0
  0
VERTEX
  5
4BC
  8
0
 10
89.708109584164049
 20
67.237437494486457
 30
0.0
  0
VERTEX
  5
4BD
  8
0
 10
89.698554869875807
 20
67.36990682083588
 30
0.0
  0
VERTEX
  5
4BE
  8
0
 10
89.692019586030113
 20
67.435997339211397
 30
0.0
  0
VERTEX
  5
4BF
  8
0
 10
89.684321156919907
 20
67.502023539398806
 30
0.0
  0
VERTEX
  5
4C0
  8
0
 10
89.665456041516677
 20
67.633976678024482
 30
0.0
  0
VERTEX
  5
4C1
  8
0
 10
89.641993406152324
 20
67.765951368311363
 30
0.0
  0
VERTEX
  5
4C2
  8
0
 10
89.613953871024194
 20
67.898129782503972
 30
0.0
  0
VERTEX
  5
4C3
  8
0
 10
89.581345143085287
 20
68.030692027146245
 30
0.0
  0
VERTEX
  5
4C4
  8
0
 10
89.544162268788185
 20
68.163817003250713
 30
0.0
  0
VERTEX
  5
4C5
  8
0
 10
89.523850558391146
 20
68.230646298561638
 30
0.0
  0
VERTEX
  5
4C6
  8
0
 10
89.502387795222234
 20
68.297683242031866
 30
0.0
  0
VERTEX
  5
4C7
  8
0
 10
89.455991843048139
 20
68.432469724715105
 30
0.0
  0
VERTEX
  5
4C8
  8
0
 10
89.404932093434425
 20
68.568356694546296
 30
0.0
  0
VERTEX
  5
4C9
  8
0
 10
89.349153690064938
 20
68.705526468884315
 30
0.0
  0
VERTEX
  5
4CA
  8
0
 10
89.288589056185685
 20
68.844164259149508
 30
0.0
  0
VERTEX
  5
4CB
  8
0
 10
89.223157625576704
 20
68.984459006420039
 30
0.0
  0
VERTEX
  5
4CC
  8
0
 10
89.188588046676415
 20
69.055288013672381
 30
0.0
  0
VERTEX
  5
4CD
  8
0
 10
89.152765485241275
 20
69.126604240615976
 30
0.0
  0
VERTEX
  5
4CE
  8
0
 10
89.077304926482824
 20
69.270798971487736
 30
0.0
  0
VERTEX
  5
4CF
  8
0
 10
88.996653899864043
 20
69.417248620037796
 30
0.0
  0
VERTEX
  5
4D0
  8
0
 10
88.954339742358826
 20
69.49138522583543
 30
0.0
  0
SEQEND
  5
4D1
  8
0
  0
LINE
  5
102
  8
0
 10
85.472718499468513
 20
64.583907937723609
 30
0.0
 11
88.954339742358826
 21
64.583907937723609
 31
0.0
  0
POLYLINE
  5
103
  8
0
 66
     1
 10
0.0
 20
0.0
 30
0.0
  0
VERTEX
  5
4D2
  8
0
 10
85.472718499468513
 20
64.583907937723609
 30
0.0
  0
VERTEX
  5
4D3
  8
0
 10
85.43040434196331
 20
64.43563472612837
 30
0.0
  0
VERTEX
  5
4D4
  8
0
 10
85.349753315344543
 20
64.142735429028221
 30
0.0
  0
VERTEX
  5
4D5
  8
0
 10
85.274292756586107
 20
63.854345967284722
 30
0.0
  0
VERTEX
  5
4D6
  8
0
 10
85.238470195150924
 20
63.711713513397513
 30
0.0
  0
VERTEX
  5
4D7
  8
0
 10
85.203900616250635
 20
63.570055498892842
 30
0.0
  0
VERTEX
  5
4D8
  8
0
 10
85.138469185641668
 20
63.289466004351773
 30
0.0
  0
VERTEX
  5
4D9
  8
0
 10
85.077904551762387
 20
63.01219042382138
 30
0.0
  0
VERTEX
  5
4DA
  8
0
 10
85.022126148392914
 20
62.737850875145341
 30
0.0
  0
VERTEX
  5
4DB
  8
0
 10
84.971066398779215
 20
62.466076935482981
 30
0.0
  0
VERTEX
  5
4DC
  8
0
 10
84.924670446605134
 20
62.196503970116488
 30
0.0
  0
VERTEX
  5
4DD
  8
0
 10
84.903207683436221
 20
62.062430083176032
 30
0.0
  0
VERTEX
  5
4DE
  8
0
 10
84.882895973039183
 20
61.928771492554169
 30
0.0
  0
VERTEX
  5
4DF
  8
0
 10
84.845713098742067
 20
61.662521540345253
 30
0.0
  0
VERTEX
  5
4E0
  8
0
 10
84.813104370803146
 20
61.3973970510607
 30
0.0
  0
VERTEX
  5
4E1
  8
0
 10
84.785064835675044
 20
61.133040222675518
 30
0.0
  0
VERTEX
  5
4E2
  8
0
 10
84.761602200310676
 20
60.869090842101713
 30
0.0
  0
VERTEX
  5
4E3
  8
0
 10
84.742737084907475
 20
60.605184564850362
 30
0.0
  0
VERTEX
  5
4E4
  8
0
 10
84.73503865579724
 20
60.473132164475551
 30
0.0
  0
VERTEX
  5
4E5
  8
0
 10
84.728503371951547
 20
60.340951127724523
 30
0.0
  0
VERTEX
  5
4E6
  8
0
 10
84.718948657663304
 20
60.076012475025671
 30
0.0
  0
VERTEX
  5
4E7
  8
0
 10
84.714134813508736
 20
59.809980776955918
 30
0.0
  0
VERTEX
  5
4E8
  8
0
 10
84.713529120913677
 20
59.676430649611788
 30
0.0
  0
SEQEND
  5
4E9
  8
0
  0
POLYLINE
  5
104
  8
0
 66
     1
 10
0.0
 20
0.0
 30
0.0
  0
VERTEX
  5
4EA
  8
0
 10
84.713529120913677
 20
59.676430649611788
 30
0.0
  0
VERTEX
  5
4EB
  8
0
 10
84.714134813508736
 20
59.542880522267659
 30
0.0
  0
VERTEX
  5
4EC
  8
0
 10
84.718948657663304
 20
59.276848824197891
 30
0.0
  0
VERTEX
  5
4ED
  8
0
 10
84.728503371951547
 20
59.011910171499068
 30
0.0
  0
VERTEX
  5
4EE
  8
0
 10
84.73503865579724
 20
58.879729134748018
 30
0.0
  0
VERTEX
  5
4EF
  8
0
 10
84.742737084907475
 20
58.747676734373222
 30
0.0
  0
VERTEX
  5
4F0
  8
0
 10
84.761602200310676
 20
58.483770457121871
 30
0.0
  0
VERTEX
  5
4F1
  8
0
 10
84.785064835675044
 20
58.219821076548058
 30
0.0
  0
VERTEX
  5
4F2
  8
0
 10
84.813104370803146
 20
57.955464248162897
 30
0.0
  0
VERTEX
  5
4F3
  8
0
 10
84.845713098742067
 20
57.690339758878331
 30
0.0
  0
VERTEX
  5
4F4
  8
0
 10
84.882895973039183
 20
57.4240898066694
 30
0.0
  0
VERTEX
  5
4F5
  8
0
 10
84.90320768343625
 20
57.290431216047551
 30
0.0
  0
VERTEX
  5
4F6
  8
0
 10
84.924670446605134
 20
57.156357329107081
 30
0.0
  0
VERTEX
  5
4F7
  8
0
 10
84.971066398779215
 20
56.886784363740588
 30
0.0
  0
VERTEX
  5
4F8
  8
0
 10
85.022126148392914
 20
56.615010424078243
 30
0.0
  0
VERTEX
  5
4F9
  8
0
 10
85.077904551762387
 20
56.340670875402203
 30
0.0
  0
VERTEX
  5
4FA
  8
0
 10
85.138469185641668
 20
56.06339529487181
 30
0.0
  0
VERTEX
  5
4FB
  8
0
 10
85.203900616250635
 20
55.782805800330728
 30
0.0
  0
VERTEX
  5
4FC
  8
0
 10
85.238470195150924
 20
55.641147785826057
 30
0.0
  0
VERTEX
  5
4FD
  8
0
 10
85.274292756586078
 20
55.498515331938862
 30
0.0
  0
VERTEX
  5
4FE
  8
0
 10
85.349753315344543
 20
55.210125870195348
 30
0.0
  0
VERTEX
  5
4FF
  8
0
 10
85.43040434196331
 20
54.917226573095199
 30
0.0
  0
VERTEX
  5
500
  8
0
 10
85.472718499468513
 20
54.768953361499968
 30
0.0
  0
SEQEND
  5
501
  8
0
  0
POLYLINE
  5
105
  8
0
 66
     1
 10
0.0
 20
0.0
 30
0.0
  0
VERTEX
  5
502
  8
0
 10
88.954339742358826
 20
54.768953361499968
 30
0.0
  0
VERTEX
  5
503
  8
0
 10
88.996653899864043
 20
54.917226573095199
 30
0.0
  0
VERTEX
  5
504
  8
0
 10
89.077304926482824
 20
55.210125870195348
 30
0.0
  0
VERTEX
  5
505
  8
0
 10
89.152765485241275
 20
55.498515331938862
 30
0.0
  0
VERTEX
  5
506
  8
0
 10
89.188588046676415
 20
55.641147785826057
 30
0.0
  0
VERTEX
  5
507
  8
0
 10
89.223157625576704
 20
55.782805800330728
 30
0.0
  0
VERTEX
  5
508
  8
0
 10
89.288589056185714
 20
56.06339529487181
 30
0.0
  0
VERTEX
  5
509
  8
0
 10
89.349153690064938
 20
56.340670875402203
 30
0.0
  0
VERTEX
  5
50A
  8
0
 10
89.404932093434425
 20
56.615010424078243
 30
0.0
  0
VERTEX
  5
50B
  8
0
 10
89.455991843048139
 20
56.886784363740588
 30
0.0
  0
VERTEX
  5
50C
  8
0
 10
89.502387795222234
 20
57.156357329107088
 30
0.0
  0
VERTEX
  5
50D
  8
0
 10
89.523850558391146
 20
57.290431216047573
 30
0.0
  0
VERTEX
  5
50E
  8
0
 10
89.544162268788185
 20
57.4240898066694
 30
0.0
  0
VERTEX
  5
50F
  8
0
 10
89.581345143085287
 20
57.690339758878331
 30
0.0
  0
VERTEX
  5
510
  8
0
 10
89.613953871024194
 20
57.955464248162897
 30
0.0
  0
VERTEX
  5
511
  8
0
 10
89.641993406152324
 20
58.219821076548058
 30
0.0
  0
VERTEX
  5
512
  8
0
 10
89.665456041516677
 20
58.483770457121871
 30
0.0
  0
VERTEX
  5
513
  8
0
 10
89.684321156919907
 20
58.747676734373222
 30
0.0
  0
VERTEX
  5
514
  8
0
 10
89.692019586030113
 20
58.879729134748018
 30
0.0
  0
VERTEX
  5
515
  8
0
 10
89.698554869875807
 20
59.011910171499068
 30
0.0
  0
VERTEX
  5
516
  8
0
 10
89.708109584164049
 20
59.276848824197891
 30
0.0
  0
VERTEX
  5
517
  8
0
 10
89.712923428318618
 20
59.542880522267659
 30
0.0
  0
VERTEX
  5
518
  8
0
 10
89.713529120913677
 20
59.676430649611788
 30
0.0
  0
SEQEND
  5
519
  8
0
  0
POLYLINE
  5
106
  8
0
 66
     1
 10
0.0
 20
0.0
 30
0.0
  0
VERTEX
  5
51A
  8
0
 10
89.713529120913677
 20
59.676430649611788
 30
0.0
  0
VERTEX
  5
51B
  8
0
 10
89.712923428318618
 20
59.809980776955918
 30
0.0
  0
VERTEX
  5
51C
  8
0
 10
89.708109584164049
 20
60.076012475025671
 30
0.0
  0
VERTEX
  5
51D
  8
0
 10
89.698554869875807
 20
60.340951127724509
 30
0.0
  0
VERTEX
  5
51E
  8
0
 10
89.692019586030113
 20
60.473132164475551
 30
0.0
  0
VERTEX
  5
51F
  8
0
 10
89.684321156919907
 20
60.605184564850362
 30
0.0
  0
VERTEX
  5
520
  8
0
 10
89.665456041516677
 20
60.869090842101713
 30
0.0
  0
VERTEX
  5
521
  8
0
 10
89.641993406152324
 20
61.133040222675518
 30
0.0
  0
VERTEX
  5
522
  8
0
 10
89.613953871024194
 20
61.397397051060679
 30
0.0
  0
VERTEX
  5
523
  8
0
 10
89.581345143085287
 20
61.662521540345253
 30
0.0
  0
VERTEX
  5
524
  8
0
 10
89.544162268788185
 20
61.928771492554169
 30
0.0
  0
VERTEX
  5
525
  8
0
 10
89.523850558391146
 20
62.062430083176011
 30
0.0
  0
VERTEX
  5
526
  8
0
 10
89.502387795222234
 20
62.196503970116488
 30
0.0
  0
VERTEX
  5
527
  8
0
 10
89.455991843048139
 20
62.466076935482981
 30
0.0
  0
VERTEX
  5
528
  8
0
 10
89.404932093434425
 20
62.737850875145341
 30
0.0
  0
VERTEX
  5
529
  8
0
 10
89.349153690064938
 20
63.01219042382138
 30
0.0
  0
VERTEX
  5
52A
  8
0
 10
89.288589056185685
 20
63.289466004351773
 30
0.0
  0
VERTEX
  5
52B
  8
0
 10
89.223157625576704
 20
63.570055498892842
 30
0.0
  0
VERTEX
  5
52C
  8
0
 10
89.188588046676415
 20
63.711713513397513
 30
0.0
  0
VERTEX
  5
52D
  8
0
 10
89.152765485241275
 20
63.854345967284722
 30
0.0
  0
VERTEX
  5
52E
  8
0
 10
89.077304926482824
 20
64.142735429028221
 30
0.0
  0
VERTEX
  5
52F
  8
0
 10
88.996653899864043
 20
64.43563472612837
 30
0.0
  0
VERTEX
  5
530
  8
0
 10
88.954339742358826
 20
64.583907937723609
 30
0.0
  0
SEQEND
  5
531
  8
0
  0
LINE
  5
107
  8
0
 10
85.472718499468513
 20
54.768953361499968
 30
0.0
 11
88.954339742358826
 21
54.768953361499968
 31
0.0
  0
POLYLINE
  5
108
  8
0
 66
     1
 10
0.0
 20
0.0
 30
0.0
  0
VERTEX
  5
532
  8
0
 10
85.472718499468513
 20
54.768953361499968
 30
0.0
  0
VERTEX
  5
533
  8
0
 10
85.43040434196331
 20
54.694816755702348
 30
0.0
  0
VERTEX
  5
534
  8
0
 10
85.349753315344543
 20
54.548367107152274
 30
0.0
  0
VERTEX
  5
535
  8
0
 10
85.274292756586107
 20
54.404172376280528
 30
0.0
  0
VERTEX
  5
536
  8
0
 10
85.238470195150924
 20
54.332856149336919
 30
0.0
  0
VERTEX
  5
537
  8
0
 10
85.203900616250635
 20
54.262027142084591
 30
0.0
  0
VERTEX
  5
538
  8
0
 10
85.138469185641668
 20
54.121732394814039
 30
0.0
  0
VERTEX
  5
539
  8
0
 10
85.077904551762387
 20
53.98309460454886
 30
0.0
  0
VERTEX
  5
53A
  8
0
 10
85.022126148392914
 20
53.845924830210841
 30
0.0
  0
VERTEX
  5
53B
  8
0
 10
84.971066398779215
 20
53.710037860379657
 30
0.0
  0
VERTEX
  5
53C
  8
0
 10
84.924670446605134
 20
53.575251377696411
 30
0.0
  0
VERTEX
  5
53D
  8
0
 10
84.90320768343625
 20
53.508214434226169
 30
0.0
  0
VERTEX
  5
53E
  8
0
 10
84.882895973039183
 20
53.441385138915251
 30
0.0
  0
VERTEX
  5
53F
  8
0
 10
84.845713098742067
 20
53.308260162810789
 30
0.0
  0
VERTEX
  5
540
  8
0
 10
84.813104370803146
 20
53.175697918168503
 30
0.0
  0
VERTEX
  5
541
  8
0
 10
84.785064835675044
 20
53.043519503975929
 30
0.0
  0
VERTEX
  5
542
  8
0
 10
84.761602200310676
 20
52.911544813689019
 30
0.0
  0
VERTEX
  5
543
  8
0
 10
84.742737084907475
 20
52.779591675063351
 30
0.0
  0
VERTEX
  5
544
  8
0
 10
84.73503865579724
 20
52.713565474875949
 30
0.0
  0
VERTEX
  5
545
  8
0
 10
84.728503371951547
 20
52.647474956500432
 30
0.0
  0
VERTEX
  5
546
  8
0
 10
84.718948657663304
 20
52.515005630151009
 30
0.0
  0
VERTEX
  5
547
  8
0
 10
84.714134813508736
 20
52.381989781116133
 30
0.0
  0
VERTEX
  5
548
  8
0
 10
84.713529120913677
 20
52.315214717444057
 30
0.0
  0
SEQEND
  5
549
  8
0
  0
POLYLINE
  5
109
  8
0
 66
     1
 10
0.0
 20
0.0
 30
0.0
  0
VERTEX
  5
54A
  8
0
 10
84.713529120913677
 20
52.315214717444057
 30
0.0
  0
VERTEX
  5
54B
  8
0
 10
84.714134813508736
 20
52.248439653772003
 30
0.0
  0
VERTEX
  5
54C
  8
0
 10
84.718948657663304
 20
52.115423804737098
 30
0.0
  0
VERTEX
  5
54D
  8
0
 10
84.728503371951547
 20
51.982954478387697
 30
0.0
  0
VERTEX
  5
54E
  8
0
 10
84.73503865579724
 20
51.916863960012158
 30
0.0
  0
VERTEX
  5
54F
  8
0
 10
84.742737084907475
 20
51.850837759824771
 30
0.0
  0
VERTEX
  5
550
  8
0
 10
84.761602200310676
 20
51.718884621199088
 30
0.0
  0
VERTEX
  5
551
  8
0
 10
84.785064835675044
 20
51.586909930912192
 30
0.0
  0
VERTEX
  5
552
  8
0
 10
84.813104370803146
 20
51.454731516719612
 30
0.0
  0
VERTEX
  5
553
  8
0
 10
84.845713098742067
 20
51.322169272077318
 30
0.0
  0
VERTEX
  5
554
  8
0
 10
84.882895973039183
 20
51.189044295972863
 30
0.0
  0
VERTEX
  5
555
  8
0
 10
84.90320768343625
 20
51.122215000661939
 30
0.0
  0
VERTEX
  5
556
  8
0
 10
84.924670446605134
 20
51.055178057191711
 30
0.0
  0
VERTEX
  5
557
  8
0
 10
84.971066398779215
 20
50.92039157450845
 30
0.0
  0
VERTEX
  5
558
  8
0
 10
85.022126148392914
 20
50.784504604677281
 30
0.0
  0
VERTEX
  5
559
  8
0
 10
85.077904551762387
 20
50.647334830339261
 30
0.0
  0
VERTEX
  5
55A
  8
0
 10
85.138469185641668
 20
50.508697040074068
 30
0.0
  0
VERTEX
  5
55B
  8
0
 10
85.203900616250635
 20
50.368402292803538
 30
0.0
  0
VERTEX
  5
55C
  8
0
 10
85.238470195150967
 20
50.297573285551202
 30
0.0
  0
VERTEX
  5
55D
  8
0
 10
85.274292756586078
 20
50.226257058607601
 30
0.0
  0
VERTEX
  5
55E
  8
0
 10
85.349753315344543
 20
50.082062327735841
 30
0.0
  0
VERTEX
  5
55F
  8
0
 10
85.43040434196331
 20
49.935612679185759
 30
0.0
  0
VERTEX
  5
560
  8
0
 10
85.472718499468513
 20
49.86147607338814
 30
0.0
  0
SEQEND
  5
561
  8
0
  0
POLYLINE
  5
10A
  8
0
 66
     1
 10
0.0
 20
0.0
 30
0.0
  0
VERTEX
  5
562
  8
0
 10
88.954339742358826
 20
49.86147607338814
 30
0.0
  0
VERTEX
  5
563
  8
0
 10
88.996653899864043
 20
49.93561267918578
 30
0.0
  0
VERTEX
  5
564
  8
0
 10
89.077304926482824
 20
50.082062327735841
 30
0.0
  0
VERTEX
  5
565
  8
0
 10
89.152765485241275
 20
50.226257058607601
 30
0.0
  0
VERTEX
  5
566
  8
0
 10
89.188588046676415
 20
50.297573285551202
 30
0.0
  0
VERTEX
  5
567
  8
0
 10
89.223157625576704
 20
50.368402292803538
 30
0.0
  0
VERTEX
  5
568
  8
0
 10
89.288589056185685
 20
50.508697040074068
 30
0.0
  0
VERTEX
  5
569
  8
0
 10
89.349153690064938
 20
50.647334830339261
 30
0.0
  0
VERTEX
  5
56A
  8
0
 10
89.404932093434425
 20
50.784504604677281
 30
0.0
  0
VERTEX
  5
56B
  8
0
 10
89.455991843048139
 20
50.92039157450845
 30
0.0
  0
VERTEX
  5
56C
  8
0
 10
89.502387795222234
 20
51.055178057191711
 30
0.0
  0
VERTEX
  5
56D
  8
0
 10
89.523850558391146
 20
51.122215000661939
 30
0.0
  0
VERTEX
  5
56E
  8
0
 10
89.544162268788185
 20
51.189044295972863
 30
0.0
  0
VERTEX
  5
56F
  8
0
 10
89.581345143085287
 20
51.322169272077332
 30
0.0
  0
VERTEX
  5
570
  8
0
 10
89.613953871024194
 20
51.454731516719619
 30
0.0
  0
VERTEX
  5
571
  8
0
 10
89.641993406152324
 20
51.586909930912192
 30
0.0
  0
VERTEX
  5
572
  8
0
 10
89.665456041516677
 20
51.718884621199088
 30
0.0
  0
VERTEX
  5
573
  8
0
 10
89.684321156919907
 20
51.850837759824771
 30
0.0
  0
VERTEX
  5
574
  8
0
 10
89.692019586030113
 20
51.916863960012179
 30
0.0
  0
VERTEX
  5
575
  8
0
 10
89.698554869875807
 20
51.982954478387697
 30
0.0
  0
VERTEX
  5
576
  8
0
 10
89.708109584164049
 20
52.115423804737119
 30
0.0
  0
VERTEX
  5
577
  8
0
 10
89.712923428318618
 20
52.248439653772003
 30
0.0
  0
VERTEX
  5
578
  8
0
 10
89.713529120913677
 20
52.315214717444057
 30
0.0
  0
SEQEND
  5
579
  8
0
  0
POLYLINE
  5
10B
  8
0
 66
     1
 10
0.0
 20
0.0
 30
0.0
  0
VERTEX
  5
57A
  8
0
 10
89.713529120913677
 20
52.315214717444057
 30
0.0
  0
VERTEX
  5
57B
  8
0
 10
89.712923428318618
 20
52.381989781116111
 30
0.0
  0
VERTEX
  5
57C
  8
0
 10
89.708109584164049
 20
52.515005630151009
 30
0.0
  0
VERTEX
  5
57D
  8
0
 10
89.698554869875807
 20
52.64747495650041
 30
0.0
  0
VERTEX
  5
57E
  8
0
 10
89.692019586030113
 20
52.713565474875928
 30
0.0
  0
VERTEX
  5
57F
  8
0
 10
89.684321156919907
 20
52.779591675063351
 30
0.0
  0
VERTEX
  5
580
  8
0
 10
89.665456041516677
 20
52.911544813689019
 30
0.0
  0
VERTEX
  5
581
  8
0
 10
89.641993406152324
 20
53.043519503975922
 30
0.0
  0
VERTEX
  5
582
  8
0
 10
89.613953871024194
 20
53.175697918168503
 30
0.0
  0
VERTEX
  5
583
  8
0
 10
89.581345143085287
 20
53.308260162810782
 30
0.0
  0
VERTEX
  5
584
  8
0
 10
89.544162268788185
 20
53.441385138915251
 30
0.0
  0
VERTEX
  5
585
  8
0
 10
89.523850558391146
 20
53.508214434226169
 30
0.0
  0
VERTEX
  5
586
  8
0
 10
89.502387795222234
 20
53.575251377696397
 30
0.0
  0
VERTEX
  5
587
  8
0
 10
89.455991843048139
 20
53.710037860379657
 30
0.0
  0
VERTEX
  5
588
  8
0
 10
89.404932093434468
 20
53.845924830210841
 30
0.0
  0
VERTEX
  5
589
  8
0
 10
89.349153690064938
 20
53.98309460454886
 30
0.0
  0
VERTEX
  5
58A
  8
0
 10
89.288589056185714
 20
54.121732394814039
 30
0.0
  0
VERTEX
  5
58B
  8
0
 10
89.223157625576704
 20
54.26202714208457
 30
0.0
  0
VERTEX
  5
58C
  8
0
 10
89.188588046676415
 20
54.332856149336919
 30
0.0
  0
VERTEX
  5
58D
  8
0
 10
89.152765485241275
 20
54.404172376280513
 30
0.0
  0
VERTEX
  5
58E
  8
0
 10
89.077304926482824
 20
54.548367107152274
 30
0.0
  0
VERTEX
  5
58F
  8
0
 10
88.996653899864043
 20
54.694816755702348
 30
0.0
  0
VERTEX
  5
590
  8
0
 10
88.954339742358826
 20
54.768953361499968
 30
0.0
  0
SEQEND
  5
591
  8
0
  0
LINE
  5
10C
  8
0
 10
85.472718499468513
 20
49.86147607338814
 30
0.0
 11
88.954339742358826
 21
49.86147607338814
 31
0.0
  0
LINE
  5
10D
  8
0
 10
85.472718499468513
 20
69.49138522583543
 30
0.0
 11
88.954339742358826
 21
69.49138522583543
 31
0.0
  0
LINE
  5
10E
  8
0
 10
84.713529120913677
 20
64.67643064961176
 30
0.0
 11
79.327029120913664
 21
64.676430649611774
 31
0.0
  0
LINE
  5
10F
  8
3
 10
89.713529120913677
 20
64.062930649611786
 30
0.0
 11
93.713529120913677
 21
64.062930649611786
 31
0.0
  0
LINE
  5
110
  8
3
 10
89.713529120913691
 20
55.289930649611783
 30
0.0
 11
93.713529120913677
 21
55.28993064961179
 31
0.0
  0
LINE
  5
111
  8
0
 10
89.713529120913677
 20
54.67643064961176
 30
0.0
 11
95.713529120913677
 21
54.676430649611767
 31
0.0
  0
LINE
  5
112
  8
0
 10
89.713529120913677
 20
115.0796137834496
 30
0.0
 11
89.713529120913677
 21
132.07961378344959
 31
0.0
  0
LINE
  5
113
  8
0
 10
84.713529120913677
 20
115.0796137834496
 30
0.0
 11
84.713529120913677
 21
132.07961378344959
 31
0.0
  0
POLYLINE
  5
114
  8
0
 66
     1
 10
0.0
 20
0.0
 30
0.0
  0
VERTEX
  5
592
  8
0
 10
88.954339742358812
 20
115.0796137834496
 30
0.0
  0
VERTEX
  5
593
  8
0
 10
88.996653899864015
 20
115.2080221513918
 30
0.0
  0
VERTEX
  5
594
  8
0
 10
89.077304926482796
 20
115.4616803834311
 30
0.0
  0
VERTEX
  5
595
  8
0
 10
89.152765485241261
 20
115.7114329834847
 30
0.0
  0
VERTEX
  5
596
  8
0
 10
89.188588046676372
 20
115.8349563119552
 30
0.0
  0
VERTEX
  5
597
  8
0
 10
89.22315762557669
 20
115.9576357511659
 30
0.0
  0
VERTEX
  5
598
  8
0
 10
89.288589056185657
 20
116.20063338147349
 30
0.0
  0
VERTEX
  5
599
  8
0
 10
89.349153690064938
 20
116.4407610780619
 30
0.0
  0
VERTEX
  5
59A
  8
0
 10
89.404932093434425
 20
116.67834609647809
 30
0.0
  0
VERTEX
  5
59B
  8
0
 10
89.455991843048125
 20
116.9137092323123
 30
0.0
  0
VERTEX
  5
59C
  8
0
 10
89.502387795222205
 20
117.14716626849309
 30
0.0
  0
VERTEX
  5
59D
  8
0
 10
89.523850558391118
 20
117.2632776605677
 30
0.0
  0
VERTEX
  5
59E
  8
0
 10
89.544162268788156
 20
117.3790293954803
 30
0.0
  0
VERTEX
  5
59F
  8
0
 10
89.581345143085272
 20
117.6096086178496
 30
0.0
  0
VERTEX
  5
5A0
  8
0
 10
89.613953871024194
 20
117.8392131607354
 30
0.0
  0
VERTEX
  5
5A1
  8
0
 10
89.641993406152295
 20
118.06815288978081
 30
0.0
  0
VERTEX
  5
5A2
  8
0
 10
89.665456041516677
 20
118.2967397586709
 30
0.0
  0
VERTEX
  5
5A3
  8
0
 10
89.684321156919864
 20
118.5252892989888
 30
0.0
  0
VERTEX
  5
5A4
  8
0
 10
89.692019586030099
 20
118.63965003234409
 30
0.0
  0
VERTEX
  5
5A5
  8
0
 10
89.698554869875792
 20
118.754122168069
 30
0.0
  0
VERTEX
  5
5A6
  8
0
 10
89.708109584164035
 20
118.98356577175061
 30
0.0
  0
VERTEX
  5
5A7
  8
0
 10
89.712923428318604
 20
119.21395598049099
 30
0.0
  0
VERTEX
  5
5A8
  8
0
 10
89.713529120913677
 20
119.3296137834496
 30
0.0
  0
SEQEND
  5
5A9
  8
0
  0
LINE
  5
115
  8
0
 10
84.713529120913677
 20
115.0796137834496
 30
0.0
 11
89.713529120913677
 21
115.0796137834496
 31
0.0
  0
POLYLINE
  5
116
  8
0
 66
     1
 10
0.0
 20
0.0
 30
0.0
  0
VERTEX
  5
5AA
  8
0
 10
84.713529120913677
 20
119.3296137834496
 30
0.0
  0
VERTEX
  5
5AB
  8
0
 10
84.714134813508721
 20
119.21395598049099
 30
0.0
  0
VERTEX
  5
5AC
  8
0
 10
84.718948657663276
 20
118.98356577175061
 30
0.0
  0
VERTEX
  5
5AD
  8
0
 10
84.728503371951504
 20
118.754122168069
 30
0.0
  0
VERTEX
  5
5AE
  8
0
 10
84.735038655797226
 20
118.63965003234409
 30
0.0
  0
VERTEX
  5
5AF
  8
0
 10
84.742737084907432
 20
118.5252892989888
 30
0.0
  0
VERTEX
  5
5B0
  8
0
 10
84.761602200310634
 20
118.2967397586709
 30
0.0
  0
VERTEX
  5
5B1
  8
0
 10
84.785064835675016
 20
118.06815288978081
 30
0.0
  0
VERTEX
  5
5B2
  8
0
 10
84.813104370803146
 20
117.8392131607354
 30
0.0
  0
VERTEX
  5
5B3
  8
0
 10
84.845713098742053
 20
117.6096086178496
 30
0.0
  0
VERTEX
  5
5B4
  8
0
 10
84.882895973039155
 20
117.3790293954803
 30
0.0
  0
VERTEX
  5
5B5
  8
0
 10
84.903207683436193
 20
117.2632776605677
 30
0.0
  0
VERTEX
  5
5B6
  8
0
 10
84.924670446605106
 20
117.14716626849309
 30
0.0
  0
VERTEX
  5
5B7
  8
0
 10
84.9710663987792
 20
116.9137092323123
 30
0.0
  0
VERTEX
  5
5B8
  8
0
 10
85.022126148392871
 20
116.67834609647809
 30
0.0
  0
VERTEX
  5
5B9
  8
0
 10
85.077904551762387
 20
116.4407610780619
 30
0.0
  0
VERTEX
  5
5BA
  8
0
 10
85.138469185641625
 20
116.20063338147349
 30
0.0
  0
VERTEX
  5
5BB
  8
0
 10
85.203900616250635
 20
115.9576357511659
 30
0.0
  0
VERTEX
  5
5BC
  8
0
 10
85.238470195150924
 20
115.8349563119552
 30
0.0
  0
VERTEX
  5
5BD
  8
0
 10
85.274292756586064
 20
115.7114329834847
 30
0.0
  0
VERTEX
  5
5BE
  8
0
 10
85.349753315344515
 20
115.4616803834311
 30
0.0
  0
VERTEX
  5
5BF
  8
0
 10
85.430404341963254
 20
115.2080221513918
 30
0.0
  0
VERTEX
  5
5C0
  8
0
 10
85.472718499468485
 20
115.0796137834496
 30
0.0
  0
SEQEND
  5
5C1
  8
0
  0
POLYLINE
  5
117
  8
0
 66
     1
 10
0.0
 20
0.0
 30
0.0
  0
VERTEX
  5
5C2
  8
0
 10
85.472718499468485
 20
123.5796137834496
 30
0.0
  0
VERTEX
  5
5C3
  8
0
 10
85.430404341963254
 20
123.4512054155074
 30
0.0
  0
VERTEX
  5
5C4
  8
0
 10
85.349753315344515
 20
123.1975471834681
 30
0.0
  0
VERTEX
  5
5C5
  8
0
 10
85.274292756586064
 20
122.94779458341451
 30
0.0
  0
VERTEX
  5
5C6
  8
0
 10
85.238470195150924
 20
122.82427125494409
 30
0.0
  0
VERTEX
  5
5C7
  8
0
 10
85.203900616250635
 20
122.70159181573339
 30
0.0
  0
VERTEX
  5
5C8
  8
0
 10
85.138469185641625
 20
122.4585941854258
 30
0.0
  0
VERTEX
  5
5C9
  8
0
 10
85.077904551762359
 20
122.21846648883739
 30
0.0
  0
VERTEX
  5
5CA
  8
0
 10
85.022126148392871
 20
121.9808814704212
 30
0.0
  0
VERTEX
  5
5CB
  8
0
 10
84.9710663987792
 20
121.745518334587
 30
0.0
  0
VERTEX
  5
5CC
  8
0
 10
84.924670446605106
 20
121.5120612984061
 30
0.0
  0
VERTEX
  5
5CD
  8
0
 10
84.903207683436193
 20
121.39594990633159
 30
0.0
  0
VERTEX
  5
5CE
  8
0
 10
84.882895973039155
 20
121.280198171419
 30
0.0
  0
VERTEX
  5
5CF
  8
0
 10
84.845713098742053
 20
121.0496189490497
 30
0.0
  0
VERTEX
  5
5D0
  8
0
 10
84.813104370803146
 20
120.82001440616381
 30
0.0
  0
VERTEX
  5
5D1
  8
0
 10
84.785064835675016
 20
120.5910746771184
 30
0.0
  0
VERTEX
  5
5D2
  8
0
 10
84.761602200310676
 20
120.36248780822829
 30
0.0
  0
VERTEX
  5
5D3
  8
0
 10
84.742737084907432
 20
120.13393826791049
 30
0.0
  0
VERTEX
  5
5D4
  8
0
 10
84.735038655797226
 20
120.0195775345552
 30
0.0
  0
VERTEX
  5
5D5
  8
0
 10
84.728503371951504
 20
119.9051053988302
 30
0.0
  0
VERTEX
  5
5D6
  8
0
 10
84.718948657663276
 20
119.6756617951486
 30
0.0
  0
VERTEX
  5
5D7
  8
0
 10
84.714134813508721
 20
119.4452715864083
 30
0.0
  0
VERTEX
  5
5D8
  8
0
 10
84.713529120913677
 20
119.3296137834496
 30
0.0
  0
SEQEND
  5
5D9
  8
0
  0
LINE
  5
118
  8
0
 10
85.472718499468485
 20
123.5796137834496
 30
0.0
 11
88.954339742358812
 21
123.5796137834496
 31
0.0
  0
POLYLINE
  5
119
  8
0
 66
     1
 10
0.0
 20
0.0
 30
0.0
  0
VERTEX
  5
5DA
  8
0
 10
89.713529120913677
 20
119.3296137834496
 30
0.0
  0
VERTEX
  5
5DB
  8
0
 10
89.712923428318604
 20
119.4452715864083
 30
0.0
  0
VERTEX
  5
5DC
  8
0
 10
89.708109584164035
 20
119.6756617951486
 30
0.0
  0
VERTEX
  5
5DD
  8
0
 10
89.698554869875792
 20
119.9051053988302
 30
0.0
  0
VERTEX
  5
5DE
  8
0
 10
89.692019586030099
 20
120.0195775345552
 30
0.0
  0
VERTEX
  5
5DF
  8
0
 10
89.684321156919864
 20
120.13393826791049
 30
0.0
  0
VERTEX
  5
5E0
  8
0
 10
89.665456041516677
 20
120.36248780822829
 30
0.0
  0
VERTEX
  5
5E1
  8
0
 10
89.641993406152295
 20
120.5910746771184
 30
0.0
  0
VERTEX
  5
5E2
  8
0
 10
89.613953871024194
 20
120.82001440616381
 30
0.0
  0
VERTEX
  5
5E3
  8
0
 10
89.581345143085272
 20
121.0496189490497
 30
0.0
  0
VERTEX
  5
5E4
  8
0
 10
89.544162268788156
 20
121.280198171419
 30
0.0
  0
VERTEX
  5
5E5
  8
0
 10
89.523850558391118
 20
121.39594990633159
 30
0.0
  0
VERTEX
  5
5E6
  8
0
 10
89.502387795222205
 20
121.5120612984061
 30
0.0
  0
VERTEX
  5
5E7
  8
0
 10
89.455991843048125
 20
121.745518334587
 30
0.0
  0
VERTEX
  5
5E8
  8
0
 10
89.404932093434425
 20
121.9808814704212
 30
0.0
  0
VERTEX
  5
5E9
  8
0
 10
89.349153690064938
 20
122.21846648883739
 30
0.0
  0
VERTEX
  5
5EA
  8
0
 10
89.288589056185657
 20
122.4585941854258
 30
0.0
  0
VERTEX
  5
5EB
  8
0
 10
89.22315762557669
 20
122.70159181573339
 30
0.0
  0
VERTEX
  5
5EC
  8
0
 10
89.188588046676372
 20
122.82427125494409
 30
0.0
  0
VERTEX
  5
5ED
  8
0
 10
89.152765485241247
 20
122.94779458341451
 30
0.0
  0
VERTEX
  5
5EE
  8
0
 10
89.077304926482796
 20
123.1975471834681
 30
0.0
  0
VERTEX
  5
5EF
  8
0
 10
88.996653899864015
 20
123.4512054155074
 30
0.0
  0
VERTEX
  5
5F0
  8
0
 10
88.954339742358812
 20
123.5796137834496
 30
0.0
  0
SEQEND
  5
5F1
  8
0
  0
LINE
  5
11A
  8
0
 10
84.713529120913677
 20
132.07961378344959
 30
0.0
 11
89.713529120913677
 21
132.07961378344959
 31
0.0
  0
POLYLINE
  5
11B
  8
0
 66
     1
 10
0.0
 20
0.0
 30
0.0
  0
VERTEX
  5
5F2
  8
0
 10
89.713529120913677
 20
127.8296137834496
 30
0.0
  0
VERTEX
  5
5F3
  8
0
 10
89.712923428318604
 20
127.71395598049099
 30
0.0
  0
VERTEX
  5
5F4
  8
0
 10
89.708109584164035
 20
127.48356577175061
 30
0.0
  0
VERTEX
  5
5F5
  8
0
 10
89.698554869875792
 20
127.254122168069
 30
0.0
  0
VERTEX
  5
5F6
  8
0
 10
89.692019586030099
 20
127.13965003234409
 30
0.0
  0
VERTEX
  5
5F7
  8
0
 10
89.684321156919864
 20
127.0252892989887
 30
0.0
  0
VERTEX
  5
5F8
  8
0
 10
89.665456041516677
 20
126.7967397586709
 30
0.0
  0
VERTEX
  5
5F9
  8
0
 10
89.641993406152295
 20
126.56815288978081
 30
0.0
  0
VERTEX
  5
5FA
  8
0
 10
89.613953871024194
 20
126.3392131607354
 30
0.0
  0
VERTEX
  5
5FB
  8
0
 10
89.581345143085272
 20
126.1096086178496
 30
0.0
  0
VERTEX
  5
5FC
  8
0
 10
89.544162268788156
 20
125.8790293954803
 30
0.0
  0
VERTEX
  5
5FD
  8
0
 10
89.523850558391118
 20
125.7632776605677
 30
0.0
  0
VERTEX
  5
5FE
  8
0
 10
89.502387795222205
 20
125.64716626849319
 30
0.0
  0
VERTEX
  5
5FF
  8
0
 10
89.455991843048125
 20
125.4137092323122
 30
0.0
  0
VERTEX
  5
600
  8
0
 10
89.404932093434425
 20
125.17834609647809
 30
0.0
  0
VERTEX
  5
601
  8
0
 10
89.349153690064938
 20
124.9407610780619
 30
0.0
  0
VERTEX
  5
602
  8
0
 10
89.288589056185657
 20
124.70063338147349
 30
0.0
  0
VERTEX
  5
603
  8
0
 10
89.22315762557669
 20
124.4576357511659
 30
0.0
  0
VERTEX
  5
604
  8
0
 10
89.188588046676372
 20
124.3349563119552
 30
0.0
  0
VERTEX
  5
605
  8
0
 10
89.152765485241247
 20
124.2114329834848
 30
0.0
  0
VERTEX
  5
606
  8
0
 10
89.077304926482796
 20
123.9616803834311
 30
0.0
  0
VERTEX
  5
607
  8
0
 10
88.996653899864015
 20
123.7080221513918
 30
0.0
  0
VERTEX
  5
608
  8
0
 10
88.954339742358812
 20
123.5796137834496
 30
0.0
  0
SEQEND
  5
609
  8
0
  0
POLYLINE
  5
11C
  8
0
 66
     1
 10
0.0
 20
0.0
 30
0.0
  0
VERTEX
  5
60A
  8
0
 10
88.954339742358812
 20
132.07961378344959
 30
0.0
  0
VERTEX
  5
60B
  8
0
 10
88.996653899864015
 20
131.95120541550739
 30
0.0
  0
VERTEX
  5
60C
  8
0
 10
89.077304926482796
 20
131.69754718346809
 30
0.0
  0
VERTEX
  5
60D
  8
0
 10
89.152765485241261
 20
131.44779458341449
 30
0.0
  0
VERTEX
  5
60E
  8
0
 10
89.188588046676372
 20
131.32427125494411
 30
0.0
  0
VERTEX
  5
60F
  8
0
 10
89.22315762557669
 20
131.20159181573339
 30
0.0
  0
VERTEX
  5
610
  8
0
 10
89.288589056185657
 20
130.9585941854258
 30
0.0
  0
VERTEX
  5
611
  8
0
 10
89.349153690064938
 20
130.71846648883741
 30
0.0
  0
VERTEX
  5
612
  8
0
 10
89.404932093434425
 20
130.4808814704212
 30
0.0
  0
VERTEX
  5
613
  8
0
 10
89.455991843048125
 20
130.24551833458699
 30
0.0
  0
VERTEX
  5
614
  8
0
 10
89.502387795222205
 20
130.01206129840611
 30
0.0
  0
VERTEX
  5
615
  8
0
 10
89.523850558391118
 20
129.89594990633151
 30
0.0
  0
VERTEX
  5
616
  8
0
 10
89.544162268788156
 20
129.78019817141899
 30
0.0
  0
VERTEX
  5
617
  8
0
 10
89.581345143085272
 20
129.5496189490496
 30
0.0
  0
VERTEX
  5
618
  8
0
 10
89.613953871024194
 20
129.32001440616381
 30
0.0
  0
VERTEX
  5
619
  8
0
 10
89.641993406152295
 20
129.0910746771184
 30
0.0
  0
VERTEX
  5
61A
  8
0
 10
89.665456041516677
 20
128.86248780822831
 30
0.0
  0
VERTEX
  5
61B
  8
0
 10
89.684321156919864
 20
128.63393826791051
 30
0.0
  0
VERTEX
  5
61C
  8
0
 10
89.692019586030099
 20
128.5195775345552
 30
0.0
  0
VERTEX
  5
61D
  8
0
 10
89.698554869875792
 20
128.40510539883019
 30
0.0
  0
VERTEX
  5
61E
  8
0
 10
89.708109584164035
 20
128.17566179514861
 30
0.0
  0
VERTEX
  5
61F
  8
0
 10
89.712923428318604
 20
127.9452715864083
 30
0.0
  0
VERTEX
  5
620
  8
0
 10
89.713529120913677
 20
127.8296137834496
 30
0.0
  0
SEQEND
  5
621
  8
0
  0
POLYLINE
  5
11D
  8
0
 66
     1
 10
0.0
 20
0.0
 30
0.0
  0
VERTEX
  5
622
  8
0
 10
84.713529120913677
 20
127.8296137834496
 30
0.0
  0
VERTEX
  5
623
  8
0
 10
84.714134813508721
 20
127.9452715864083
 30
0.0
  0
VERTEX
  5
624
  8
0
 10
84.718948657663276
 20
128.17566179514861
 30
0.0
  0
VERTEX
  5
625
  8
0
 10
84.728503371951504
 20
128.40510539883019
 30
0.0
  0
VERTEX
  5
626
  8
0
 10
84.735038655797226
 20
128.5195775345552
 30
0.0
  0
VERTEX
  5
627
  8
0
 10
84.742737084907432
 20
128.63393826791051
 30
0.0
  0
VERTEX
  5
628
  8
0
 10
84.761602200310634
 20
128.86248780822831
 30
0.0
  0
VERTEX
  5
629
  8
0
 10
84.785064835675016
 20
129.0910746771184
 30
0.0
  0
VERTEX
  5
62A
  8
0
 10
84.813104370803146
 20
129.32001440616381
 30
0.0
  0
VERTEX
  5
62B
  8
0
 10
84.845713098742053
 20
129.54961894904969
 30
0.0
  0
VERTEX
  5
62C
  8
0
 10
84.882895973039155
 20
129.78019817141899
 30
0.0
  0
VERTEX
  5
62D
  8
0
 10
84.903207683436193
 20
129.89594990633151
 30
0.0
  0
VERTEX
  5
62E
  8
0
 10
84.924670446605106
 20
130.01206129840611
 30
0.0
  0
VERTEX
  5
62F
  8
0
 10
84.9710663987792
 20
130.24551833458699
 30
0.0
  0
VERTEX
  5
630
  8
0
 10
85.022126148392871
 20
130.4808814704212
 30
0.0
  0
VERTEX
  5
631
  8
0
 10
85.077904551762387
 20
130.71846648883741
 30
0.0
  0
VERTEX
  5
632
  8
0
 10
85.138469185641625
 20
130.9585941854258
 30
0.0
  0
VERTEX
  5
633
  8
0
 10
85.203900616250635
 20
131.20159181573339
 30
0.0
  0
VERTEX
  5
634
  8
0
 10
85.238470195150924
 20
131.32427125494411
 30
0.0
  0
VERTEX
  5
635
  8
0
 10
85.274292756586064
 20
131.44779458341449
 30
0.0
  0
VERTEX
  5
636
  8
0
 10
85.349753315344515
 20
131.69754718346809
 30
0.0
  0
VERTEX
  5
637
  8
0
 10
85.430404341963254
 20
131.95120541550739
 30
0.0
  0
VERTEX
  5
638
  8
0
 10
85.472718499468485
 20
132.07961378344959
 30
0.0
  0
SEQEND
  5
639
  8
0
  0
POLYLINE
  5
11E
  8
0
 66
     1
 10
0.0
 20
0.0
 30
0.0
  0
VERTEX
  5
63A
  8
0
 10
85.472718499468485
 20
123.5796137834496
 30
0.0
  0
VERTEX
  5
63B
  8
0
 10
85.430404341963254
 20
123.7080221513918
 30
0.0
  0
VERTEX
  5
63C
  8
0
 10
85.349753315344515
 20
123.9616803834311
 30
0.0
  0
VERTEX
  5
63D
  8
0
 10
85.274292756586064
 20
124.2114329834848
 30
0.0
  0
VERTEX
  5
63E
  8
0
 10
85.238470195150924
 20
124.3349563119552
 30
0.0
  0
VERTEX
  5
63F
  8
0
 10
85.203900616250635
 20
124.4576357511659
 30
0.0
  0
VERTEX
  5
640
  8
0
 10
85.138469185641625
 20
124.70063338147349
 30
0.0
  0
VERTEX
  5
641
  8
0
 10
85.077904551762359
 20
124.9407610780619
 30
0.0
  0
VERTEX
  5
642
  8
0
 10
85.022126148392871
 20
125.17834609647809
 30
0.0
  0
VERTEX
  5
643
  8
0
 10
84.9710663987792
 20
125.4137092323122
 30
0.0
  0
VERTEX
  5
644
  8
0
 10
84.924670446605106
 20
125.64716626849309
 30
0.0
  0
VERTEX
  5
645
  8
0
 10
84.903207683436193
 20
125.7632776605677
 30
0.0
  0
VERTEX
  5
646
  8
0
 10
84.882895973039155
 20
125.8790293954803
 30
0.0
  0
VERTEX
  5
647
  8
0
 10
84.845713098742053
 20
126.1096086178495
 30
0.0
  0
VERTEX
  5
648
  8
0
 10
84.813104370803146
 20
126.3392131607354
 30
0.0
  0
VERTEX
  5
649
  8
0
 10
84.785064835675016
 20
126.56815288978081
 30
0.0
  0
VERTEX
  5
64A
  8
0
 10
84.761602200310676
 20
126.7967397586709
 30
0.0
  0
VERTEX
  5
64B
  8
0
 10
84.742737084907432
 20
127.0252892989887
 30
0.0
  0
VERTEX
  5
64C
  8
0
 10
84.735038655797226
 20
127.13965003234399
 30
0.0
  0
VERTEX
  5
64D
  8
0
 10
84.728503371951504
 20
127.254122168069
 30
0.0
  0
VERTEX
  5
64E
  8
0
 10
84.718948657663276
 20
127.48356577175061
 30
0.0
  0
VERTEX
  5
64F
  8
0
 10
84.714134813508721
 20
127.71395598049099
 30
0.0
  0
VERTEX
  5
650
  8
0
 10
84.713529120913677
 20
127.8296137834496
 30
0.0
  0
SEQEND
  5
651
  8
0
  0
LINE
  5
11F
  8
0
 10
84.739080119965877
 20
128.57961378344959
 30
0.0
 11
79.32702912091365
 21
128.57961378344959
 31
0.0
  0
LINE
  5
120
  8
3
 10
89.712487945018594
 20
127.9661137834496
 30
0.0
 11
93.713529120913648
 21
127.9661137834496
 31
0.0
  0
LINE
  5
121
  8
3
 10
89.712487945018594
 20
119.1931137834496
 30
0.0
 11
93.713529120913648
 21
119.1931137834496
 31
0.0
  0
LINE
  5
122
  8
0
 10
89.687978121861434
 20
118.5796137834496
 30
0.0
 11
95.713529120913662
 21
118.5796137834496
 31
0.0
  0
LINE
  5
123
  8
0
 10
43.325685676011972
 20
64.658044543521228
 30
0.0
 11
43.325685676011972
 21
54.69481675570232
 31
0.0
  0
LINE
  5
124
  8
0
 10
26.325685676012021
 20
64.658044543521129
 30
0.0
 11
26.325685676012021
 21
54.694816755702419
 31
0.0
  0
LINE
  5
125
  8
0
 10
26.325685676012021
 20
64.658044543521129
 30
0.0
 11
34.825685676011972
 21
69.49138522583543
 31
0.0
  0
LINE
  5
126
  8
0
 10
34.825685676011972
 20
69.49138522583543
 30
0.0
 11
43.325685676011972
 21
64.658044543521228
 31
0.0
  0
LINE
  5
127
  8
0
 10
26.325685676012021
 20
54.694816755702419
 30
0.0
 11
34.825685676011972
 21
49.861476073388118
 31
0.0
  0
LINE
  5
128
  8
0
 10
34.825685676011972
 20
49.861476073388118
 30
0.0
 11
43.325685676011972
 21
54.69481675570232
 31
0.0
  0
CIRCLE
  5
129
  8
0
 10
34.825685676011972
 20
59.676430649611767
 30
0.0
 40
8.5000000000000142
  0
ARC
  5
12A
  8
0
 10
78.713529120913634
 20
123.5796137834496
 30
0.0
 40
5.0
 50
156.5812350446347
 51
203.4187649553642
  0
LINE
  5
12B
  8
0
 10
74.125406588619725
 20
125.56685600035649
 30
0.0
 11
74.125406588619697
 21
121.59237156654289
 31
0.0
  0
LINE
  5
12C
  8
0
 10
75.013529120913645
 20
121.0796137834496
 30
0.0
 11
74.125406588619697
 21
121.59237156654289
 31
0.0
  0
LINE
  5
12D
  8
0
 10
75.013529120913645
 20
126.0796137834497
 30
0.0
 11
74.125406588619725
 21
125.56685600035649
 31
0.0
  0
ARC
  5
12E
  8
0
 10
78.713529120913648
 20
59.676430649611802
 30
0.0
 40
5.0
 50
156.5812350446347
 51
203.4187649553642
  0
LINE
  5
12F
  8
0
 10
74.12540658861974
 20
61.663672866518652
 30
0.0
 11
74.125406588619711
 21
57.689188432705038
 31
0.0
  0
LINE
  5
130
  8
0
 10
75.01352912091366
 20
57.176430649611831
 30
0.0
 11
74.125406588619711
 21
57.689188432705038
 31
0.0
  0
LINE
  5
131
  8
0
 10
75.01352912091366
 20
62.176430649611859
 30
0.0
 11
74.12540658861974
 21
61.663672866518652
 31
0.0
  0
ARC
  5
132
  8
2
 10
164.67094603165111
 20
123.5796137834496
 30
0.0
 40
41.999999999999559
 50
167.2070462730523
 51
192.79295372694759
  0
ARC
  5
133
  8
2
 10
164.67094603165111
 20
59.67643064961176
 30
0.0
 40
41.999999999999559
 50
167.2070462730523
 51
192.79295372694759
  0
TEXT
  5
1D3
  8
0
 62
     3
 10
0.0
 20
0.0
 30
0.0
 40
5.0
  1
NDXN10W-ASUS
  7
STANDARD1
  0
ENDSEC
  0
EOF
