  0
SECTION
  2
HEADER
  9
$ACADVER
  1
AC1009
  9
$INSBASE
 10
0.0
 20
0.0
 30
0.0
  9
$EXTMIN
 10
0.0
 20
-1.4802182810368341
 30
0.0
  9
$EXTMAX
 10
289.07869908682352
 20
245.03827606983589
 30
0.0
  9
$LIMMIN
 10
0.0
 20
0.0
  9
$LIMMAX
 10
385.0
 20
270.0
  9
$ORTHOMODE
 70
     1
  9
$REGENMODE
 70
     1
  9
$FILLMODE
 70
     1
  9
$QTEXTMODE
 70
     0
  9
$MIRRTEXT
 70
     0
  9
$DRAGMODE
 70
     2
  9
$LTSCALE
 40
10.0
  9
$OSMODE
 70
  3071
  9
$ATTMODE
 70
     1
  9
$TEXTSIZE
 40
4.000000000000048
  9
$TRACEWID
 40
0.05
  9
$TEXTSTYLE
  7
STANDARD
  9
$CLAYER
  8
0
  9
$CELTYPE
  6
BYLAYER
  9
$CECOLOR
 62
   256
  9
$DIMSCALE
 40
1.0
  9
$DIMASZ
 40
3.0
  9
$DIMEXO
 40
2.0
  9
$DIMDLI
 40
0.38
  9
$DIMRND
 40
0.0
  9
$DIMDLE
 40
0.0
  9
$DIMEXE
 40
2.0
  9
$DIMTP
 40
0.0
  9
$DIMTM
 40
0.0
  9
$DIMTXT
 40
3.0
  9
$DIMCEN
 40
0.0
  9
$DIMTSZ
 40
0.0
  9
$DIMTOL
 70
     0
  9
$DIMLIM
 70
     0
  9
$DIMTIH
 70
     0
  9
$DIMTOH
 70
     0
  9
$DIMSE1
 70
     0
  9
$DIMSE2
 70
     0
  9
$DIMTAD
 70
     1
  9
$DIMZIN
 70
     0
  9
$DIMBLK
  1

  9
$DIMASO
 70
     1
  9
$DIMSHO
 70
     0
  9
$DIMPOST
  1

  9
$DIMAPOST
  1

  9
$DIMALT
 70
     0
  9
$DIMALTD
 70
     2
  9
$DIMALTF
 40
25.399999999999999
  9
$DIMLFAC
 40
1.0
  9
$DIMTOFL
 70
     1
  9
$DIMTVP
 40
1.6000000000000001
  9
$DIMTIX
 70
     1
  9
$DIMSOXD
 70
     0
  9
$DIMSAH
 70
     0
  9
$DIMBLK1
  1

  9
$DIMBLK2
  1

  9
$DIMSTYLE
  2
STANDARD
  9
$DIMCLRD
 70
     0
  9
$DIMCLRE
 70
     0
  9
$DIMCLRT
 70
     0
  9
$DIMTFAC
 40
1.0
  9
$DIMGAP
 40
1.0
  9
$LUNITS
 70
     2
  9
$LUPREC
 70
     4
  9
$SKETCHINC
 40
0.1
  9
$FILLETRAD
 40
0.0
  9
$AUNITS
 70
     0
  9
$AUPREC
 70
     4
  9
$MENU
  1
E:\r13\win\SUPPORT\ACAD
  9
$ELEVATION
 40
0.0
  9
$PELEVATION
 40
0.0
  9
$THICKNESS
 40
0.0
  9
$LIMCHECK
 70
     0
  9
$BLIPMODE
 70
     0
  9
$CHAMFERA
 40
0.0
  9
$CHAMFERB
 40
0.0
  9
$SKPOLY
 70
     0
  9
$TDCREATE
 40
2450280.598206134
  9
$TDUPDATE
 40
2456597.6882666321
  9
$TDINDWG
 40
0.0496795718
  9
$TDUSRTIMER
 40
0.0496795718
  9
$USRTIMER
 70
     1
  9
$ANGBASE
 50
0.0
  9
$ANGDIR
 70
     0
  9
$PDMODE
 70
     0
  9
$PDSIZE
 40
0.0
  9
$PLINEWID
 40
0.0
  9
$COORDS
 70
     1
  9
$SPLFRAME
 70
     0
  9
$SPLINETYPE
 70
     6
  9
$SPLINESEGS
 70
     8
  9
$ATTDIA
 70
     0
  9
$ATTREQ
 70
     1
  9
$HANDLING
 70
     1
  9
$HANDSEED
  5
730
  9
$SURFTAB1
 70
     6
  9
$SURFTAB2
 70
     6
  9
$SURFTYPE
 70
     6
  9
$SURFU
 70
     6
  9
$SURFV
 70
     6
  9
$UCSNAME
  2

  9
$UCSORG
 10
0.0
 20
0.0
 30
0.0
  9
$UCSXDIR
 10
1.0
 20
0.0
 30
0.0
  9
$UCSYDIR
 10
0.0
 20
1.0
 30
0.0
  9
$PUCSNAME
  2

  9
$PUCSORG
 10
0.0
 20
0.0
 30
0.0
  9
$PUCSXDIR
 10
1.0
 20
0.0
 30
0.0
  9
$PUCSYDIR
 10
0.0
 20
1.0
 30
0.0
  9
$USERI1
 70
     3
  9
$USERI2
 70
     1
  9
$USERI3
 70
     1
  9
$USERI4
 70
     0
  9
$USERI5
 70
     0
  9
$USERR1
 40
1.0
  9
$USERR2
 40
3.0
  9
$USERR3
 40
3.0
  9
$USERR4
 40
3.0
  9
$USERR5
 40
10.0
  9
$WORLDVIEW
 70
     1
  9
$SHADEDGE
 70
     3
  9
$SHADEDIF
 70
    70
  9
$TILEMODE
 70
     1
  9
$MAXACTVP
 70
    16
  9
$PLIMCHECK
 70
     0
  9
$PEXTMIN
 10
1.0000000000000000E+020
 20
1.0000000000000000E+020
 30
1.0000000000000000E+020
  9
$PEXTMAX
 10
-1.0000000000000000E+020
 20
-1.0000000000000000E+020
 30
-1.0000000000000000E+020
  9
$PLIMMIN
 10
0.0
 20
0.0
  9
$PLIMMAX
 10
12.0
 20
9.0
  9
$UNITMODE
 70
     0
  9
$VISRETAIN
 70
     0
  9
$PLINEGEN
 70
     0
  9
$PSLTSCALE
 70
     0
  0
ENDSEC
  0
SECTION
  2
TABLES
  0
TABLE
  2
VPORT
 70
     1
  0
VPORT
  2
*ACTIVE
 70
     0
 10
0.0
 20
0.0
 11
1.0
 21
1.0
 12
192.49412581440311
 22
134.84202934784381
 13
0.0
 23
0.0
 14
5.0
 24
5.0
 15
10.0
 25
10.0
 16
0.0
 26
0.0
 36
1.0
 17
0.0
 27
0.0
 37
0.0
 40
275.78743625673241
 41
2.304913294797688
 42
50.0
 43
0.0
 44
0.0
 50
0.0
 51
0.0
 71
     0
 72
   500
 73
     1
 74
     0
 75
     0
 76
     0
 77
     0
 78
     2
  0
ENDTAB
  0
TABLE
  2
LTYPE
 70
     3
  0
LTYPE
  2
CONTINUOUS
 70
     0
  3
Solid Line
 72
    65
 73
     0
 40
0.0
  0
LTYPE
  2
CENTER
 70
     0
  3
____ _ ____ _ ____ _ ____ _ ____ _ ____ _ ____
 72
    65
 73
     4
 40
2.0
 49
1.25
 49
-0.25
 49
0.25
 49
-0.25
  0
LTYPE
  2
PHANTOM2
 70
     0
  3
___ _ _ ___ _ _ ___ _ _ ___ _ _
 72
    65
 73
     6
 40
1.25
 49
0.625
 49
-0.125
 49
0.125
 49
-0.125
 49
0.125
 49
-0.125
  0
ENDTAB
  0
TABLE
  2
LAYER
 70
     3
  0
LAYER
  2
0
 70
     0
 62
     7
  6
CONTINUOUS
  0
LAYER
  2
1
 70
     0
 62
     1
  6
CENTER
  0
LAYER
  2
3
 70
     0
 62
     3
  6
CONTINUOUS
  0
ENDTAB
  0
TABLE
  2
STYLE
 70
     2
  0
STYLE
  2
STANDARD
 70
     0
 40
0.0
 41
1.0
 50
0.0
 71
     0
 42
4.000000000000048
  3
SIMPLEX
  4
BIGFONT
  0
STYLE
  2
STANDARD1
 70
     0
 40
0.0
 41
1.0
 50
0.0
 71
     0
 42
3.0
  3
txt
  4

  0
ENDTAB
  0
TABLE
  2
VIEW
 70
     0
  0
ENDTAB
  0
TABLE
  2
UCS
 70
     0
  0
ENDTAB
  0
TABLE
  2
APPID
 70
     3
  0
APPID
  2
ACAD
 70
     0
  0
APPID
  2
ACAD_MLEADERVER
 70
     0
  0
APPID
  2
ACAD_NAV_VCDISPLAY
 70
     0
  0
ENDTAB
  0
TABLE
  2
DIMSTYLE
 70
     1
  0
DIMSTYLE
  2
STANDARD
 70
     0
  3

  4

  5

  6

  7

 40
1.0
 41
0.18
 42
0.0625
 43
0.38
 44
0.18
 45
0.0
 46
0.0
 47
0.0
 48
0.0
140
0.18
141
0.09
142
0.0
143
25.399999999999999
144
1.0
145
0.0
146
1.0
147
0.09
 71
     0
 72
     0
 73
     1
 74
     1
 75
     0
 76
     0
 77
     0
 78
     0
170
     0
171
     2
172
     0
173
     0
174
     0
175
     0
176
     0
177
     0
178
     0
  0
ENDTAB
  0
ENDSEC
  0
SECTION
  2
BLOCKS
  0
BLOCK
  8
0
  2
$MODEL_SPACE
 70
     0
 10
0.0
 20
0.0
 30
0.0
  3
$MODEL_SPACE
  1

  0
ENDBLK
  5
560
  8
0
  0
BLOCK
 67
     1
  8
0
  2
$PAPER_SPACE
 70
     0
 10
0.0
 20
0.0
 30
0.0
  3
$PAPER_SPACE
  1

  0
ENDBLK
  5
55E
 67
     1
  8
0
  0
ENDSEC
  0
SECTION
  2
ENTITIES
  0
LINE
  5
2D5
  8
0
 10
67.618208524025931
 20
148.8079034081577
 30
0.0
 11
77.118208524025931
 21
143.3230758508555
 31
0.0
  0
LINE
  5
2D6
  8
0
 10
77.118208524025931
 20
143.3230758508555
 30
0.0
 11
86.618208524025022
 21
148.8079034081577
 31
0.0
  0
LINE
  5
2D7
  8
0
 10
86.618208524025022
 20
148.8079034081577
 30
0.0
 11
86.618208524025022
 21
159.77755852276221
 31
0.0
  0
LINE
  5
2D8
  8
0
 10
86.618208524025022
 20
159.77755852276221
 30
0.0
 11
77.118208524025022
 21
165.26238608006071
 31
0.0
  0
LINE
  5
2D9
  8
0
 10
77.118208524025022
 20
165.26238608006071
 30
0.0
 11
67.618208524024112
 21
159.77755852275851
 31
0.0
  0
LINE
  5
2DA
  8
0
 10
67.618208524024112
 20
159.77755852275851
 30
0.0
 11
67.618208524025931
 21
148.8079034081577
 31
0.0
  0
CIRCLE
  5
2DC
  8
0
 10
77.118208524024908
 20
154.29273096545811
 30
0.0
 40
3.9999999999999849
  0
CIRCLE
  5
2DD
  8
3
 10
77.118208524024908
 20
154.29273096545811
 30
0.0
 40
7.187999999994573
  0
CIRCLE
  5
2DE
  8
0
 10
77.118208524024908
 20
154.29273096545811
 30
0.0
 40
7.9999999999515552
  0
LINE
  5
2DF
  8
1
 10
55.618208524024901
 20
154.29273096545811
 30
0.0
 11
98.618208524024723
 21
154.29273096545811
 31
0.0
  0
LINE
  5
2E0
  8
1
 10
77.118208524025022
 20
175.79273096545811
 30
0.0
 11
77.118208524025022
 21
132.7927309654583
 31
0.0
  0
CIRCLE
  5
2E1
  8
0
 10
77.118208524024908
 20
154.29273096545811
 30
0.0
 40
16.5
  0
LINE
  5
2E2
  8
0
 10
253.28709315886729
 20
148.2927309654583
 30
0.0
 11
281.87030501478091
 21
148.2927309654583
 31
0.0
  0
LINE
  5
2E3
  8
0
 10
252.6037199549518
 20
150.2927309654583
 30
0.0
 11
282.55367821869538
 21
150.2927309654583
 31
0.0
  0
LINE
  5
2E4
  8
0
 10
252.6037199549518
 20
158.2927309654583
 30
0.0
 11
282.55367821869538
 21
158.2927309654583
 31
0.0
  0
LINE
  5
2E5
  8
0
 10
253.28709315886729
 20
160.2927309654583
 30
0.0
 11
281.87030501478091
 21
160.2927309654583
 31
0.0
  0
LINE
  5
2E6
  8
0
 10
252.11099078856671
 20
155.2927309654583
 30
0.0
 11
283.0464073850805
 21
155.2927309654583
 31
0.0
  0
LINE
  5
2E7
  8
0
 10
252.1109907885652
 20
153.2927309654583
 30
0.0
 11
283.04640738508101
 21
153.2927309654583
 31
0.0
  0
CIRCLE
  5
2E8
  8
0
 10
267.57869908682358
 20
154.29273096545819
 30
0.0
 40
16.5
  0
LINE
  5
2E9
  8
1
 10
246.07869908682369
 20
154.2927309654583
 30
0.0
 11
289.07869908682352
 21
154.2927309654583
 31
0.0
  0
LINE
  5
2EA
  8
1
 10
267.57869908682358
 20
132.79273096545819
 30
0.0
 11
267.57869908682358
 21
175.79273096545799
 31
0.0
  0
CIRCLE
  5
2EB
  8
0
 10
267.57869908682358
 20
154.29273096545819
 30
0.0
 40
15.49999999999997
  0
LINE
  5
2F2
  8
0
 10
209.118208524024
 20
160.29273096545819
 30
0.0
 11
209.118208524024
 21
168.79273096545819
 31
0.0
  0
LINE
  5
2F3
  8
0
 10
209.118208524024
 20
150.29273096545819
 30
0.0
 11
209.118208524024
 21
153.29273096545819
 31
0.0
  0
LINE
  5
2F4
  8
0
 10
209.11820852402391
 20
155.29273096545819
 30
0.0
 11
209.118208524024
 21
158.29273096545819
 31
0.0
  0
ARC
  5
2F5
  8
0
 10
209.11820852402391
 20
159.29273096545629
 30
0.0
 40
1.000000000001833
 50
90.000000000149811
 51
269.99999999985351
  0
ARC
  5
2F6
  8
0
 10
209.11820852402661
 20
149.29273096545629
 30
0.0
 40
1.000000000001833
 50
90.000000000149811
 51
269.99999999985351
  0
ARC
  5
2F7
  8
0
 10
209.1182085240265
 20
154.29273096545629
 30
0.0
 40
1.000000000001833
 50
90.000000000149811
 51
269.99999999985351
  0
ARC
  5
2F8
  8
0
 10
201.11820852402391
 20
168.2927309654651
 30
0.0
 40
2.4999999999958362
 50
36.869897645717657
 51
90.0
  0
ARC
  5
2F9
  8
0
 10
201.11820852402391
 20
140.29273096545131
 30
0.0
 40
2.4999999999958362
 50
270.0
 51
323.13010235428231
  0
ARC
  5
2FA
  8
0
 10
208.118208524024
 20
139.79273096545819
 30
0.0
 40
1.0
 50
270.0
 51
0.0
  0
ARC
  5
2FB
  8
0
 10
208.118208524024
 20
168.79273096545819
 30
0.0
 40
1.0
 50
0.0
 51
90.0
  0
LINE
  5
2FC
  8
0
 10
179.118208524024
 20
144.79272557066031
 30
0.0
 11
179.11820852402391
 21
163.79273096545819
 31
0.0
  0
LINE
  5
2FD
  8
0
 10
178.26970275314591
 20
143.32307585978779
 30
0.0
 11
169.118208524024
 21
143.32307585978779
 31
0.0
  0
LINE
  5
2FE
  8
0
 10
169.118208524024
 20
148.8079034126219
 30
0.0
 11
178.26970275314591
 21
148.80790341262181
 31
0.0
  0
LINE
  5
2FF
  8
0
 10
178.26970275314591
 20
165.2623860711343
 30
0.0
 11
169.118208524024
 21
165.2623860711343
 31
0.0
  0
LINE
  5
300
  8
0
 10
169.118208524024
 20
159.77755851829329
 30
0.0
 11
178.26970275314591
 21
159.77755851829329
 31
0.0
  0
LINE
  5
301
  8
0
 10
179.11820852402391
 20
163.79273096545819
 30
0.0
 11
178.26970275314591
 21
165.2623860711343
 31
0.0
  0
ARC
  5
302
  8
0
 10
174.2621452848843
 20
162.51997229471391
 30
0.0
 40
4.8560632391392371
 50
325.6157527021943
 51
359.99999999999932
  0
ARC
  5
303
  8
0
 10
160.9667142238232
 20
154.29273096545759
 30
0.0
 40
18.151494300200689
 50
342.41204631707052
 51
17.587953682929559
  0
ARC
  5
304
  8
0
 10
174.2621452848843
 20
146.0654842414047
 30
0.0
 40
4.8560632391392371
 50
0.0000000000006616
 51
34.384247297805693
  0
LINE
  5
305
  8
0
 10
179.118208524024
 20
144.79272557066031
 30
0.0
 11
178.26970275314591
 21
143.32307046498431
 31
0.0
  0
LINE
  5
306
  8
0
 10
169.11820852402391
 20
165.2623860711343
 30
0.0
 11
169.11820852402391
 21
143.32307585978779
 31
0.0
  0
LINE
  5
307
  8
0
 10
180.118208524024
 20
163.79273096545819
 30
0.0
 11
179.11820852402391
 21
162.79273096545799
 31
0.0
  0
LINE
  5
308
  8
0
 10
180.11820852402411
 20
144.79273096545819
 30
0.0
 11
179.118208524024
 21
145.79273096545819
 31
0.0
  0
LINE
  5
309
  8
0
 10
191.11820852402391
 20
144.79273096545819
 30
0.0
 11
201.11820852402391
 21
137.79273096545541
 31
0.0
  0
LINE
  5
30A
  8
0
 10
191.11820852402391
 20
163.79273096545811
 30
0.0
 11
201.118208524024
 21
170.79273096545819
 31
0.0
  0
LINE
  5
30B
  8
0
 10
180.118208524024
 20
163.79273096545819
 30
0.0
 11
180.118208524024
 21
144.79273096545819
 31
0.0
  0
LINE
  5
30C
  8
0
 10
191.11820852402391
 20
163.79273096545811
 30
0.0
 11
191.11820852402391
 21
144.79273096545819
 31
0.0
  0
LINE
  5
30D
  8
0
 10
201.11820852402391
 20
137.79273096545819
 30
0.0
 11
201.118208524024
 21
170.79273096545819
 31
0.0
  0
LINE
  5
30E
  8
0
 10
208.118208524024
 20
169.79273096545819
 30
0.0
 11
203.118208524024
 21
169.79273096545819
 31
0.0
  0
LINE
  5
30F
  8
0
 10
208.118208524024
 20
138.79273096545819
 30
0.0
 11
203.118208524024
 21
138.79273096545819
 31
0.0
  0
LINE
  5
310
  8
0
 10
203.118208524024
 20
138.79273096545819
 30
0.0
 11
203.118208524024
 21
169.79273096545819
 31
0.0
  0
LINE
  5
311
  8
0
 10
209.118208524024
 20
139.79273096545819
 30
0.0
 11
209.118208524024
 21
148.29273096545819
 31
0.0
  0
LINE
  5
312
  8
0
 10
144.11820852402411
 20
146.29273096546879
 30
0.0
 11
169.11820852402391
 21
146.2927309654562
 31
0.0
  0
LINE
  5
313
  8
0
 10
144.11820852402369
 20
162.29273096544739
 30
0.0
 11
169.118208524024
 21
162.29273096546021
 31
0.0
  0
LINE
  5
314
  8
1
 10
214.118208524024
 20
154.29273096545819
 30
0.0
 11
130.11820852402391
 21
154.29273096545819
 31
0.0
  0
LINE
  5
315
  8
0
 10
143.11820852402391
 20
161.2927309654475
 30
0.0
 11
144.11820852402391
 21
162.2927309654475
 31
0.0
  0
LINE
  5
316
  8
3
 10
166.11820852402391
 20
161.48073096545281
 30
0.0
 11
143.30620852402919
 21
161.48073096545281
 31
0.0
  0
LINE
  5
317
  8
0
 10
180.118208524024
 20
163.79273096545811
 30
0.0
 11
191.11820852402391
 21
163.79273096545811
 31
0.0
  0
LINE
  5
318
  8
3
 10
166.11820852402391
 20
147.10473096546349
 30
0.0
 11
143.3062085240293
 21
147.10473096546349
 31
0.0
  0
LINE
  5
319
  8
0
 10
180.118208524024
 20
144.79273096545819
 30
0.0
 11
191.11820852402391
 21
144.79273096545819
 31
0.0
  0
LINE
  5
31A
  8
0
 10
143.11820852402391
 20
147.29273096546891
 30
0.0
 11
144.11820852402391
 21
146.29273096546891
 31
0.0
  0
LINE
  5
31B
  8
0
 10
143.11820852402391
 20
161.2927309654475
 30
0.0
 11
143.11820852402391
 21
147.29273096546891
 31
0.0
  0
LINE
  5
31C
  8
0
 10
144.11820852402391
 20
162.2927309654475
 30
0.0
 11
144.11820852402391
 21
146.29273096546891
 31
0.0
  0
LINE
  5
38E
  8
0
 10
166.11820852402391
 20
162.29273096545859
 30
0.0
 11
166.11820852402391
 21
146.29273096545771
 31
0.0
  0
LINE
  5
38F
  8
3
 10
166.11820852402391
 20
161.48073096545281
 30
0.0
 11
167.5246337797812
 21
162.29273096545941
 31
0.0
  0
LINE
  5
390
  8
3
 10
166.11820852402391
 20
147.10473096546349
 30
0.0
 11
167.5246337797812
 21
146.292730965457
 31
0.0
  0
LINE
  5
398
  8
0
 10
180.118208524024
 20
70.547185861083278
 30
0.0
 11
191.11820852402391
 21
70.547185861083292
 31
0.0
  0
LINE
  5
399
  8
0
 10
180.118208524024
 20
89.547185861083165
 30
0.0
 11
191.11820852402391
 21
89.547185861083165
 31
0.0
  0
LINE
  5
39A
  8
1
 10
214.11820852402391
 20
80.047185861083236
 30
0.0
 11
130.11820852402391
 21
80.047185861083236
 31
0.0
  0
LINE
  5
39B
  8
3
 10
166.11820852402391
 20
72.859185861088577
 30
0.0
 11
143.3062085240293
 21
72.859185861088577
 31
0.0
  0
LINE
  5
39C
  8
3
 10
166.11820852402391
 20
87.235185861077866
 30
0.0
 11
143.30620852402919
 21
87.235185861077866
 31
0.0
  0
LINE
  5
39D
  8
0
 10
144.11820852402369
 20
88.047185861072421
 30
0.0
 11
169.118208524024
 21
88.047185861085211
 31
0.0
  0
LINE
  5
39E
  8
0
 10
144.11820852402411
 20
72.047185861093794
 30
0.0
 11
169.11820852402391
 21
72.047185861081275
 31
0.0
  0
LINE
  5
3A2
  8
0
 10
144.11820852402391
 20
88.047185861072592
 30
0.0
 11
144.11820852402391
 21
72.047185861093894
 31
0.0
  0
LINE
  5
3A3
  8
0
 10
143.11820852402391
 20
87.047185861072606
 30
0.0
 11
143.11820852402391
 21
73.047185861093908
 31
0.0
  0
LINE
  5
3A6
  8
0
 10
143.11820852402391
 20
73.047185861093908
 30
0.0
 11
144.11820852402391
 21
72.047185861093894
 31
0.0
  0
LINE
  5
3A9
  8
0
 10
143.11820852402391
 20
87.047185861072606
 30
0.0
 11
144.11820852402391
 21
88.047185861072592
 31
0.0
  0
LINE
  5
3AA
  8
0
 10
166.11820852402391
 20
88.047185861083676
 30
0.0
 11
166.11820852402391
 21
72.047185861082795
 31
0.0
  0
LINE
  5
3AB
  8
0
 10
180.118208524024
 20
89.547185861083221
 30
0.0
 11
180.118208524024
 21
70.547185861083221
 31
0.0
  0
LINE
  5
3B1
  8
3
 10
166.11820852402391
 20
72.859185861088577
 30
0.0
 11
167.5246337797812
 21
72.047185861082028
 31
0.0
  0
LINE
  5
3B2
  8
0
 10
180.11820852402411
 20
70.547185861083221
 30
0.0
 11
179.118208524024
 21
71.547185861083278
 31
0.0
  0
LINE
  5
3B7
  8
3
 10
166.11820852402391
 20
87.235185861077866
 30
0.0
 11
167.5246337797812
 21
88.047185861084415
 31
0.0
  0
LINE
  5
3B9
  8
0
 10
180.118208524024
 20
89.547185861083221
 30
0.0
 11
179.11820852402391
 21
88.547185861083094
 31
0.0
  0
LINE
  5
3BB
  8
0
 10
203.118208524024
 20
64.547185861083221
 30
0.0
 11
203.118208524024
 21
95.547185861083221
 31
0.0
  0
LINE
  5
3BC
  8
0
 10
201.11820852402391
 20
63.547185861083221
 30
0.0
 11
201.118208524024
 21
96.547185861083236
 31
0.0
  0
LINE
  5
3BD
  8
0
 10
191.11820852402391
 20
89.547185861083165
 30
0.0
 11
191.11820852402391
 21
70.547185861083278
 31
0.0
  0
LINE
  5
3BE
  8
0
 10
209.11820852402391
 20
81.047185861083221
 30
0.0
 11
209.118208524024
 21
84.047185861083278
 31
0.0
  0
LINE
  5
3BF
  8
0
 10
208.118208524024
 20
64.547185861083264
 30
0.0
 11
203.118208524024
 21
64.547185861083264
 31
0.0
  0
LINE
  5
3C0
  8
0
 10
191.11820852402391
 20
70.547185861083278
 30
0.0
 11
201.11820852402391
 21
63.547185861080493
 31
0.0
  0
ARC
  5
3C1
  8
0
 10
201.11820852402391
 20
66.047185861076343
 30
0.0
 40
2.4999999999958362
 50
270.0
 51
323.13010235428231
  0
LINE
  5
3C2
  8
0
 10
209.118208524024
 20
65.547185861083278
 30
0.0
 11
209.118208524024
 21
74.047185861083278
 31
0.0
  0
ARC
  5
3C3
  8
0
 10
208.118208524024
 20
65.547185861083278
 30
0.0
 40
1.0
 50
270.0
 51
0.0
  0
LINE
  5
3C4
  8
0
 10
209.118208524024
 20
76.047185861083278
 30
0.0
 11
209.118208524024
 21
79.047185861083278
 31
0.0
  0
ARC
  5
3C5
  8
0
 10
209.11820852402661
 20
75.047185861081402
 30
0.0
 40
1.000000000001833
 50
90.000000000149811
 51
269.99999999985351
  0
ARC
  5
3C6
  8
0
 10
209.1182085240265
 20
80.047185861081402
 30
0.0
 40
1.000000000001833
 50
90.000000000149811
 51
269.99999999985351
  0
LINE
  5
3C7
  8
0
 10
208.118208524024
 20
95.547185861083264
 30
0.0
 11
203.118208524024
 21
95.547185861083264
 31
0.0
  0
LINE
  5
3C8
  8
0
 10
191.11820852402391
 20
89.547185861083165
 30
0.0
 11
201.118208524024
 21
96.547185861083236
 31
0.0
  0
ARC
  5
3C9
  8
0
 10
201.11820852402391
 20
94.047185861090156
 30
0.0
 40
2.4999999999958362
 50
36.869897645717657
 51
90.0
  0
LINE
  5
3CA
  8
0
 10
209.118208524024
 20
86.047185861083278
 30
0.0
 11
209.118208524024
 21
94.547185861083264
 31
0.0
  0
ARC
  5
3CB
  8
0
 10
209.11820852402391
 20
85.047185861081402
 30
0.0
 40
1.000000000001833
 50
90.000000000149811
 51
269.99999999985351
  0
ARC
  5
3CC
  8
0
 10
208.118208524024
 20
94.547185861083264
 30
0.0
 40
1.0
 50
0.0
 51
90.0
  0
LINE
  5
3CD
  8
0
 10
169.11820852402391
 20
70.547185861083264
 30
0.0
 11
169.11820852402391
 21
89.547185861083179
 31
0.0
  0
LINE
  5
3CE
  8
0
 10
179.118208524024
 20
70.826597625790313
 30
0.0
 11
179.118208524024
 21
89.267774096376186
 31
0.0
  0
ARC
  5
3CF
  8
0
 10
165.23720617646069
 20
84.797185861083236
 30
0.0
 40
13.719683889994901
 50
339.7438419996065
 51
20.256158000393469
  0
LINE
  5
3D0
  8
0
 10
178.95689006645571
 20
89.547185861083292
 30
0.0
 11
179.118208524024
 21
89.267774096376186
 31
0.0
  0
LINE
  5
3D1
  8
0
 10
178.95689006645571
 20
89.547185861083292
 30
0.0
 11
169.11820852402391
 21
89.547185861083179
 31
0.0
  0
LINE
  5
3D2
  8
0
 10
178.10838429042431
 20
80.047185861083236
 30
0.0
 11
169.11820852402391
 21
80.047185861083264
 31
0.0
  0
LINE
  5
3D3
  8
0
 10
178.95689006645571
 20
70.54718586108315
 30
0.0
 11
169.11820852402391
 21
70.547185861083264
 31
0.0
  0
LINE
  5
3D4
  8
0
 10
178.95689006645571
 20
70.54718586108315
 30
0.0
 11
179.118208524024
 21
70.826597625790257
 31
0.0
  0
ARC
  5
3D5
  8
0
 10
165.23720617646069
 20
75.297185861083236
 30
0.0
 40
13.719683889994901
 50
339.74384199960662
 51
20.256158000393519
  0
LINE
  5
3D7
  8
1
 10
214.118208524024
 20
228.53827606983319
 30
0.0
 11
130.11820852402391
 21
228.53827606983319
 31
0.0
  0
LINE
  5
3D8
  8
0
 10
180.118208524024
 20
219.03827606983319
 30
0.0
 11
191.11820852402391
 21
219.03827606983319
 31
0.0
  0
LINE
  5
3D9
  8
0
 10
180.118208524024
 20
238.0382760698331
 30
0.0
 11
191.11820852402391
 21
238.0382760698331
 31
0.0
  0
LINE
  5
3DA
  8
0
 10
144.11820852402411
 20
236.53827606982259
 30
0.0
 11
169.11820852402391
 21
236.53827606983509
 31
0.0
  0
LINE
  5
3DB
  8
0
 10
144.11820852402369
 20
220.5382760698439
 30
0.0
 11
169.118208524024
 21
220.5382760698312
 31
0.0
  0
LINE
  5
3DC
  8
3
 10
166.11820852402391
 20
221.35027606983849
 30
0.0
 11
143.30620852402919
 21
221.35027606983849
 31
0.0
  0
LINE
  5
3DD
  8
3
 10
166.11820852402391
 20
235.7262760698278
 30
0.0
 11
143.3062085240293
 21
235.7262760698278
 31
0.0
  0
LINE
  5
3E0
  8
0
 10
144.11820852402391
 20
220.53827606984379
 30
0.0
 11
144.11820852402391
 21
236.5382760698225
 31
0.0
  0
LINE
  5
3E1
  8
0
 10
143.11820852402391
 20
221.53827606984379
 30
0.0
 11
143.11820852402391
 21
235.5382760698225
 31
0.0
  0
LINE
  5
3E5
  8
0
 10
143.11820852402391
 20
235.5382760698225
 30
0.0
 11
144.11820852402391
 21
236.5382760698225
 31
0.0
  0
LINE
  5
3E8
  8
0
 10
143.11820852402391
 20
221.53827606984379
 30
0.0
 11
144.11820852402391
 21
220.53827606984379
 31
0.0
  0
ARC
  5
3E9
  8
0
 10
165.23720617646069
 20
233.28827606983319
 30
0.0
 40
13.719683889994901
 50
339.7438419996065
 51
20.25615800039342
  0
LINE
  5
3EA
  8
0
 10
169.11820852402391
 20
238.0382760698331
 30
0.0
 11
169.11820852402391
 21
219.03827606983319
 31
0.0
  0
LINE
  5
3EB
  8
0
 10
179.118208524024
 20
237.758864305126
 30
0.0
 11
179.118208524024
 21
219.31768783454021
 31
0.0
  0
LINE
  5
3EC
  8
0
 10
180.118208524024
 20
219.0382760698331
 30
0.0
 11
180.118208524024
 21
238.0382760698331
 31
0.0
  0
LINE
  5
3ED
  8
0
 10
178.95689006645571
 20
238.03827606983319
 30
0.0
 11
169.11820852402391
 21
238.0382760698331
 31
0.0
  0
LINE
  5
3EE
  8
0
 10
178.95689006645571
 20
238.03827606983319
 30
0.0
 11
179.118208524024
 21
237.75886430512611
 31
0.0
  0
LINE
  5
3EF
  8
0
 10
180.11820852402411
 20
238.0382760698331
 30
0.0
 11
179.118208524024
 21
237.0382760698331
 31
0.0
  0
LINE
  5
3F0
  8
0
 10
178.95689006645571
 20
219.0382760698331
 30
0.0
 11
169.11820852402391
 21
219.03827606983319
 31
0.0
  0
LINE
  5
3F1
  8
0
 10
178.10838429042431
 20
228.53827606983319
 30
0.0
 11
169.11820852402391
 21
228.5382760698331
 31
0.0
  0
LINE
  5
3F2
  8
0
 10
166.11820852402391
 20
220.5382760698327
 30
0.0
 11
166.11820852402391
 21
236.53827606983361
 31
0.0
  0
LINE
  5
3F3
  8
3
 10
166.11820852402391
 20
235.7262760698278
 30
0.0
 11
167.5246337797812
 21
236.53827606983441
 31
0.0
  0
LINE
  5
3F4
  8
3
 10
166.11820852402391
 20
221.35027606983849
 30
0.0
 11
167.5246337797812
 21
220.53827606983199
 31
0.0
  0
ARC
  5
3F5
  8
0
 10
165.23720617646069
 20
223.78827606983319
 30
0.0
 40
13.719683889994901
 50
339.74384199960662
 51
20.25615800039348
  0
LINE
  5
3F6
  8
0
 10
178.95689006645571
 20
219.0382760698331
 30
0.0
 11
179.118208524024
 21
219.31768783454021
 31
0.0
  0
LINE
  5
3F7
  8
0
 10
180.118208524024
 20
219.0382760698331
 30
0.0
 11
179.11820852402391
 21
220.0382760698333
 31
0.0
  0
LINE
  5
3F8
  8
0
 10
209.118208524024
 20
222.5382760698331
 30
0.0
 11
209.118208524024
 21
214.0382760698331
 31
0.0
  0
LINE
  5
3F9
  8
0
 10
191.11820852402391
 20
219.03827606983319
 30
0.0
 11
201.118208524024
 21
212.03827606983319
 31
0.0
  0
LINE
  5
3FA
  8
0
 10
201.11820852402391
 20
245.03827606983319
 30
0.0
 11
201.118208524024
 21
212.03827606983319
 31
0.0
  0
LINE
  5
3FB
  8
0
 10
203.118208524024
 20
244.0382760698331
 30
0.0
 11
203.118208524024
 21
213.0382760698331
 31
0.0
  0
LINE
  5
3FC
  8
0
 10
209.118208524024
 20
243.0382760698331
 30
0.0
 11
209.118208524024
 21
234.5382760698331
 31
0.0
  0
LINE
  5
3FD
  8
0
 10
191.11820852402391
 20
219.03827606983319
 30
0.0
 11
191.11820852402391
 21
238.0382760698331
 31
0.0
  0
LINE
  5
3FE
  8
0
 10
208.118208524024
 20
244.0382760698331
 30
0.0
 11
203.118208524024
 21
244.0382760698331
 31
0.0
  0
LINE
  5
3FF
  8
0
 10
191.11820852402391
 20
238.0382760698331
 30
0.0
 11
201.11820852402391
 21
245.03827606983589
 31
0.0
  0
ARC
  5
400
  8
0
 10
201.11820852402391
 20
242.53827606984009
 30
0.0
 40
2.4999999999958362
 50
36.869897645717657
 51
90.0
  0
ARC
  5
401
  8
0
 10
208.118208524024
 20
243.0382760698331
 30
0.0
 40
1.0
 50
0.0
 51
90.0
  0
LINE
  5
402
  8
0
 10
209.11820852402391
 20
227.5382760698331
 30
0.0
 11
209.118208524024
 21
224.5382760698331
 31
0.0
  0
LINE
  5
403
  8
0
 10
209.118208524024
 20
232.5382760698331
 30
0.0
 11
209.118208524024
 21
229.5382760698331
 31
0.0
  0
ARC
  5
404
  8
0
 10
209.11820852402661
 20
233.53827606983501
 30
0.0
 40
1.000000000001833
 50
90.000000000146557
 51
269.99999999985022
  0
ARC
  5
405
  8
0
 10
209.1182085240265
 20
228.53827606983501
 30
0.0
 40
1.000000000001833
 50
90.000000000146557
 51
269.99999999985022
  0
ARC
  5
406
  8
0
 10
209.11820852402391
 20
223.53827606983501
 30
0.0
 40
1.000000000001833
 50
90.000000000146557
 51
269.99999999985022
  0
LINE
  5
407
  8
0
 10
208.118208524024
 20
213.0382760698331
 30
0.0
 11
203.118208524024
 21
213.0382760698331
 31
0.0
  0
ARC
  5
408
  8
0
 10
201.11820852402391
 20
214.5382760698262
 30
0.0
 40
2.4999999999958362
 50
270.0
 51
323.13010235428231
  0
ARC
  5
409
  8
0
 10
208.118208524024
 20
214.0382760698331
 30
0.0
 40
1.0
 50
270.0
 51
0.0
  0
LINE
  5
5D8
  8
0
 10
137.4182085240239
 20
224.5382760698331
 30
0.0
 11
143.11820852402391
 21
224.5382760698331
 31
0.0
  0
LINE
  5
5D9
  8
0
 10
137.4182085240239
 20
232.53827606983319
 30
0.0
 11
143.11820852402391
 21
232.5382760698331
 31
0.0
  0
LINE
  5
5DA
  8
0
 10
135.7068551184625
 20
231.55022572045371
 30
0.0
 11
135.7068551184625
 21
225.50317922305061
 31
0.0
  0
LINE
  5
5DB
  8
0
 10
137.41820852402381
 20
232.51512887367119
 30
0.0
 11
137.41820852402381
 21
224.53827606983299
 31
0.0
  0
LINE
  5
5DC
  8
0
 10
137.41820852402381
 20
232.5382760698331
 30
0.0
 11
135.7068551184625
 21
231.55022572045371
 31
0.0
  0
ARC
  5
5DD
  8
0
 10
143.11820852402391
 20
228.5382760698331
 30
0.0
 40
8.0
 50
157.88333686751551
 51
202.3510852422734
  0
LINE
  5
5E6
  8
0
 10
137.41820852402381
 20
224.51512887367119
 30
0.0
 11
135.7068551184625
 21
225.50317922305061
 31
0.0
  0
LINE
  5
5E7
  8
0
 10
137.41820852402381
 20
150.26958376929619
 30
0.0
 11
135.7068551184625
 21
151.25763411867561
 31
0.0
  0
ARC
  5
5E8
  8
0
 10
143.11820852402391
 20
154.29273096545811
 30
0.0
 40
8.0
 50
157.88333686751551
 51
202.3510852422734
  0
LINE
  5
5E9
  8
0
 10
137.41820852402381
 20
158.29273096545811
 30
0.0
 11
135.7068551184625
 21
157.30468061607871
 31
0.0
  0
LINE
  5
5EA
  8
0
 10
137.41820852402381
 20
158.2695837692963
 30
0.0
 11
137.41820852402381
 21
150.29273096545799
 31
0.0
  0
LINE
  5
5EB
  8
0
 10
135.7068551184625
 20
157.30468061607871
 30
0.0
 11
135.7068551184625
 21
151.25763411867561
 31
0.0
  0
LINE
  5
5EC
  8
0
 10
137.4182085240239
 20
158.29273096545819
 30
0.0
 11
143.11820852402391
 21
158.29273096545811
 31
0.0
  0
LINE
  5
5ED
  8
0
 10
137.4182085240239
 20
150.29273096545811
 30
0.0
 11
143.11820852402391
 21
150.29273096545811
 31
0.0
  0
LINE
  5
5EE
  8
0
 10
137.4182085240239
 20
76.047185861083193
 30
0.0
 11
143.11820852402391
 21
76.047185861083193
 31
0.0
  0
LINE
  5
5EF
  8
0
 10
137.4182085240239
 20
84.04718586108325
 30
0.0
 11
143.11820852402391
 21
84.047185861083193
 31
0.0
  0
LINE
  5
5F0
  8
0
 10
135.7068551184625
 20
83.059135511703772
 30
0.0
 11
135.7068551184625
 21
77.012089014300699
 31
0.0
  0
LINE
  5
5F1
  8
0
 10
137.41820852402381
 20
84.024038664921335
 30
0.0
 11
137.41820852402381
 21
76.047185861083136
 31
0.0
  0
LINE
  5
5F2
  8
0
 10
137.41820852402381
 20
84.047185861083193
 30
0.0
 11
135.7068551184625
 21
83.059135511703772
 31
0.0
  0
ARC
  5
5F3
  8
0
 10
143.11820852402391
 20
80.047185861083236
 30
0.0
 40
8.0
 50
157.88333686751551
 51
202.3510852422734
  0
LINE
  5
5F4
  8
0
 10
137.41820852402381
 20
76.024038664921278
 30
0.0
 11
135.7068551184625
 21
77.012089014300699
 31
0.0
  0
CIRCLE
  5
5F7
  8
0
 10
77.118208524024823
 20
154.29273096545811
 30
0.0
 40
3.0119496506205792
  0
TEXT
  5
6A4
  8
0
 62
     3
 10
0.0
 20
0.0
 30
0.0
 40
5.0
  1
NDX16
  7
STANDARD1
  0
ENDSEC
  0
EOF
