  0
SECTION
  2
HEADER
  9
$ACADVER
  1
AC1009
  9
$INSBASE
 10
0.0
 20
0.0
 30
0.0
  9
$EXTMIN
 10
0.0
 20
-2.960436562073669
 30
0.0
  9
$EXTMAX
 10
117.24845978402141
 20
130.8925094790383
 30
0.0
  9
$LIMMIN
 10
0.0
 20
0.0
  9
$LIMMAX
 10
375.0
 20
270.0
  9
$ORTHOMODE
 70
     1
  9
$REGENMODE
 70
     1
  9
$FILLMODE
 70
     1
  9
$QTEXTMODE
 70
     0
  9
$MIRRTEXT
 70
     0
  9
$DRAGMODE
 70
     2
  9
$LTSCALE
 40
6.0
  9
$OSMODE
 70
    37
  9
$ATTMODE
 70
     1
  9
$TEXTSIZE
 40
0.2
  9
$TRACEWID
 40
0.05
  9
$TEXTSTYLE
  7
STANDARD
  9
$CLAYER
  8
0
  9
$CELTYPE
  6
BYLAYER
  9
$CECOLOR
 62
   256
  9
$DIMSCALE
 40
1.0
  9
$DIMASZ
 40
3.0
  9
$DIMEXO
 40
1.0
  9
$DIMDLI
 40
6.0
  9
$DIMRND
 40
0.0
  9
$DIMDLE
 40
0.0
  9
$DIMEXE
 40
1.0
  9
$DIMTP
 40
495.0
  9
$DIMTM
 40
0.0
  9
$DIMTXT
 40
3.0
  9
$DIMCEN
 40
0.0
  9
$DIMTSZ
 40
0.0
  9
$DIMTOL
 70
     0
  9
$DIMLIM
 70
     0
  9
$DIMTIH
 70
     0
  9
$DIMTOH
 70
     0
  9
$DIMSE1
 70
     0
  9
$DIMSE2
 70
     0
  9
$DIMTAD
 70
     1
  9
$DIMZIN
 70
     0
  9
$DIMBLK
  1

  9
$DIMASO
 70
     0
  9
$DIMSHO
 70
     0
  9
$DIMPOST
  1

  9
$DIMAPOST
  1

  9
$DIMALT
 70
     0
  9
$DIMALTD
 70
     2
  9
$DIMALTF
 40
25.399999999999999
  9
$DIMLFAC
 40
1.0
  9
$DIMTOFL
 70
     1
  9
$DIMTVP
 40
0.0
  9
$DIMTIX
 70
     1
  9
$DIMSOXD
 70
     0
  9
$DIMSAH
 70
     0
  9
$DIMBLK1
  1

  9
$DIMBLK2
  1

  9
$DIMSTYLE
  2
STANDARD
  9
$DIMCLRD
 70
     0
  9
$DIMCLRE
 70
     0
  9
$DIMCLRT
 70
     4
  9
$DIMTFAC
 40
1.0
  9
$DIMGAP
 40
1.0
  9
$LUNITS
 70
     2
  9
$LUPREC
 70
     4
  9
$SKETCHINC
 40
0.1
  9
$FILLETRAD
 40
2.0
  9
$AUNITS
 70
     0
  9
$AUPREC
 70
     0
  9
$MENU
  1
C:\R13\WIN\SUPPORT\ACAD-I
  9
$ELEVATION
 40
0.0
  9
$PELEVATION
 40
0.0
  9
$THICKNESS
 40
0.0
  9
$LIMCHECK
 70
     0
  9
$BLIPMODE
 70
     0
  9
$CHAMFERA
 40
0.0
  9
$CHAMFERB
 40
0.0
  9
$SKPOLY
 70
     0
  9
$TDCREATE
 40
2451963.5438110419
  9
$TDUPDATE
 40
2456598.7260265858
  9
$TDINDWG
 40
0.1661784954
  9
$TDUSRTIMER
 40
2456598.115409445
  9
$USRTIMER
 70
     1
  9
$ANGBASE
 50
0.0
  9
$ANGDIR
 70
     0
  9
$PDMODE
 70
     0
  9
$PDSIZE
 40
0.0
  9
$PLINEWID
 40
0.0
  9
$COORDS
 70
     1
  9
$SPLFRAME
 70
     0
  9
$SPLINETYPE
 70
     6
  9
$SPLINESEGS
 70
     8
  9
$ATTDIA
 70
     0
  9
$ATTREQ
 70
     1
  9
$HANDLING
 70
     1
  9
$HANDSEED
  5
E2DA
  9
$SURFTAB1
 70
     6
  9
$SURFTAB2
 70
     6
  9
$SURFTYPE
 70
     6
  9
$SURFU
 70
     6
  9
$SURFV
 70
     6
  9
$UCSNAME
  2

  9
$UCSORG
 10
0.0
 20
0.0
 30
0.0
  9
$UCSXDIR
 10
1.0
 20
0.0
 30
0.0
  9
$UCSYDIR
 10
0.0
 20
1.0
 30
0.0
  9
$PUCSNAME
  2

  9
$PUCSORG
 10
0.0
 20
0.0
 30
0.0
  9
$PUCSXDIR
 10
1.0
 20
0.0
 30
0.0
  9
$PUCSYDIR
 10
0.0
 20
1.0
 30
0.0
  9
$USERI1
 70
     4
  9
$USERI2
 70
     1
  9
$USERI3
 70
     0
  9
$USERI4
 70
     0
  9
$USERI5
 70
     0
  9
$USERR1
 40
1.0
  9
$USERR2
 40
3.0
  9
$USERR3
 40
3.0
  9
$USERR4
 40
3.0
  9
$USERR5
 40
10.0
  9
$WORLDVIEW
 70
     1
  9
$SHADEDGE
 70
     3
  9
$SHADEDIF
 70
    70
  9
$TILEMODE
 70
     1
  9
$MAXACTVP
 70
    16
  9
$PLIMCHECK
 70
     0
  9
$PEXTMIN
 10
1.0000000000000000E+020
 20
1.0000000000000000E+020
 30
1.0000000000000000E+020
  9
$PEXTMAX
 10
-1.0000000000000000E+020
 20
-1.0000000000000000E+020
 30
-1.0000000000000000E+020
  9
$PLIMMIN
 10
0.0
 20
0.0
  9
$PLIMMAX
 10
12.0
 20
9.0
  9
$UNITMODE
 70
     0
  9
$VISRETAIN
 70
     0
  9
$PLINEGEN
 70
     0
  9
$PSLTSCALE
 70
     0
  0
ENDSEC
  0
SECTION
  2
TABLES
  0
TABLE
  2
VPORT
 70
     1
  0
VPORT
  2
*ACTIVE
 70
     0
 10
0.0
 20
0.0
 11
1.0
 21
1.0
 12
187.49427839065231
 22
177.52205812711131
 13
0.0
 23
0.0
 14
10.0
 24
10.0
 15
10.0
 25
10.0
 16
0.0
 26
0.0
 36
1.0
 17
0.0
 27
0.0
 37
0.0
 40
364.13085016302909
 41
1.755244755244755
 42
50.0
 43
0.0
 44
0.0
 50
0.0
 51
0.0
 71
     0
 72
   100
 73
     1
 74
     0
 75
     0
 76
     0
 77
     0
 78
     0
  0
ENDTAB
  0
TABLE
  2
LTYPE
 70
     4
  0
LTYPE
  2
CONTINUOUS
 70
     0
  3
Solid Line
 72
    65
 73
     0
 40
0.0
  0
LTYPE
  2
CENTER
 70
     0
  3
____ _ ____ _ ____ _ ____ _ ____ _ ____ _ ____
 72
    65
 73
     4
 40
2.0
 49
1.25
 49
-0.25
 49
0.25
 49
-0.25
  0
LTYPE
  2
HIDDEN
 70
     0
  3
_ _ _ _ _ _ _ _ _ _ _ _ _ _ _ _ _ _ _ _ _ _ _
 72
    65
 73
     2
 40
0.375
 49
0.25
 49
-0.125
  0
LTYPE
  2
PHANTOM2
 70
     0
  3
___ _ _ ___ _ _ ___ _ _ ___ _ _
 72
    65
 73
     6
 40
1.25
 49
0.625
 49
-0.125
 49
0.125
 49
-0.125
 49
0.125
 49
-0.125
  0
ENDTAB
  0
TABLE
  2
LAYER
 70
     5
  0
LAYER
  2
0
 70
     0
 62
     7
  6
CONTINUOUS
  0
LAYER
  2
1
 70
     0
 62
     1
  6
CENTER
  0
LAYER
  2
3
 70
     0
 62
     3
  6
CONTINUOUS
  0
LAYER
  2
2
 70
     0
 62
     2
  6
HIDDEN
  0
LAYER
  2
DEFPOINTS
 70
     0
 62
     7
  6
CONTINUOUS
  0
ENDTAB
  0
TABLE
  2
STYLE
 70
     2
  0
STYLE
  2
STANDARD
 70
     0
 40
0.0
 41
1.0
 50
0.0
 71
     0
 42
0.2
  3
SIMPLEX
  4
BIGFONT
  0
STYLE
  2
STANDARD1
 70
     0
 40
0.0
 41
1.0
 50
0.0
 71
     0
 42
3.0
  3
txt
  4

  0
ENDTAB
  0
TABLE
  2
VIEW
 70
     0
  0
ENDTAB
  0
TABLE
  2
UCS
 70
     0
  0
ENDTAB
  0
TABLE
  2
APPID
 70
    29
  0
APPID
  2
ACAD
 70
     0
  0
APPID
  2
GENIUS_GENOREF_13
 70
     0
  0
APPID
  2
GENIUS_GENOENT_13
 70
     0
  0
APPID
  2
GENIUS_GENBH_13
 70
     0
  0
APPID
  2
GENIUS_GENOBJ_13
 70
     0
  0
APPID
  2
GENIUS_GENODEF_13
 70
     0
  0
APPID
  2
GENIUS_GENOLIS_13
 70
     0
  0
APPID
  2
GENIUS_GENOBJ-NBEHI-BHF_13
 70
     0
  0
APPID
  2
GENIUS_GENOBJ-NBEHI-BHB_13
 70
     0
  0
APPID
  2
GENIUS_GENOBJ-F-PART_13
 70
     0
  0
APPID
  2
GENIUS_GEFSTDP_13
 70
     0
  0
APPID
  2
GENIUS_GENOBJ-N-RSSYM_13
 70
     0
  0
APPID
  2
GENIUS_GENSYMENT_13
 70
     0
  0
APPID
  2
GENIUS_GENOBJ-N-TIT_13
 70
     0
  0
APPID
  2
GENIUS_GENTITLE_13
 70
     0
  0
APPID
  2
GENIUS_GENZVEED_13
 70
     0
  0
APPID
  2
GENIUS_GENOBJ-N-LEADER_13
 70
     0
  0
APPID
  2
GENIUS_GENOBJ-N-FIL_13
 70
     0
  0
APPID
  2
GENIUS_GENOBJ-N-SEC_13
 70
     0
  0
APPID
  2
GENIUS_GENOBJ-N-CRS_13
 70
     0
  0
APPID
  2
GENIUS_GENOBJ-N-ZOO_13
 70
     0
  0
APPID
  2
GENIUS_GENZOO_13
 70
     0
  0
APPID
  2
GENIUS_GENOBJ-F-TOL_13
 70
     0
  0
APPID
  2
GENIUS_GENFIL_13
 70
     0
  0
APPID
  2
GENIUS_GENOBJ-N-CHA_13
 70
     0
  0
APPID
  2
_CALL_MAC$
 70
     0
  0
APPID
  2
ACAD_NAV_VCDISPLAY
 70
     0
  0
APPID
  2
ACAD_EXEMPT_FROM_CAD_STANDARDS
 70
     0
  0
APPID
  2
ACAD_MLEADERVER
 70
     0
  0
ENDTAB
  0
TABLE
  2
DIMSTYLE
 70
     1
  0
DIMSTYLE
  2
STANDARD
 70
     0
  3

  4

  5

  6

  7

 40
1.0
 41
0.18
 42
0.0625
 43
0.38
 44
0.18
 45
0.0
 46
0.0
 47
0.0
 48
0.0
140
0.18
141
0.09
142
0.0
143
25.399999999999999
144
1.0
145
0.0
146
1.0
147
0.09
 71
     0
 72
     0
 73
     1
 74
     1
 75
     0
 76
     0
 77
     0
 78
     0
170
     0
171
     2
172
     0
173
     0
174
     0
175
     0
176
     0
177
     0
178
     0
  0
ENDTAB
  0
ENDSEC
  0
SECTION
  2
BLOCKS
  0
BLOCK
  8
0
  2
$MODEL_SPACE
 70
     0
 10
0.0
 20
0.0
 30
0.0
  3
$MODEL_SPACE
  1

  0
ENDBLK
  5
CF6E
  8
0
  0
BLOCK
 67
     1
  8
0
  2
$PAPER_SPACE
 70
     0
 10
0.0
 20
0.0
 30
0.0
  3
$PAPER_SPACE
  1

  0
ENDBLK
  5
CF6C
 67
     1
  8
0
  0
ENDSEC
  0
SECTION
  2
ENTITIES
  0
LINE
  5
DD94
  8
2
 10
24.742906284556291
 20
94.963813791450235
 30
0.0
 11
26.598459784021429
 21
93.892509479038296
 31
0.0
  0
LINE
  5
DD95
  8
2
 10
37.898459784021377
 20
93.892509479038296
 30
0.0
 11
39.754013283486529
 21
94.963813791450235
 31
0.0
  0
LINE
  5
DD96
  8
2
 10
26.598459784021429
 20
100.3925094790383
 30
0.0
 11
24.742906284556291
 21
99.321205166626356
 31
0.0
  0
LINE
  5
DD97
  8
2
 10
39.754013283486529
 20
99.321205166626356
 30
0.0
 11
37.898459784021377
 21
100.3925094790383
 31
0.0
  0
LINE
  5
DD9E
  8
2
 10
37.898459784021377
 20
93.892509479038296
 30
0.0
 11
26.598459784021429
 21
93.892509479038296
 31
0.0
  0
LINE
  5
DD9F
  8
2
 10
37.898459784021377
 20
100.3925094790383
 30
0.0
 11
26.598459784021429
 21
100.3925094790383
 31
0.0
  0
POLYLINE
  5
DDA3
  8
2
 66
     1
 10
0.0
 20
0.0
 30
0.0
  0
VERTEX
  5
E0FA
  8
2
 10
39.754013283486529
 20
94.963813791450235
 30
0.0
  0
VERTEX
  5
E0FB
  8
2
 10
39.635084610389747
 20
94.896808247265142
 30
0.0
  0
VERTEX
  5
E0FC
  8
2
 10
39.405178458206542
 20
94.777112802056365
 30
0.0
  0
VERTEX
  5
E0FD
  8
2
 10
39.184437031903258
 20
94.675272653118526
 30
0.0
  0
VERTEX
  5
E0FE
  8
2
 10
39.07701006694316
 20
94.630651247471647
 30
0.0
  0
VERTEX
  5
E0FF
  8
2
 10
38.97130343796357
 20
94.590048233442332
 30
0.0
  0
VERTEX
  5
E100
  8
2
 10
38.76437625456839
 20
94.520438118476179
 30
0.0
  0
VERTEX
  5
E101
  8
2
 10
38.562376055850109
 20
94.465648274285684
 30
0.0
  0
VERTEX
  5
E102
  8
2
 10
38.364117167538041
 20
94.425068660278313
 30
0.0
  0
VERTEX
  5
E103
  8
2
 10
38.168483275175277
 20
94.398255856482194
 30
0.0
  0
VERTEX
  5
E104
  8
2
 10
37.974405785375673
 20
94.384920769376009
 30
0.0
  0
VERTEX
  5
E105
  8
2
 10
37.877624908620248
 20
94.383257207849482
 30
0.0
  0
VERTEX
  5
E106
  8
2
 10
37.780844031864831
 20
94.384920769376009
 30
0.0
  0
VERTEX
  5
E107
  8
2
 10
37.586766542065277
 20
94.398255856482194
 30
0.0
  0
VERTEX
  5
E108
  8
2
 10
37.391132649702463
 20
94.425068660278313
 30
0.0
  0
VERTEX
  5
E109
  8
2
 10
37.192873761390388
 20
94.465648274285684
 30
0.0
  0
VERTEX
  5
E10A
  8
2
 10
36.990873562672171
 20
94.520438118476179
 30
0.0
  0
VERTEX
  5
E10B
  8
2
 10
36.783946379276927
 20
94.590048233442332
 30
0.0
  0
VERTEX
  5
E10C
  8
2
 10
36.678239750297386
 20
94.630651247471647
 30
0.0
  0
VERTEX
  5
E10D
  8
2
 10
36.570812785337239
 20
94.675272653118526
 30
0.0
  0
VERTEX
  5
E10E
  8
2
 10
36.350071359034018
 20
94.777112802056365
 30
0.0
  0
VERTEX
  5
E10F
  8
2
 10
36.120165206850743
 20
94.896808247265142
 30
0.0
  0
VERTEX
  5
E110
  8
2
 10
36.001236533753968
 20
94.963813791450235
 30
0.0
  0
SEQEND
  5
E111
  8
2
  0
POLYLINE
  5
DDA4
  8
2
 66
     1
 10
0.0
 20
0.0
 30
0.0
  0
VERTEX
  5
E112
  8
2
 10
36.001236533753968
 20
99.321205166626356
 30
0.0
  0
VERTEX
  5
E113
  8
2
 10
36.120165206850743
 20
99.38821071081145
 30
0.0
  0
VERTEX
  5
E114
  8
2
 10
36.350071359034018
 20
99.50790615602024
 30
0.0
  0
VERTEX
  5
E115
  8
2
 10
36.570812785337239
 20
99.609746304958065
 30
0.0
  0
VERTEX
  5
E116
  8
2
 10
36.678239750297386
 20
99.654367710604944
 30
0.0
  0
VERTEX
  5
E117
  8
2
 10
36.783946379276927
 20
99.694970724634246
 30
0.0
  0
VERTEX
  5
E118
  8
2
 10
36.990873562672171
 20
99.764580839600413
 30
0.0
  0
VERTEX
  5
E119
  8
2
 10
37.192873761390388
 20
99.819370683790908
 30
0.0
  0
VERTEX
  5
E11A
  8
2
 10
37.391132649702463
 20
99.859950297798264
 30
0.0
  0
VERTEX
  5
E11B
  8
2
 10
37.586766542065277
 20
99.886763101594411
 30
0.0
  0
VERTEX
  5
E11C
  8
2
 10
37.780844031864831
 20
99.900098188700554
 30
0.0
  0
VERTEX
  5
E11D
  8
2
 10
37.877624908620248
 20
99.901761750227095
 30
0.0
  0
VERTEX
  5
E11E
  8
2
 10
37.974405785375673
 20
99.900098188700582
 30
0.0
  0
VERTEX
  5
E11F
  8
2
 10
38.168483275175277
 20
99.886763101594411
 30
0.0
  0
VERTEX
  5
E120
  8
2
 10
38.364117167538041
 20
99.859950297798264
 30
0.0
  0
VERTEX
  5
E121
  8
2
 10
38.562376055850109
 20
99.819370683790908
 30
0.0
  0
VERTEX
  5
E122
  8
2
 10
38.76437625456839
 20
99.764580839600413
 30
0.0
  0
VERTEX
  5
E123
  8
2
 10
38.97130343796357
 20
99.694970724634246
 30
0.0
  0
VERTEX
  5
E124
  8
2
 10
39.07701006694316
 20
99.654367710604944
 30
0.0
  0
VERTEX
  5
E125
  8
2
 10
39.184437031903258
 20
99.60974630495808
 30
0.0
  0
VERTEX
  5
E126
  8
2
 10
39.405178458206542
 20
99.50790615602024
 30
0.0
  0
VERTEX
  5
E127
  8
2
 10
39.635084610389747
 20
99.388210710811464
 30
0.0
  0
VERTEX
  5
E128
  8
2
 10
39.754013283486529
 20
99.321205166626356
 30
0.0
  0
SEQEND
  5
E129
  8
2
  0
POLYLINE
  5
DDA6
  8
2
 66
     1
 10
0.0
 20
0.0
 30
0.0
  0
VERTEX
  5
E12A
  8
2
 10
24.742906284556291
 20
94.963813791450235
 30
0.0
  0
VERTEX
  5
E12B
  8
2
 10
24.861834957653059
 20
94.896808247265142
 30
0.0
  0
VERTEX
  5
E12C
  8
2
 10
25.091741109836281
 20
94.777112802056365
 30
0.0
  0
VERTEX
  5
E12D
  8
2
 10
25.312482536139559
 20
94.675272653118526
 30
0.0
  0
VERTEX
  5
E12E
  8
2
 10
25.41990950109966
 20
94.630651247471647
 30
0.0
  0
VERTEX
  5
E12F
  8
2
 10
25.525616130079239
 20
94.590048233442332
 30
0.0
  0
VERTEX
  5
E130
  8
2
 10
25.732543313474419
 20
94.520438118476179
 30
0.0
  0
VERTEX
  5
E131
  8
2
 10
25.9345435121927
 20
94.465648274285684
 30
0.0
  0
VERTEX
  5
E132
  8
2
 10
26.132802400504769
 20
94.425068660278313
 30
0.0
  0
VERTEX
  5
E133
  8
2
 10
26.32843629286754
 20
94.398255856482194
 30
0.0
  0
VERTEX
  5
E134
  8
2
 10
26.522513782667151
 20
94.384920769376009
 30
0.0
  0
VERTEX
  5
E135
  8
2
 10
26.619294659422561
 20
94.383257207849482
 30
0.0
  0
VERTEX
  5
E136
  8
2
 10
26.716075536177989
 20
94.384920769376009
 30
0.0
  0
VERTEX
  5
E137
  8
2
 10
26.910153025977539
 20
94.398255856482194
 30
0.0
  0
VERTEX
  5
E138
  8
2
 10
27.10578691834036
 20
94.425068660278313
 30
0.0
  0
VERTEX
  5
E139
  8
2
 10
27.304045806652429
 20
94.465648274285684
 30
0.0
  0
VERTEX
  5
E13A
  8
2
 10
27.506046005370649
 20
94.520438118476179
 30
0.0
  0
VERTEX
  5
E13B
  8
2
 10
27.71297318876589
 20
94.590048233442332
 30
0.0
  0
VERTEX
  5
E13C
  8
2
 10
27.818679817745419
 20
94.630651247471647
 30
0.0
  0
VERTEX
  5
E13D
  8
2
 10
27.926106782705581
 20
94.675272653118526
 30
0.0
  0
VERTEX
  5
E13E
  8
2
 10
28.146848209008791
 20
94.777112802056365
 30
0.0
  0
VERTEX
  5
E13F
  8
2
 10
28.37675436119207
 20
94.896808247265142
 30
0.0
  0
VERTEX
  5
E140
  8
2
 10
28.495683034288849
 20
94.963813791450235
 30
0.0
  0
SEQEND
  5
E141
  8
2
  0
POLYLINE
  5
DDA7
  8
2
 66
     1
 10
0.0
 20
0.0
 30
0.0
  0
VERTEX
  5
E142
  8
2
 10
28.495683034288849
 20
99.321205166626356
 30
0.0
  0
VERTEX
  5
E143
  8
2
 10
28.37675436119207
 20
99.38821071081145
 30
0.0
  0
VERTEX
  5
E144
  8
2
 10
28.146848209008791
 20
99.50790615602024
 30
0.0
  0
VERTEX
  5
E145
  8
2
 10
27.926106782705581
 20
99.609746304958065
 30
0.0
  0
VERTEX
  5
E146
  8
2
 10
27.818679817745419
 20
99.654367710604944
 30
0.0
  0
VERTEX
  5
E147
  8
2
 10
27.71297318876589
 20
99.694970724634246
 30
0.0
  0
VERTEX
  5
E148
  8
2
 10
27.506046005370649
 20
99.764580839600413
 30
0.0
  0
VERTEX
  5
E149
  8
2
 10
27.304045806652429
 20
99.819370683790908
 30
0.0
  0
VERTEX
  5
E14A
  8
2
 10
27.10578691834036
 20
99.859950297798264
 30
0.0
  0
VERTEX
  5
E14B
  8
2
 10
26.910153025977539
 20
99.886763101594411
 30
0.0
  0
VERTEX
  5
E14C
  8
2
 10
26.716075536177989
 20
99.900098188700554
 30
0.0
  0
VERTEX
  5
E14D
  8
2
 10
26.619294659422561
 20
99.901761750227095
 30
0.0
  0
VERTEX
  5
E14E
  8
2
 10
26.522513782667151
 20
99.900098188700582
 30
0.0
  0
VERTEX
  5
E14F
  8
2
 10
26.32843629286754
 20
99.886763101594411
 30
0.0
  0
VERTEX
  5
E150
  8
2
 10
26.132802400504769
 20
99.859950297798264
 30
0.0
  0
VERTEX
  5
E151
  8
2
 10
25.9345435121927
 20
99.819370683790908
 30
0.0
  0
VERTEX
  5
E152
  8
2
 10
25.732543313474419
 20
99.764580839600413
 30
0.0
  0
VERTEX
  5
E153
  8
2
 10
25.525616130079239
 20
99.694970724634246
 30
0.0
  0
VERTEX
  5
E154
  8
2
 10
25.41990950109966
 20
99.654367710604944
 30
0.0
  0
VERTEX
  5
E155
  8
2
 10
25.312482536139559
 20
99.60974630495808
 30
0.0
  0
VERTEX
  5
E156
  8
2
 10
25.091741109836281
 20
99.50790615602024
 30
0.0
  0
VERTEX
  5
E157
  8
2
 10
24.861834957653059
 20
99.388210710811464
 30
0.0
  0
VERTEX
  5
E158
  8
2
 10
24.742906284556291
 20
99.321205166626356
 30
0.0
  0
SEQEND
  5
E159
  8
2
  0
LINE
  5
DDA8
  8
2
 10
28.495683034288849
 20
94.963813791450235
 30
0.0
 11
28.495683034288849
 21
99.321205166626356
 31
0.0
  0
POLYLINE
  5
DDA9
  8
2
 66
     1
 10
0.0
 20
0.0
 30
0.0
  0
VERTEX
  5
E15A
  8
2
 10
28.495683034288849
 20
94.963813791450235
 30
0.0
  0
VERTEX
  5
E15B
  8
2
 10
28.733540380482399
 20
94.896808247265113
 30
0.0
  0
VERTEX
  5
E15C
  8
2
 10
29.193352684848829
 20
94.777112802056365
 30
0.0
  0
VERTEX
  5
E15D
  8
2
 10
29.634835537455391
 20
94.675272653118526
 30
0.0
  0
VERTEX
  5
E15E
  8
2
 10
29.84968946737558
 20
94.630651247471647
 30
0.0
  0
VERTEX
  5
E15F
  8
2
 10
30.06110272533471
 20
94.590048233442332
 30
0.0
  0
VERTEX
  5
E160
  8
2
 10
30.47495709212512
 20
94.520438118476179
 30
0.0
  0
VERTEX
  5
E161
  8
2
 10
30.878957489561738
 20
94.465648274285684
 30
0.0
  0
VERTEX
  5
E162
  8
2
 10
31.275475266185818
 20
94.425068660278313
 30
0.0
  0
VERTEX
  5
E163
  8
2
 10
31.666743050911411
 20
94.398255856482194
 30
0.0
  0
VERTEX
  5
E164
  8
2
 10
32.054898030510508
 20
94.384920769376009
 30
0.0
  0
VERTEX
  5
E165
  8
2
 10
32.248459784021406
 20
94.383257207849482
 30
0.0
  0
VERTEX
  5
E166
  8
2
 10
32.442021537532298
 20
94.384920769376009
 30
0.0
  0
VERTEX
  5
E167
  8
2
 10
32.830176517131413
 20
94.398255856482194
 30
0.0
  0
VERTEX
  5
E168
  8
2
 10
33.221444301856991
 20
94.425068660278313
 30
0.0
  0
VERTEX
  5
E169
  8
2
 10
33.617962078481071
 20
94.465648274285684
 30
0.0
  0
VERTEX
  5
E16A
  8
2
 10
34.02196247591769
 20
94.520438118476179
 30
0.0
  0
VERTEX
  5
E16B
  8
2
 10
34.435816842708107
 20
94.590048233442332
 30
0.0
  0
VERTEX
  5
E16C
  8
2
 10
34.64723010066723
 20
94.630651247471647
 30
0.0
  0
VERTEX
  5
E16D
  8
2
 10
34.862084030587432
 20
94.675272653118526
 30
0.0
  0
VERTEX
  5
E16E
  8
2
 10
35.30356688319398
 20
94.777112802056365
 30
0.0
  0
VERTEX
  5
E16F
  8
2
 10
35.763379187560417
 20
94.896808247265113
 30
0.0
  0
VERTEX
  5
E170
  8
2
 10
36.001236533753968
 20
94.963813791450235
 30
0.0
  0
SEQEND
  5
E171
  8
2
  0
LINE
  5
DDAA
  8
2
 10
36.001236533753968
 20
94.963813791450235
 30
0.0
 11
36.001236533753968
 21
99.321205166626356
 31
0.0
  0
POLYLINE
  5
DDAB
  8
2
 66
     1
 10
0.0
 20
0.0
 30
0.0
  0
VERTEX
  5
E172
  8
2
 10
36.001236533753968
 20
99.321205166626356
 30
0.0
  0
VERTEX
  5
E173
  8
2
 10
35.763379187560417
 20
99.38821071081145
 30
0.0
  0
VERTEX
  5
E174
  8
2
 10
35.30356688319398
 20
99.50790615602024
 30
0.0
  0
VERTEX
  5
E175
  8
2
 10
34.862084030587432
 20
99.60974630495808
 30
0.0
  0
VERTEX
  5
E176
  8
2
 10
34.64723010066723
 20
99.654367710604944
 30
0.0
  0
VERTEX
  5
E177
  8
2
 10
34.435816842708107
 20
99.694970724634246
 30
0.0
  0
VERTEX
  5
E178
  8
2
 10
34.02196247591769
 20
99.764580839600413
 30
0.0
  0
VERTEX
  5
E179
  8
2
 10
33.617962078481071
 20
99.819370683790908
 30
0.0
  0
VERTEX
  5
E17A
  8
2
 10
33.221444301856991
 20
99.859950297798264
 30
0.0
  0
VERTEX
  5
E17B
  8
2
 10
32.830176517131413
 20
99.886763101594411
 30
0.0
  0
VERTEX
  5
E17C
  8
2
 10
32.442021537532298
 20
99.900098188700554
 30
0.0
  0
VERTEX
  5
E17D
  8
2
 10
32.248459784021406
 20
99.901761750227095
 30
0.0
  0
VERTEX
  5
E17E
  8
2
 10
32.054898030510508
 20
99.900098188700582
 30
0.0
  0
VERTEX
  5
E17F
  8
2
 10
31.666743050911411
 20
99.886763101594411
 30
0.0
  0
VERTEX
  5
E180
  8
2
 10
31.275475266185818
 20
99.859950297798264
 30
0.0
  0
VERTEX
  5
E181
  8
2
 10
30.878957489561738
 20
99.819370683790908
 30
0.0
  0
VERTEX
  5
E182
  8
2
 10
30.47495709212512
 20
99.764580839600413
 30
0.0
  0
VERTEX
  5
E183
  8
2
 10
30.06110272533471
 20
99.694970724634246
 30
0.0
  0
VERTEX
  5
E184
  8
2
 10
29.84968946737558
 20
99.654367710604944
 30
0.0
  0
VERTEX
  5
E185
  8
2
 10
29.634835537455391
 20
99.609746304958065
 30
0.0
  0
VERTEX
  5
E186
  8
2
 10
29.193352684848829
 20
99.50790615602024
 30
0.0
  0
VERTEX
  5
E187
  8
2
 10
28.733540380482399
 20
99.388210710811464
 30
0.0
  0
VERTEX
  5
E188
  8
2
 10
28.495683034288849
 20
99.321205166626356
 30
0.0
  0
SEQEND
  5
E189
  8
2
  0
LINE
  5
DDAE
  8
2
 10
36.448459784021402
 20
101.3925094790383
 30
0.0
 11
36.448459784021402
 21
127.8925094790383
 31
0.0
  0
LINE
  5
DDAF
  8
2
 10
28.048459784021421
 20
127.8925094790383
 30
0.0
 11
28.048459784021421
 21
101.3925094790383
 31
0.0
  0
LINE
  5
DDB0
  8
2
 10
36.448459784021402
 20
88.892509479038296
 30
0.0
 11
36.448459784021402
 21
93.892509479038296
 31
0.0
  0
LINE
  5
DDB1
  8
2
 10
28.048459784021421
 20
93.892509479038296
 30
0.0
 11
28.048459784021421
 21
88.892509479038296
 31
0.0
  0
LINE
  5
DDC1
  8
2
 10
28.495683034288849
 20
100.3925094790383
 30
0.0
 11
28.495683034288849
 21
101.3925094790383
 31
0.0
  0
LINE
  5
DDC2
  8
2
 10
36.001236533753968
 20
100.3925094790383
 30
0.0
 11
36.001236533753968
 21
101.3925094790383
 31
0.0
  0
LINE
  5
DDC3
  8
2
 10
39.754013283486529
 20
101.3925094790383
 30
0.0
 11
24.742906284556291
 21
101.3925094790383
 31
0.0
  0
LINE
  5
DDC4
  8
2
 10
39.754013283486529
 20
93.892509479038296
 30
0.0
 11
39.754013283486529
 21
101.3925094790383
 31
0.0
  0
LINE
  5
DDC5
  8
2
 10
24.742906284556291
 20
93.892509479038296
 30
0.0
 11
24.742906284556291
 21
101.3925094790383
 31
0.0
  0
LINE
  5
DDC6
  8
1
 10
32.248459784021406
 20
130.8925094790383
 30
0.0
 11
32.248459784021406
 21
85.892509479038296
 31
0.0
  0
LINE
  5
DDC7
  8
0
 10
19.24845978402141
 20
127.8925094790383
 30
0.0
 11
19.24845978402141
 21
125.7414701758982
 31
0.0
  0
ARC
  5
DDC8
  8
0
 10
17.448459784021392
 20
119.03371827024711
 30
0.0
 40
0.1999999999999993
 50
90.0
 51
180.0
  0
ARC
  5
DDC9
  8
0
 10
47.048459784021418
 20
119.03371827024711
 30
0.0
 40
0.1999999999999975
 50
0.0
 51
90.0
  0
LINE
  5
DDCA
  8
0
 10
47.248459784021399
 20
118.3837182702471
 30
0.0
 11
47.248459784021399
 21
119.03371827024711
 31
0.0
  0
LINE
  5
DDCB
  8
0
 10
17.24845978402141
 20
119.03371827024711
 30
0.0
 11
17.24845978402141
 21
118.3837182702471
 31
0.0
  0
LINE
  5
DDCC
  8
0
 10
45.248459784021399
 20
113.5265754131042
 30
0.0
 11
45.248459784021399
 21
118.3837182702471
 31
0.0
  0
LINE
  5
DDCD
  8
0
 10
19.24845978402141
 20
118.3837182702471
 30
0.0
 11
19.24845978402141
 21
113.5265754131042
 31
0.0
  0
ARC
  5
DDCE
  8
0
 10
17.448459784021392
 20
113.32657541310419
 30
0.0
 40
0.1999999999999993
 50
90.0
 51
180.0
  0
ARC
  5
DDCF
  8
0
 10
47.048459784021418
 20
113.32657541310419
 30
0.0
 40
0.1999999999999993
 50
0.0
 51
90.0
  0
LINE
  5
DDD0
  8
0
 10
47.248459784021399
 20
112.6765754131042
 30
0.0
 11
47.248459784021399
 21
113.32657541310419
 31
0.0
  0
LINE
  5
DDD1
  8
0
 10
17.24845978402141
 20
113.32657541310419
 30
0.0
 11
17.24845978402141
 21
112.6765754131042
 31
0.0
  0
LINE
  5
DDD2
  8
0
 10
45.248459784021399
 20
107.8194325559613
 30
0.0
 11
45.248459784021399
 21
112.6765754131042
 31
0.0
  0
LINE
  5
DDD3
  8
0
 10
19.24845978402141
 20
112.6765754131042
 30
0.0
 11
19.24845978402141
 21
107.8194325559613
 31
0.0
  0
ARC
  5
DDD4
  8
0
 10
17.448459784021392
 20
107.6194325559614
 30
0.0
 40
0.1999999999999993
 50
90.0
 51
180.0
  0
ARC
  5
DDD5
  8
0
 10
47.048459784021418
 20
107.6194325559614
 30
0.0
 40
0.1999999999999975
 50
0.0
 51
90.0
  0
LINE
  5
DDD6
  8
0
 10
47.248459784021399
 20
106.9694325559614
 30
0.0
 11
47.248459784021399
 21
107.6194325559614
 31
0.0
  0
LINE
  5
DDD7
  8
0
 10
17.24845978402141
 20
107.6194325559614
 30
0.0
 11
17.24845978402141
 21
106.9694325559613
 31
0.0
  0
LINE
  5
DDD8
  8
0
 10
47.248459784021399
 20
104.35404794057671
 30
0.0
 11
45.748459784021399
 21
106.9694325559614
 31
0.0
  0
LINE
  5
DDD9
  8
0
 10
18.74845978402141
 20
106.9694325559614
 30
0.0
 11
17.24845978402141
 21
104.35404794057671
 31
0.0
  0
LINE
  5
DDDA
  8
0
 10
45.748459784021399
 20
93.892509479038296
 30
0.0
 11
45.748459784021399
 21
104.35404794057671
 31
0.0
  0
LINE
  5
DDDB
  8
0
 10
18.74845978402141
 20
104.35404794057671
 30
0.0
 11
18.74845978402141
 21
93.892509479038296
 31
0.0
  0
LINE
  5
DDDC
  8
0
 10
45.248459784021399
 20
119.2337182702471
 30
0.0
 11
45.248459784021399
 21
122.6617402482691
 31
0.0
  0
LINE
  5
DDDD
  8
0
 10
19.24845978402141
 20
122.6617402482691
 30
0.0
 11
19.24845978402141
 21
119.2337182702471
 31
0.0
  0
LINE
  5
DDDE
  8
0
 10
45.248459784021399
 20
125.7414701758982
 30
0.0
 11
45.248459784021399
 21
127.8925094790383
 31
0.0
  0
LINE
  5
DDDF
  8
0
 10
43.851558527295992
 20
127.8925094790383
 30
0.0
 11
47.248459784021399
 21
122.6617402482691
 31
0.0
  0
LINE
  5
DDE0
  8
0
 10
17.24845978402141
 20
122.6617402482691
 30
0.0
 11
47.248459784021399
 21
122.6617402482691
 31
0.0
  0
LINE
  5
DDE1
  8
0
 10
17.24845978402141
 20
122.6617402482691
 30
0.0
 11
20.64536104074682
 21
127.8925094790383
 31
0.0
  0
LINE
  5
DDE2
  8
0
 10
17.448459784021392
 20
119.2337182702471
 30
0.0
 11
47.048459784021418
 21
119.2337182702471
 31
0.0
  0
LINE
  5
DDE4
  8
0
 10
17.24845978402141
 20
118.3837182702471
 30
0.0
 11
47.248459784021399
 21
118.3837182702471
 31
0.0
  0
LINE
  5
DDE5
  8
0
 10
17.448459784021392
 20
113.5265754131042
 30
0.0
 11
47.048459784021418
 21
113.5265754131042
 31
0.0
  0
LINE
  5
DDE7
  8
0
 10
17.24845978402141
 20
112.6765754131042
 30
0.0
 11
47.248459784021399
 21
112.6765754131042
 31
0.0
  0
LINE
  5
DDE8
  8
0
 10
17.448459784021392
 20
107.8194325559613
 30
0.0
 11
47.048459784021418
 21
107.8194325559613
 31
0.0
  0
LINE
  5
DDEA
  8
0
 10
17.24845978402141
 20
106.9694325559614
 30
0.0
 11
47.248459784021399
 21
106.9694325559614
 31
0.0
  0
LINE
  5
DDEB
  8
0
 10
17.24845978402141
 20
104.35404794057671
 30
0.0
 11
47.248459784021399
 21
104.35404794057671
 31
0.0
  0
LINE
  5
DDEC
  8
0
 10
19.24845978402141
 20
127.8925094790383
 30
0.0
 11
45.248459784021399
 21
127.8925094790383
 31
0.0
  0
LINE
  5
DDEE
  8
0
 10
47.248459784021399
 20
93.892509479038296
 30
0.0
 11
17.24845978402141
 21
93.892509479038296
 31
0.0
  0
LINE
  5
DDF0
  8
0
 10
17.24845978402141
 20
90.092509479038284
 30
0.0
 11
17.24845978402141
 21
93.892509479038296
 31
0.0
  0
POLYLINE
  5
DDF1
  8
0
 66
     1
 10
0.0
 20
0.0
 30
0.0
  0
VERTEX
  5
E18A
  8
0
 10
17.24845978402141
 20
90.092509479038284
 30
0.0
  0
VERTEX
  5
E18B
  8
0
 10
17.248745351525478
 20
90.066331616996806
 30
0.0
  0
VERTEX
  5
E18C
  8
0
 10
17.251029076135069
 20
90.014025723962135
 30
0.0
  0
VERTEX
  5
E18D
  8
0
 10
17.25559217815464
 20
89.961869229215935
 30
0.0
  0
VERTEX
  5
E18E
  8
0
 10
17.258725950372821
 20
89.935878048374235
 30
0.0
  0
VERTEX
  5
E18F
  8
0
 10
17.262425971460061
 20
89.909961415610397
 30
0.0
  0
VERTEX
  5
E190
  8
0
 10
17.271517447537519
 20
89.858401092618948
 30
0.0
  0
VERTEX
  5
E191
  8
0
 10
17.282849300245509
 20
89.807286408246881
 30
0.0
  0
VERTEX
  5
E192
  8
0
 10
17.296399958758279
 20
89.756714662201105
 30
0.0
  0
VERTEX
  5
E193
  8
0
 10
17.312143628627268
 20
89.706782120674504
 30
0.0
  0
VERTEX
  5
E194
  8
0
 10
17.33005034088205
 20
89.657583833097846
 30
0.0
  0
VERTEX
  5
E195
  8
0
 10
17.339804345007849
 20
89.633289360200195
 30
0.0
  0
VERTEX
  5
E196
  8
0
 10
17.350086009078041
 20
89.609213451207793
 30
0.0
  0
VERTEX
  5
E197
  8
0
 10
17.372212494182179
 20
89.561763050775497
 30
0.0
  0
VERTEX
  5
E198
  8
0
 10
17.39638767717241
 20
89.515322956335027
 30
0.0
  0
VERTEX
  5
E199
  8
0
 10
17.422565539213849
 20
89.469981569245675
 30
0.0
  0
VERTEX
  5
E19A
  8
0
 10
17.450696249258382
 20
89.425825199414774
 30
0.0
  0
VERTEX
  5
E19B
  8
0
 10
17.4807262589004
 20
89.382937901002009
 30
0.0
  0
VERTEX
  5
E19C
  8
0
 10
17.496435775671898
 20
89.361995764227828
 30
0.0
  0
VERTEX
  5
E19D
  8
0
 10
17.51259840430998
 20
89.341401312417418
 30
0.0
  0
VERTEX
  5
E19E
  8
0
 10
17.546252015046662
 20
89.301294500918218
 30
0.0
  0
VERTEX
  5
E19F
  8
0
 10
17.581623029549689
 20
89.26269381209957
 30
0.0
  0
VERTEX
  5
E1A0
  8
0
 10
17.59993164659755
 20
89.243981341614443
 30
0.0
  0
SEQEND
  5
E1A1
  8
0
  0
LINE
  5
DDF3
  8
0
 10
47.248459784021399
 20
90.092509479038284
 30
0.0
 11
47.248459784021399
 21
93.892509479038296
 31
0.0
  0
POLYLINE
  5
DDF4
  8
0
 66
     1
 10
0.0
 20
0.0
 30
0.0
  0
VERTEX
  5
E1A2
  8
0
 10
46.896987921445252
 20
89.243981341614443
 30
0.0
  0
VERTEX
  5
E1A3
  8
0
 10
46.915296538493124
 20
89.26269381209957
 30
0.0
  0
VERTEX
  5
E1A4
  8
0
 10
46.950667552996151
 20
89.301294500918203
 30
0.0
  0
VERTEX
  5
E1A5
  8
0
 10
46.984321163732822
 20
89.341401312417418
 30
0.0
  0
VERTEX
  5
E1A6
  8
0
 10
47.000483792370908
 20
89.361995764227828
 30
0.0
  0
VERTEX
  5
E1A7
  8
0
 10
47.016193309142402
 20
89.382937901001995
 30
0.0
  0
VERTEX
  5
E1A8
  8
0
 10
47.046223318784421
 20
89.425825199414774
 30
0.0
  0
VERTEX
  5
E1A9
  8
0
 10
47.0743540288289
 20
89.469981569245675
 30
0.0
  0
VERTEX
  5
E1AA
  8
0
 10
47.10053189087045
 20
89.515322956335027
 30
0.0
  0
VERTEX
  5
E1AB
  8
0
 10
47.124707073860627
 20
89.561763050775482
 30
0.0
  0
VERTEX
  5
E1AC
  8
0
 10
47.146833558964772
 20
89.609213451207793
 30
0.0
  0
VERTEX
  5
E1AD
  8
0
 10
47.157115223034957
 20
89.633289360200195
 30
0.0
  0
VERTEX
  5
E1AE
  8
0
 10
47.16686922716076
 20
89.657583833097846
 30
0.0
  0
VERTEX
  5
E1AF
  8
0
 10
47.184775939415537
 20
89.706782120674504
 30
0.0
  0
VERTEX
  5
E1B0
  8
0
 10
47.200519609284527
 20
89.756714662201105
 30
0.0
  0
VERTEX
  5
E1B1
  8
0
 10
47.21407026779729
 20
89.807286408246881
 30
0.0
  0
VERTEX
  5
E1B2
  8
0
 10
47.225402120505287
 20
89.858401092618948
 30
0.0
  0
VERTEX
  5
E1B3
  8
0
 10
47.234493596582752
 20
89.909961415610397
 30
0.0
  0
VERTEX
  5
E1B4
  8
0
 10
47.238193617669928
 20
89.935878048374235
 30
0.0
  0
VERTEX
  5
E1B5
  8
0
 10
47.241327389888163
 20
89.961869229215935
 30
0.0
  0
VERTEX
  5
E1B6
  8
0
 10
47.245890491907737
 20
90.014025723962121
 30
0.0
  0
VERTEX
  5
E1B7
  8
0
 10
47.24817421651732
 20
90.066331616996806
 30
0.0
  0
VERTEX
  5
E1B8
  8
0
 10
47.248459784021399
 20
90.092509479038284
 30
0.0
  0
SEQEND
  5
E1B9
  8
0
  0
POLYLINE
  5
DDF5
  8
0
 66
     1
 10
0.0
 20
0.0
 30
0.0
  0
VERTEX
  5
E1BA
  8
0
 10
46.896987921445252
 20
89.243981341614443
 30
0.0
  0
VERTEX
  5
E1BB
  8
0
 10
46.878275450960132
 20
89.225672724566579
 30
0.0
  0
VERTEX
  5
E1BC
  8
0
 10
46.839674762141492
 20
89.190301710063537
 30
0.0
  0
VERTEX
  5
E1BD
  8
0
 10
46.799567950642313
 20
89.156648099326844
 30
0.0
  0
VERTEX
  5
E1BE
  8
0
 10
46.778973498831867
 20
89.140485470688816
 30
0.0
  0
VERTEX
  5
E1BF
  8
0
 10
46.758031362057693
 20
89.124775953917336
 30
0.0
  0
VERTEX
  5
E1C0
  8
0
 10
46.715144063644907
 20
89.094745944275246
 30
0.0
  0
VERTEX
  5
E1C1
  8
0
 10
46.670987693814027
 20
89.066615234230767
 30
0.0
  0
VERTEX
  5
E1C2
  8
0
 10
46.625646306724647
 20
89.040437372189288
 30
0.0
  0
VERTEX
  5
E1C3
  8
0
 10
46.579206212284241
 20
89.016262189199054
 30
0.0
  0
VERTEX
  5
E1C4
  8
0
 10
46.531755811851887
 20
88.994135704094958
 30
0.0
  0
VERTEX
  5
E1C5
  8
0
 10
46.507679902859529
 20
88.983854040024752
 30
0.0
  0
VERTEX
  5
E1C6
  8
0
 10
46.483385429961849
 20
88.974100035898957
 30
0.0
  0
VERTEX
  5
E1C7
  8
0
 10
46.434187142385213
 20
88.956193323644158
 30
0.0
  0
VERTEX
  5
E1C8
  8
0
 10
46.384254600858583
 20
88.940449653775175
 30
0.0
  0
VERTEX
  5
E1C9
  8
0
 10
46.333682854812821
 20
88.926898995262377
 30
0.0
  0
VERTEX
  5
E1CA
  8
0
 10
46.282568170440747
 20
88.915567142554409
 30
0.0
  0
VERTEX
  5
E1CB
  8
0
 10
46.231007847449291
 20
88.906475666476979
 30
0.0
  0
VERTEX
  5
E1CC
  8
0
 10
46.20509121468546
 20
88.902775645389724
 30
0.0
  0
VERTEX
  5
E1CD
  8
0
 10
46.179100033843717
 20
88.899641873171504
 30
0.0
  0
VERTEX
  5
E1CE
  8
0
 10
46.12694353909756
 20
88.895078771151987
 30
0.0
  0
VERTEX
  5
E1CF
  8
0
 10
46.074637646062911
 20
88.892795046542403
 30
0.0
  0
VERTEX
  5
E1D0
  8
0
 10
46.048459784021411
 20
88.892509479038296
 30
0.0
  0
SEQEND
  5
E1D1
  8
0
  0
LINE
  5
DDF6
  8
0
 10
18.448459784021392
 20
88.892509479038296
 30
0.0
 11
46.048459784021411
 21
88.892509479038296
 31
0.0
  0
POLYLINE
  5
DDF7
  8
0
 66
     1
 10
0.0
 20
0.0
 30
0.0
  0
VERTEX
  5
E1D2
  8
0
 10
18.448459784021392
 20
88.892509479038296
 30
0.0
  0
VERTEX
  5
E1D3
  8
0
 10
18.422281921979899
 20
88.892795046542403
 30
0.0
  0
VERTEX
  5
E1D4
  8
0
 10
18.369976028945239
 20
88.895078771151987
 30
0.0
  0
VERTEX
  5
E1D5
  8
0
 10
18.317819534199032
 20
88.899641873171504
 30
0.0
  0
VERTEX
  5
E1D6
  8
0
 10
18.291828353357339
 20
88.902775645389724
 30
0.0
  0
VERTEX
  5
E1D7
  8
0
 10
18.265911720593522
 20
88.906475666476979
 30
0.0
  0
VERTEX
  5
E1D8
  8
0
 10
18.214351397602059
 20
88.915567142554409
 30
0.0
  0
VERTEX
  5
E1D9
  8
0
 10
18.163236713229988
 20
88.926898995262377
 30
0.0
  0
VERTEX
  5
E1DA
  8
0
 10
18.11266496718423
 20
88.940449653775175
 30
0.0
  0
VERTEX
  5
E1DB
  8
0
 10
18.0627324256576
 20
88.956193323644158
 30
0.0
  0
VERTEX
  5
E1DC
  8
0
 10
18.013534138080949
 20
88.974100035898957
 30
0.0
  0
VERTEX
  5
E1DD
  8
0
 10
17.98923966518328
 20
88.983854040024752
 30
0.0
  0
VERTEX
  5
E1DE
  8
0
 10
17.965163756190918
 20
88.994135704094958
 30
0.0
  0
VERTEX
  5
E1DF
  8
0
 10
17.917713355758622
 20
89.016262189199054
 30
0.0
  0
VERTEX
  5
E1E0
  8
0
 10
17.871273261318152
 20
89.040437372189288
 30
0.0
  0
VERTEX
  5
E1E1
  8
0
 10
17.825931874228779
 20
89.066615234230767
 30
0.0
  0
VERTEX
  5
E1E2
  8
0
 10
17.781775504397899
 20
89.094745944275246
 30
0.0
  0
VERTEX
  5
E1E3
  8
0
 10
17.73888820598512
 20
89.124775953917336
 30
0.0
  0
VERTEX
  5
E1E4
  8
0
 10
17.717946069210939
 20
89.140485470688816
 30
0.0
  0
VERTEX
  5
E1E5
  8
0
 10
17.6973516174005
 20
89.156648099326844
 30
0.0
  0
VERTEX
  5
E1E6
  8
0
 10
17.657244805901311
 20
89.190301710063537
 30
0.0
  0
VERTEX
  5
E1E7
  8
0
 10
17.618644117082681
 20
89.225672724566579
 30
0.0
  0
VERTEX
  5
E1E8
  8
0
 10
17.59993164659755
 20
89.243981341614443
 30
0.0
  0
SEQEND
  5
E1E9
  8
0
  0
LINE
  5
DEA2
  8
2
 10
95.748459784021364
 20
94.383257207849482
 30
0.0
 11
96.598459784021401
 21
93.892509479038296
 31
0.0
  0
LINE
  5
DEA3
  8
2
 10
107.8984597840213
 20
93.892509479038296
 30
0.0
 11
108.74845978402141
 21
94.383257207849482
 31
0.0
  0
LINE
  5
DEA4
  8
2
 10
96.598459784021401
 20
100.3925094790383
 30
0.0
 11
95.748459784021364
 21
99.901761750227095
 31
0.0
  0
LINE
  5
DEA5
  8
2
 10
108.74845978402141
 20
99.901761750227095
 30
0.0
 11
107.8984597840213
 21
100.3925094790383
 31
0.0
  0
LINE
  5
DEAC
  8
2
 10
107.8984597840213
 20
93.892509479038296
 30
0.0
 11
96.598459784021401
 21
93.892509479038296
 31
0.0
  0
LINE
  5
DEAD
  8
2
 10
107.8984597840213
 20
100.3925094790383
 30
0.0
 11
96.598459784021401
 21
100.3925094790383
 31
0.0
  0
POLYLINE
  5
DEB0
  8
2
 66
     1
 10
0.0
 20
0.0
 30
0.0
  0
VERTEX
  5
E1EA
  8
2
 10
108.74845978402141
 20
94.963813791450264
 30
0.0
  0
VERTEX
  5
E1EB
  8
2
 10
108.542469279741
 20
94.896808247265113
 30
0.0
  0
VERTEX
  5
E1EC
  8
2
 10
108.144260143187
 20
94.777112802056365
 30
0.0
  0
VERTEX
  5
E1ED
  8
2
 10
107.7619247774945
 20
94.675272653118526
 30
0.0
  0
VERTEX
  5
E1EE
  8
2
 10
107.5758558160807
 20
94.630651247471647
 30
0.0
  0
VERTEX
  5
E1EF
  8
2
 10
107.3927665639913
 20
94.590048233442332
 30
0.0
  0
VERTEX
  5
E1F0
  8
2
 10
107.0343581688836
 20
94.520438118476179
 30
0.0
  0
VERTEX
  5
E1F1
  8
2
 10
106.68448356156451
 20
94.465648274285684
 30
0.0
  0
VERTEX
  5
E1F2
  8
2
 10
106.3410890939559
 20
94.425068660278313
 30
0.0
  0
VERTEX
  5
E1F3
  8
2
 10
106.0022412527011
 20
94.398255856482194
 30
0.0
  0
VERTEX
  5
E1F4
  8
2
 10
105.66608917976281
 20
94.384920769376023
 30
0.0
  0
VERTEX
  5
E1F5
  8
2
 10
105.49845978402131
 20
94.383257207849482
 30
0.0
  0
VERTEX
  5
E1F6
  8
2
 10
105.33083038827991
 20
94.384920769376023
 30
0.0
  0
VERTEX
  5
E1F7
  8
2
 10
104.9946783153416
 20
94.398255856482194
 30
0.0
  0
VERTEX
  5
E1F8
  8
2
 10
104.6558304740868
 20
94.425068660278313
 30
0.0
  0
VERTEX
  5
E1F9
  8
2
 10
104.31243600647819
 20
94.465648274285684
 30
0.0
  0
VERTEX
  5
E1FA
  8
2
 10
103.9625613991591
 20
94.520438118476179
 30
0.0
  0
VERTEX
  5
E1FB
  8
2
 10
103.6041530040515
 20
94.590048233442332
 30
0.0
  0
VERTEX
  5
E1FC
  8
2
 10
103.421063751962
 20
94.630651247471647
 30
0.0
  0
VERTEX
  5
E1FD
  8
2
 10
103.2349947905482
 20
94.675272653118526
 30
0.0
  0
VERTEX
  5
E1FE
  8
2
 10
102.8526594248557
 20
94.777112802056365
 30
0.0
  0
VERTEX
  5
E1FF
  8
2
 10
102.4544502883017
 20
94.896808247265113
 30
0.0
  0
VERTEX
  5
E200
  8
2
 10
102.24845978402131
 20
94.963813791450264
 30
0.0
  0
SEQEND
  5
E201
  8
2
  0
POLYLINE
  5
DEB1
  8
2
 66
     1
 10
0.0
 20
0.0
 30
0.0
  0
VERTEX
  5
E202
  8
2
 10
102.24845978402131
 20
94.963813791450264
 30
0.0
  0
VERTEX
  5
E203
  8
2
 10
102.042469279741
 20
94.896808247265113
 30
0.0
  0
VERTEX
  5
E204
  8
2
 10
101.644260143187
 20
94.777112802056365
 30
0.0
  0
VERTEX
  5
E205
  8
2
 10
101.2619247774945
 20
94.675272653118526
 30
0.0
  0
VERTEX
  5
E206
  8
2
 10
101.0758558160807
 20
94.630651247471647
 30
0.0
  0
VERTEX
  5
E207
  8
2
 10
100.8927665639912
 20
94.590048233442332
 30
0.0
  0
VERTEX
  5
E208
  8
2
 10
100.5343581688836
 20
94.520438118476179
 30
0.0
  0
VERTEX
  5
E209
  8
2
 10
100.18448356156451
 20
94.465648274285684
 30
0.0
  0
VERTEX
  5
E20A
  8
2
 10
99.841089093955901
 20
94.425068660278313
 30
0.0
  0
VERTEX
  5
E20B
  8
2
 10
99.502241252701111
 20
94.398255856482194
 30
0.0
  0
VERTEX
  5
E20C
  8
2
 10
99.166089179762906
 20
94.384920769376023
 30
0.0
  0
VERTEX
  5
E20D
  8
2
 10
98.998459784021378
 20
94.383257207849482
 30
0.0
  0
VERTEX
  5
E20E
  8
2
 10
98.83083038827985
 20
94.384920769376023
 30
0.0
  0
VERTEX
  5
E20F
  8
2
 10
98.494678315341645
 20
94.398255856482194
 30
0.0
  0
VERTEX
  5
E210
  8
2
 10
98.155830474086855
 20
94.425068660278313
 30
0.0
  0
VERTEX
  5
E211
  8
2
 10
97.812436006478237
 20
94.465648274285684
 30
0.0
  0
VERTEX
  5
E212
  8
2
 10
97.462561399159171
 20
94.520438118476179
 30
0.0
  0
VERTEX
  5
E213
  8
2
 10
97.104153004051483
 20
94.590048233442332
 30
0.0
  0
VERTEX
  5
E214
  8
2
 10
96.921063751962066
 20
94.630651247471647
 30
0.0
  0
VERTEX
  5
E215
  8
2
 10
96.734994790548257
 20
94.675272653118526
 30
0.0
  0
VERTEX
  5
E216
  8
2
 10
96.352659424855773
 20
94.777112802056365
 30
0.0
  0
VERTEX
  5
E217
  8
2
 10
95.954450288301786
 20
94.896808247265113
 30
0.0
  0
VERTEX
  5
E218
  8
2
 10
95.748459784021364
 20
94.963813791450264
 30
0.0
  0
SEQEND
  5
E219
  8
2
  0
POLYLINE
  5
DEB3
  8
2
 66
     1
 10
0.0
 20
0.0
 30
0.0
  0
VERTEX
  5
E21A
  8
2
 10
95.748459784021364
 20
94.963813791450264
 30
0.0
  0
VERTEX
  5
E21B
  8
2
 10
95.954450288301786
 20
94.896808247265113
 30
0.0
  0
VERTEX
  5
E21C
  8
2
 10
96.352659424855773
 20
94.777112802056365
 30
0.0
  0
VERTEX
  5
E21D
  8
2
 10
96.734994790548257
 20
94.675272653118526
 30
0.0
  0
VERTEX
  5
E21E
  8
2
 10
96.921063751962066
 20
94.630651247471647
 30
0.0
  0
VERTEX
  5
E21F
  8
2
 10
97.104153004051483
 20
94.590048233442332
 30
0.0
  0
VERTEX
  5
E220
  8
2
 10
97.462561399159171
 20
94.520438118476179
 30
0.0
  0
VERTEX
  5
E221
  8
2
 10
97.812436006478237
 20
94.465648274285684
 30
0.0
  0
VERTEX
  5
E222
  8
2
 10
98.155830474086855
 20
94.425068660278313
 30
0.0
  0
VERTEX
  5
E223
  8
2
 10
98.494678315341645
 20
94.398255856482194
 30
0.0
  0
VERTEX
  5
E224
  8
2
 10
98.83083038827985
 20
94.384920769376023
 30
0.0
  0
VERTEX
  5
E225
  8
2
 10
98.998459784021378
 20
94.383257207849482
 30
0.0
  0
VERTEX
  5
E226
  8
2
 10
99.166089179762906
 20
94.384920769376023
 30
0.0
  0
VERTEX
  5
E227
  8
2
 10
99.502241252701111
 20
94.398255856482194
 30
0.0
  0
VERTEX
  5
E228
  8
2
 10
99.841089093955901
 20
94.425068660278313
 30
0.0
  0
VERTEX
  5
E229
  8
2
 10
100.18448356156451
 20
94.465648274285684
 30
0.0
  0
VERTEX
  5
E22A
  8
2
 10
100.5343581688836
 20
94.520438118476179
 30
0.0
  0
VERTEX
  5
E22B
  8
2
 10
100.8927665639912
 20
94.590048233442332
 30
0.0
  0
VERTEX
  5
E22C
  8
2
 10
101.0758558160807
 20
94.630651247471647
 30
0.0
  0
VERTEX
  5
E22D
  8
2
 10
101.2619247774945
 20
94.675272653118526
 30
0.0
  0
VERTEX
  5
E22E
  8
2
 10
101.644260143187
 20
94.777112802056365
 30
0.0
  0
VERTEX
  5
E22F
  8
2
 10
102.042469279741
 20
94.896808247265113
 30
0.0
  0
VERTEX
  5
E230
  8
2
 10
102.24845978402131
 20
94.963813791450264
 30
0.0
  0
SEQEND
  5
E231
  8
2
  0
POLYLINE
  5
DEB4
  8
2
 66
     1
 10
0.0
 20
0.0
 30
0.0
  0
VERTEX
  5
E232
  8
2
 10
102.24845978402131
 20
99.321205166626356
 30
0.0
  0
VERTEX
  5
E233
  8
2
 10
102.042469279741
 20
99.38821071081145
 30
0.0
  0
VERTEX
  5
E234
  8
2
 10
101.644260143187
 20
99.50790615602024
 30
0.0
  0
VERTEX
  5
E235
  8
2
 10
101.2619247774945
 20
99.609746304958065
 30
0.0
  0
VERTEX
  5
E236
  8
2
 10
101.0758558160807
 20
99.654367710604944
 30
0.0
  0
VERTEX
  5
E237
  8
2
 10
100.8927665639912
 20
99.694970724634246
 30
0.0
  0
VERTEX
  5
E238
  8
2
 10
100.5343581688836
 20
99.764580839600413
 30
0.0
  0
VERTEX
  5
E239
  8
2
 10
100.18448356156451
 20
99.819370683790908
 30
0.0
  0
VERTEX
  5
E23A
  8
2
 10
99.841089093955901
 20
99.859950297798264
 30
0.0
  0
VERTEX
  5
E23B
  8
2
 10
99.502241252701111
 20
99.886763101594411
 30
0.0
  0
VERTEX
  5
E23C
  8
2
 10
99.166089179762906
 20
99.900098188700582
 30
0.0
  0
VERTEX
  5
E23D
  8
2
 10
98.998459784021378
 20
99.901761750227095
 30
0.0
  0
VERTEX
  5
E23E
  8
2
 10
98.83083038827985
 20
99.900098188700582
 30
0.0
  0
VERTEX
  5
E23F
  8
2
 10
98.494678315341645
 20
99.886763101594411
 30
0.0
  0
VERTEX
  5
E240
  8
2
 10
98.155830474086784
 20
99.859950297798292
 30
0.0
  0
VERTEX
  5
E241
  8
2
 10
97.812436006478237
 20
99.819370683790908
 30
0.0
  0
VERTEX
  5
E242
  8
2
 10
97.462561399159171
 20
99.764580839600413
 30
0.0
  0
VERTEX
  5
E243
  8
2
 10
97.104153004051483
 20
99.694970724634246
 30
0.0
  0
VERTEX
  5
E244
  8
2
 10
96.921063751962066
 20
99.654367710604944
 30
0.0
  0
VERTEX
  5
E245
  8
2
 10
96.734994790548257
 20
99.609746304958065
 30
0.0
  0
VERTEX
  5
E246
  8
2
 10
96.352659424855773
 20
99.50790615602024
 30
0.0
  0
VERTEX
  5
E247
  8
2
 10
95.954450288301786
 20
99.38821071081145
 30
0.0
  0
VERTEX
  5
E248
  8
2
 10
95.748459784021364
 20
99.321205166626356
 30
0.0
  0
SEQEND
  5
E249
  8
2
  0
LINE
  5
DEB5
  8
2
 10
102.24845978402131
 20
94.963813791450264
 30
0.0
 11
102.24845978402131
 21
99.321205166626356
 31
0.0
  0
POLYLINE
  5
DEB6
  8
2
 66
     1
 10
0.0
 20
0.0
 30
0.0
  0
VERTEX
  5
E24A
  8
2
 10
102.24845978402131
 20
94.963813791450264
 30
0.0
  0
VERTEX
  5
E24B
  8
2
 10
102.4544502883017
 20
94.896808247265113
 30
0.0
  0
VERTEX
  5
E24C
  8
2
 10
102.8526594248557
 20
94.777112802056365
 30
0.0
  0
VERTEX
  5
E24D
  8
2
 10
103.2349947905482
 20
94.675272653118526
 30
0.0
  0
VERTEX
  5
E24E
  8
2
 10
103.421063751962
 20
94.630651247471647
 30
0.0
  0
VERTEX
  5
E24F
  8
2
 10
103.6041530040515
 20
94.590048233442332
 30
0.0
  0
VERTEX
  5
E250
  8
2
 10
103.9625613991591
 20
94.520438118476179
 30
0.0
  0
VERTEX
  5
E251
  8
2
 10
104.31243600647819
 20
94.465648274285684
 30
0.0
  0
VERTEX
  5
E252
  8
2
 10
104.6558304740868
 20
94.425068660278313
 30
0.0
  0
VERTEX
  5
E253
  8
2
 10
104.9946783153416
 20
94.398255856482194
 30
0.0
  0
VERTEX
  5
E254
  8
2
 10
105.33083038827991
 20
94.384920769376023
 30
0.0
  0
VERTEX
  5
E255
  8
2
 10
105.49845978402131
 20
94.383257207849482
 30
0.0
  0
VERTEX
  5
E256
  8
2
 10
105.66608917976281
 20
94.384920769376023
 30
0.0
  0
VERTEX
  5
E257
  8
2
 10
106.0022412527011
 20
94.398255856482194
 30
0.0
  0
VERTEX
  5
E258
  8
2
 10
106.3410890939559
 20
94.425068660278313
 30
0.0
  0
VERTEX
  5
E259
  8
2
 10
106.68448356156451
 20
94.465648274285684
 30
0.0
  0
VERTEX
  5
E25A
  8
2
 10
107.0343581688836
 20
94.520438118476179
 30
0.0
  0
VERTEX
  5
E25B
  8
2
 10
107.3927665639913
 20
94.590048233442332
 30
0.0
  0
VERTEX
  5
E25C
  8
2
 10
107.5758558160807
 20
94.630651247471647
 30
0.0
  0
VERTEX
  5
E25D
  8
2
 10
107.7619247774945
 20
94.675272653118526
 30
0.0
  0
VERTEX
  5
E25E
  8
2
 10
108.144260143187
 20
94.777112802056365
 30
0.0
  0
VERTEX
  5
E25F
  8
2
 10
108.542469279741
 20
94.896808247265113
 30
0.0
  0
VERTEX
  5
E260
  8
2
 10
108.74845978402141
 20
94.963813791450264
 30
0.0
  0
SEQEND
  5
E261
  8
2
  0
POLYLINE
  5
DEB7
  8
2
 66
     1
 10
0.0
 20
0.0
 30
0.0
  0
VERTEX
  5
E262
  8
2
 10
108.74845978402141
 20
99.321205166626356
 30
0.0
  0
VERTEX
  5
E263
  8
2
 10
108.542469279741
 20
99.38821071081145
 30
0.0
  0
VERTEX
  5
E264
  8
2
 10
108.144260143187
 20
99.50790615602024
 30
0.0
  0
VERTEX
  5
E265
  8
2
 10
107.7619247774945
 20
99.609746304958065
 30
0.0
  0
VERTEX
  5
E266
  8
2
 10
107.5758558160807
 20
99.654367710604944
 30
0.0
  0
VERTEX
  5
E267
  8
2
 10
107.3927665639913
 20
99.694970724634246
 30
0.0
  0
VERTEX
  5
E268
  8
2
 10
107.0343581688836
 20
99.764580839600413
 30
0.0
  0
VERTEX
  5
E269
  8
2
 10
106.68448356156451
 20
99.819370683790908
 30
0.0
  0
VERTEX
  5
E26A
  8
2
 10
106.3410890939559
 20
99.859950297798264
 30
0.0
  0
VERTEX
  5
E26B
  8
2
 10
106.0022412527011
 20
99.886763101594411
 30
0.0
  0
VERTEX
  5
E26C
  8
2
 10
105.66608917976281
 20
99.900098188700554
 30
0.0
  0
VERTEX
  5
E26D
  8
2
 10
105.49845978402131
 20
99.901761750227095
 30
0.0
  0
VERTEX
  5
E26E
  8
2
 10
105.33083038827991
 20
99.900098188700582
 30
0.0
  0
VERTEX
  5
E26F
  8
2
 10
104.9946783153416
 20
99.886763101594411
 30
0.0
  0
VERTEX
  5
E270
  8
2
 10
104.6558304740868
 20
99.859950297798264
 30
0.0
  0
VERTEX
  5
E271
  8
2
 10
104.31243600647819
 20
99.819370683790908
 30
0.0
  0
VERTEX
  5
E272
  8
2
 10
103.9625613991591
 20
99.764580839600413
 30
0.0
  0
VERTEX
  5
E273
  8
2
 10
103.6041530040515
 20
99.694970724634246
 30
0.0
  0
VERTEX
  5
E274
  8
2
 10
103.421063751962
 20
99.654367710604944
 30
0.0
  0
VERTEX
  5
E275
  8
2
 10
103.2349947905482
 20
99.60974630495808
 30
0.0
  0
VERTEX
  5
E276
  8
2
 10
102.8526594248557
 20
99.50790615602024
 30
0.0
  0
VERTEX
  5
E277
  8
2
 10
102.4544502883017
 20
99.388210710811464
 30
0.0
  0
VERTEX
  5
E278
  8
2
 10
102.24845978402131
 20
99.321205166626356
 30
0.0
  0
SEQEND
  5
E279
  8
2
  0
LINE
  5
DEBB
  8
2
 10
106.4484597840213
 20
101.3925094790383
 30
0.0
 11
106.4484597840213
 21
127.8925094790383
 31
0.0
  0
LINE
  5
DEBC
  8
2
 10
98.048459784021404
 20
127.8925094790383
 30
0.0
 11
98.048459784021404
 21
101.3925094790383
 31
0.0
  0
LINE
  5
DEBD
  8
2
 10
106.4484597840213
 20
88.892509479038296
 30
0.0
 11
106.4484597840213
 21
93.892509479038296
 31
0.0
  0
LINE
  5
DEBE
  8
2
 10
98.048459784021404
 20
93.892509479038296
 30
0.0
 11
98.048459784021404
 21
88.892509479038296
 31
0.0
  0
LINE
  5
DEC6
  8
2
 10
95.748459784021364
 20
93.892509479038296
 30
0.0
 11
95.748459784021364
 21
101.3925094790383
 31
0.0
  0
LINE
  5
DEC7
  8
2
 10
102.24845978402131
 20
100.3925094790383
 30
0.0
 11
102.24845978402131
 21
101.3925094790383
 31
0.0
  0
LINE
  5
DEC8
  8
2
 10
108.74845978402141
 20
101.3925094790383
 30
0.0
 11
95.748459784021364
 21
101.3925094790383
 31
0.0
  0
LINE
  5
DEC9
  8
2
 10
108.74845978402141
 20
93.892509479038296
 30
0.0
 11
108.74845978402141
 21
101.3925094790383
 31
0.0
  0
LINE
  5
DECA
  8
1
 10
102.24845978402131
 20
130.8925094790383
 30
0.0
 11
102.24845978402131
 21
85.892509479038296
 31
0.0
  0
ARC
  5
DECB
  8
0
 10
87.448459784021367
 20
119.03371827024711
 30
0.0
 40
0.1999999999999993
 50
90.0
 51
180.0
  0
ARC
  5
DECC
  8
0
 10
117.0484597840214
 20
119.03371827024711
 30
0.0
 40
0.1999999999999975
 50
0.0
 51
90.0
  0
LINE
  5
DECD
  8
0
 10
117.24845978402141
 20
118.383718270247
 30
0.0
 11
117.24845978402141
 21
119.03371827024711
 31
0.0
  0
LINE
  5
DECE
  8
0
 10
87.248459784021378
 20
119.03371827024711
 30
0.0
 11
87.248459784021378
 21
118.383718270247
 31
0.0
  0
LINE
  5
DECF
  8
0
 10
115.24845978402141
 20
113.5265754131042
 30
0.0
 11
115.24845978402141
 21
118.383718270247
 31
0.0
  0
LINE
  5
DED0
  8
0
 10
89.248459784021364
 20
118.3837182702471
 30
0.0
 11
89.248459784021364
 21
113.5265754131042
 31
0.0
  0
ARC
  5
DED1
  8
0
 10
87.448459784021367
 20
113.32657541310419
 30
0.0
 40
0.1999999999999993
 50
90.0
 51
180.0
  0
ARC
  5
DED2
  8
0
 10
117.0484597840214
 20
113.32657541310419
 30
0.0
 40
0.1999999999999993
 50
0.0
 51
90.0
  0
LINE
  5
DED3
  8
0
 10
117.24845978402141
 20
112.6765754131042
 30
0.0
 11
117.24845978402141
 21
113.32657541310419
 31
0.0
  0
LINE
  5
DED4
  8
0
 10
87.248459784021378
 20
113.32657541310419
 30
0.0
 11
87.248459784021378
 21
112.6765754131042
 31
0.0
  0
LINE
  5
DED5
  8
0
 10
115.24845978402141
 20
107.8194325559613
 30
0.0
 11
115.24845978402141
 21
112.6765754131042
 31
0.0
  0
LINE
  5
DED6
  8
0
 10
89.248459784021364
 20
112.6765754131042
 30
0.0
 11
89.248459784021364
 21
107.8194325559613
 31
0.0
  0
ARC
  5
DED7
  8
0
 10
87.448459784021367
 20
107.6194325559614
 30
0.0
 40
0.1999999999999993
 50
90.0
 51
180.0
  0
ARC
  5
DED8
  8
0
 10
117.0484597840214
 20
107.6194325559614
 30
0.0
 40
0.1999999999999975
 50
0.0
 51
90.0
  0
LINE
  5
DED9
  8
0
 10
117.24845978402141
 20
106.9694325559613
 30
0.0
 11
117.24845978402141
 21
107.6194325559614
 31
0.0
  0
LINE
  5
DEDA
  8
0
 10
87.248459784021378
 20
107.6194325559614
 30
0.0
 11
87.248459784021378
 21
106.9694325559613
 31
0.0
  0
LINE
  5
DEDB
  8
0
 10
117.24845978402141
 20
104.35404794057671
 30
0.0
 11
115.74845978402131
 21
106.9694325559613
 31
0.0
  0
LINE
  5
DEDC
  8
0
 10
88.748459784021378
 20
106.9694325559613
 30
0.0
 11
87.248459784021378
 21
104.35404794057671
 31
0.0
  0
LINE
  5
DEDD
  8
0
 10
115.74845978402131
 20
93.892509479038296
 30
0.0
 11
115.74845978402131
 21
104.35404794057671
 31
0.0
  0
LINE
  5
DEDE
  8
0
 10
88.748459784021378
 20
104.35404794057671
 30
0.0
 11
88.748459784021378
 21
93.892509479038296
 31
0.0
  0
LINE
  5
DEDF
  8
0
 10
115.24845978402141
 20
119.2337182702471
 30
0.0
 11
115.24845978402141
 21
122.6617402482691
 31
0.0
  0
LINE
  5
DEE0
  8
0
 10
89.248459784021364
 20
122.6617402482691
 30
0.0
 11
89.248459784021364
 21
119.2337182702471
 31
0.0
  0
LINE
  5
DEE1
  8
0
 10
115.24845978402141
 20
125.7414701758982
 30
0.0
 11
115.24845978402141
 21
127.8925094790383
 31
0.0
  0
LINE
  5
DEE2
  8
0
 10
89.248459784021364
 20
127.8925094790383
 30
0.0
 11
89.248459784021364
 21
125.7414701758982
 31
0.0
  0
LINE
  5
DEE3
  8
0
 10
87.248459784021378
 20
122.6617402482691
 30
0.0
 11
117.24845978402141
 21
122.6617402482691
 31
0.0
  0
LINE
  5
DEE4
  8
0
 10
90.645361040746792
 20
127.8925094790383
 30
0.0
 11
87.248459784021378
 21
122.6617402482691
 31
0.0
  0
LINE
  5
DEE5
  8
0
 10
117.24845978402141
 20
122.6617402482691
 30
0.0
 11
113.85155852729589
 21
127.8925094790383
 31
0.0
  0
LINE
  5
DEE6
  8
0
 10
87.448459784021367
 20
119.2337182702471
 30
0.0
 11
117.0484597840214
 21
119.2337182702471
 31
0.0
  0
LINE
  5
DEE8
  8
0
 10
87.248459784021378
 20
118.383718270247
 30
0.0
 11
117.24845978402141
 21
118.383718270247
 31
0.0
  0
LINE
  5
DEE9
  8
0
 10
87.448459784021367
 20
113.5265754131042
 30
0.0
 11
117.0484597840214
 21
113.5265754131042
 31
0.0
  0
LINE
  5
DEEB
  8
0
 10
87.248459784021378
 20
112.6765754131042
 30
0.0
 11
117.24845978402141
 21
112.6765754131042
 31
0.0
  0
LINE
  5
DEEC
  8
0
 10
87.448459784021367
 20
107.8194325559614
 30
0.0
 11
117.0484597840214
 21
107.8194325559614
 31
0.0
  0
LINE
  5
DEEE
  8
0
 10
87.248459784021378
 20
106.9694325559613
 30
0.0
 11
117.24845978402141
 21
106.9694325559613
 31
0.0
  0
LINE
  5
DEEF
  8
0
 10
87.248459784021378
 20
104.35404794057671
 30
0.0
 11
117.24845978402141
 21
104.35404794057671
 31
0.0
  0
LINE
  5
DEF0
  8
0
 10
89.248459784021364
 20
127.8925094790383
 30
0.0
 11
115.24845978402141
 21
127.8925094790383
 31
0.0
  0
LINE
  5
DEF3
  8
0
 10
116.0484597840214
 20
88.892509479038296
 30
0.0
 11
88.448459784021367
 21
88.892509479038296
 31
0.0
  0
LINE
  5
DEF6
  8
0
 10
117.24845978402141
 20
90.092509479038284
 30
0.0
 11
117.24845978402141
 21
93.892509479038296
 31
0.0
  0
LINE
  5
DEF7
  8
0
 10
87.248459784021378
 20
90.092509479038284
 30
0.0
 11
87.248459784021378
 21
93.892509479038296
 31
0.0
  0
LINE
  5
DEF8
  8
0
 10
117.24845978402141
 20
93.892509479038296
 30
0.0
 11
87.248459784021378
 21
93.892509479038296
 31
0.0
  0
POLYLINE
  5
DEFB
  8
0
 66
     1
 10
0.0
 20
0.0
 30
0.0
  0
VERTEX
  5
E27A
  8
0
 10
116.0484597840214
 20
88.892509479038296
 30
0.0
  0
VERTEX
  5
E27B
  8
0
 10
116.0746376460628
 20
88.892795046542403
 30
0.0
  0
VERTEX
  5
E27C
  8
0
 10
116.1269435390975
 20
88.895078771151987
 30
0.0
  0
VERTEX
  5
E27D
  8
0
 10
116.1791000338437
 20
88.899641873171504
 30
0.0
  0
VERTEX
  5
E27E
  8
0
 10
116.2050912146854
 20
88.902775645389724
 30
0.0
  0
VERTEX
  5
E27F
  8
0
 10
116.23100784744921
 20
88.906475666476979
 30
0.0
  0
VERTEX
  5
E280
  8
0
 10
116.2825681704407
 20
88.915567142554409
 30
0.0
  0
VERTEX
  5
E281
  8
0
 10
116.33368285481281
 20
88.926898995262377
 30
0.0
  0
VERTEX
  5
E282
  8
0
 10
116.3842546008585
 20
88.940449653775175
 30
0.0
  0
VERTEX
  5
E283
  8
0
 10
116.4341871423852
 20
88.956193323644158
 30
0.0
  0
VERTEX
  5
E284
  8
0
 10
116.4833854299618
 20
88.974100035898957
 30
0.0
  0
VERTEX
  5
E285
  8
0
 10
116.50767990285949
 20
88.983854040024752
 30
0.0
  0
VERTEX
  5
E286
  8
0
 10
116.5317558118518
 20
88.994135704094958
 30
0.0
  0
VERTEX
  5
E287
  8
0
 10
116.57920621228411
 20
89.016262189199054
 30
0.0
  0
VERTEX
  5
E288
  8
0
 10
116.6256463067246
 20
89.040437372189288
 30
0.0
  0
VERTEX
  5
E289
  8
0
 10
116.670987693814
 20
89.066615234230753
 30
0.0
  0
VERTEX
  5
E28A
  8
0
 10
116.7151440636449
 20
89.094745944275246
 30
0.0
  0
VERTEX
  5
E28B
  8
0
 10
116.75803136205759
 20
89.124775953917336
 30
0.0
  0
VERTEX
  5
E28C
  8
0
 10
116.7789734988318
 20
89.140485470688816
 30
0.0
  0
VERTEX
  5
E28D
  8
0
 10
116.7995679506422
 20
89.156648099326844
 30
0.0
  0
VERTEX
  5
E28E
  8
0
 10
116.8396747621414
 20
89.190301710063537
 30
0.0
  0
VERTEX
  5
E28F
  8
0
 10
116.8782754509601
 20
89.225672724566579
 30
0.0
  0
VERTEX
  5
E290
  8
0
 10
116.8969879214452
 20
89.243981341614443
 30
0.0
  0
SEQEND
  5
E291
  8
0
  0
POLYLINE
  5
DEFC
  8
0
 66
     1
 10
0.0
 20
0.0
 30
0.0
  0
VERTEX
  5
E292
  8
0
 10
116.8969879214452
 20
89.243981341614443
 30
0.0
  0
VERTEX
  5
E293
  8
0
 10
116.9152965384931
 20
89.26269381209957
 30
0.0
  0
VERTEX
  5
E294
  8
0
 10
116.95066755299609
 20
89.301294500918218
 30
0.0
  0
VERTEX
  5
E295
  8
0
 10
116.9843211637328
 20
89.341401312417418
 30
0.0
  0
VERTEX
  5
E296
  8
0
 10
117.0004837923709
 20
89.361995764227828
 30
0.0
  0
VERTEX
  5
E297
  8
0
 10
117.01619330914239
 20
89.382937901001995
 30
0.0
  0
VERTEX
  5
E298
  8
0
 10
117.0462233187844
 20
89.425825199414774
 30
0.0
  0
VERTEX
  5
E299
  8
0
 10
117.07435402882891
 20
89.469981569245675
 30
0.0
  0
VERTEX
  5
E29A
  8
0
 10
117.1005318908703
 20
89.515322956335027
 30
0.0
  0
VERTEX
  5
E29B
  8
0
 10
117.12470707386061
 20
89.561763050775497
 30
0.0
  0
VERTEX
  5
E29C
  8
0
 10
117.1468335589647
 20
89.609213451207793
 30
0.0
  0
VERTEX
  5
E29D
  8
0
 10
117.15711522303491
 20
89.633289360200166
 30
0.0
  0
VERTEX
  5
E29E
  8
0
 10
117.1668692271607
 20
89.657583833097846
 30
0.0
  0
VERTEX
  5
E29F
  8
0
 10
117.1847759394155
 20
89.706782120674504
 30
0.0
  0
VERTEX
  5
E2A0
  8
0
 10
117.2005196092845
 20
89.756714662201105
 30
0.0
  0
VERTEX
  5
E2A1
  8
0
 10
117.2140702677972
 20
89.807286408246881
 30
0.0
  0
VERTEX
  5
E2A2
  8
0
 10
117.22540212050519
 20
89.858401092618934
 30
0.0
  0
VERTEX
  5
E2A3
  8
0
 10
117.2344935965826
 20
89.909961415610397
 30
0.0
  0
VERTEX
  5
E2A4
  8
0
 10
117.23819361766991
 20
89.935878048374235
 30
0.0
  0
VERTEX
  5
E2A5
  8
0
 10
117.2413273898881
 20
89.961869229215935
 30
0.0
  0
VERTEX
  5
E2A6
  8
0
 10
117.2458904919077
 20
90.014025723962121
 30
0.0
  0
VERTEX
  5
E2A7
  8
0
 10
117.2481742165172
 20
90.066331616996806
 30
0.0
  0
VERTEX
  5
E2A8
  8
0
 10
117.24845978402141
 20
90.092509479038284
 30
0.0
  0
SEQEND
  5
E2A9
  8
0
  0
POLYLINE
  5
DEFD
  8
0
 66
     1
 10
0.0
 20
0.0
 30
0.0
  0
VERTEX
  5
E2AA
  8
0
 10
87.599931646597526
 20
89.243981341614443
 30
0.0
  0
VERTEX
  5
E2AB
  8
0
 10
87.618644117082638
 20
89.225672724566579
 30
0.0
  0
VERTEX
  5
E2AC
  8
0
 10
87.657244805901286
 20
89.190301710063537
 30
0.0
  0
VERTEX
  5
E2AD
  8
0
 10
87.697351617400471
 20
89.156648099326844
 30
0.0
  0
VERTEX
  5
E2AE
  8
0
 10
87.71794606921091
 20
89.140485470688816
 30
0.0
  0
VERTEX
  5
E2AF
  8
0
 10
87.738888205985091
 20
89.124775953917336
 30
0.0
  0
VERTEX
  5
E2B0
  8
0
 10
87.781775504397871
 20
89.094745944275246
 30
0.0
  0
VERTEX
  5
E2B1
  8
0
 10
87.825931874228743
 20
89.066615234230767
 30
0.0
  0
VERTEX
  5
E2B2
  8
0
 10
87.871273261318123
 20
89.040437372189288
 30
0.0
  0
VERTEX
  5
E2B3
  8
0
 10
87.917713355758536
 20
89.016262189199054
 30
0.0
  0
VERTEX
  5
E2B4
  8
0
 10
87.965163756190904
 20
88.994135704094958
 30
0.0
  0
VERTEX
  5
E2B5
  8
0
 10
87.989239665183248
 20
88.983854040024752
 30
0.0
  0
VERTEX
  5
E2B6
  8
0
 10
88.013534138080914
 20
88.974100035898957
 30
0.0
  0
VERTEX
  5
E2B7
  8
0
 10
88.062732425657558
 20
88.956193323644158
 30
0.0
  0
VERTEX
  5
E2B8
  8
0
 10
88.112664967184202
 20
88.940449653775175
 30
0.0
  0
VERTEX
  5
E2B9
  8
0
 10
88.163236713229949
 20
88.926898995262377
 30
0.0
  0
VERTEX
  5
E2BA
  8
0
 10
88.214351397602016
 20
88.915567142554409
 30
0.0
  0
VERTEX
  5
E2BB
  8
0
 10
88.265911720593493
 20
88.906475666476979
 30
0.0
  0
VERTEX
  5
E2BC
  8
0
 10
88.291828353357317
 20
88.902775645389724
 30
0.0
  0
VERTEX
  5
E2BD
  8
0
 10
88.31781953419906
 20
88.899641873171518
 30
0.0
  0
VERTEX
  5
E2BE
  8
0
 10
88.369976028945217
 20
88.895078771151987
 30
0.0
  0
VERTEX
  5
E2BF
  8
0
 10
88.422281921979874
 20
88.892795046542403
 30
0.0
  0
VERTEX
  5
E2C0
  8
0
 10
88.448459784021367
 20
88.892509479038296
 30
0.0
  0
SEQEND
  5
E2C1
  8
0
  0
POLYLINE
  5
DEFE
  8
0
 66
     1
 10
0.0
 20
0.0
 30
0.0
  0
VERTEX
  5
E2C2
  8
0
 10
87.248459784021378
 20
90.092509479038284
 30
0.0
  0
VERTEX
  5
E2C3
  8
0
 10
87.248745351525457
 20
90.066331616996806
 30
0.0
  0
VERTEX
  5
E2C4
  8
0
 10
87.25102907613504
 20
90.014025723962121
 30
0.0
  0
VERTEX
  5
E2C5
  8
0
 10
87.255592178154615
 20
89.961869229215935
 30
0.0
  0
VERTEX
  5
E2C6
  8
0
 10
87.258725950372849
 20
89.935878048374235
 30
0.0
  0
VERTEX
  5
E2C7
  8
0
 10
87.262425971460019
 20
89.909961415610397
 30
0.0
  0
VERTEX
  5
E2C8
  8
0
 10
87.271517447537491
 20
89.858401092618948
 30
0.0
  0
VERTEX
  5
E2C9
  8
0
 10
87.282849300245474
 20
89.807286408246881
 30
0.0
  0
VERTEX
  5
E2CA
  8
0
 10
87.296399958758258
 20
89.756714662201105
 30
0.0
  0
VERTEX
  5
E2CB
  8
0
 10
87.31214362862724
 20
89.706782120674504
 30
0.0
  0
VERTEX
  5
E2CC
  8
0
 10
87.330050340882025
 20
89.65758383309786
 30
0.0
  0
VERTEX
  5
E2CD
  8
0
 10
87.339804345007877
 20
89.633289360200195
 30
0.0
  0
VERTEX
  5
E2CE
  8
0
 10
87.350086009078026
 20
89.609213451207793
 30
0.0
  0
VERTEX
  5
E2CF
  8
0
 10
87.372212494182151
 20
89.561763050775497
 30
0.0
  0
VERTEX
  5
E2D0
  8
0
 10
87.396387677172328
 20
89.515322956335027
 30
0.0
  0
VERTEX
  5
E2D1
  8
0
 10
87.422565539213878
 20
89.469981569245675
 30
0.0
  0
VERTEX
  5
E2D2
  8
0
 10
87.450696249258357
 20
89.425825199414774
 30
0.0
  0
VERTEX
  5
E2D3
  8
0
 10
87.480726258900376
 20
89.382937901001995
 30
0.0
  0
VERTEX
  5
E2D4
  8
0
 10
87.49643577567187
 20
89.361995764227828
 30
0.0
  0
VERTEX
  5
E2D5
  8
0
 10
87.512598404309955
 20
89.341401312417432
 30
0.0
  0
VERTEX
  5
E2D6
  8
0
 10
87.546252015046633
 20
89.301294500918218
 30
0.0
  0
VERTEX
  5
E2D7
  8
0
 10
87.581623029549661
 20
89.26269381209957
 30
0.0
  0
VERTEX
  5
E2D8
  8
0
 10
87.599931646597526
 20
89.243981341614443
 30
0.0
  0
SEQEND
  5
E2D9
  8
0
  0
LINE
  5
DF41
  8
2
 10
28.495683034288849
 20
32.392509479038303
 30
0.0
 11
24.742906284556291
 21
38.892509479038303
 31
0.0
  0
LINE
  5
DF42
  8
2
 10
36.001236533753968
 20
32.392509479038303
 30
0.0
 11
28.495683034288849
 21
32.392509479038303
 31
0.0
  0
LINE
  5
DF43
  8
2
 10
39.754013283486529
 20
38.892509479038303
 30
0.0
 11
36.001236533753968
 21
32.392509479038303
 31
0.0
  0
LINE
  5
DF44
  8
2
 10
36.001236533753968
 20
45.392509479038303
 30
0.0
 11
39.754013283486529
 21
38.892509479038303
 31
0.0
  0
LINE
  5
DF45
  8
2
 10
28.495683034288849
 20
45.392509479038303
 30
0.0
 11
36.001236533753968
 21
45.392509479038303
 31
0.0
  0
LINE
  5
DF46
  8
2
 10
24.742906284556291
 20
38.892509479038303
 30
0.0
 11
28.495683034288849
 21
45.392509479038303
 31
0.0
  0
LINE
  5
DF47
  8
1
 10
14.24845978402135
 20
38.892509479038303
 30
0.0
 11
50.248459784021399
 21
38.89250947903831
 31
0.0
  0
LINE
  5
DF48
  8
1
 10
32.248459784021406
 20
20.892509479038289
 30
0.0
 11
32.248459784021406
 21
56.892509479038281
 31
0.0
  0
CIRCLE
  5
DF49
  8
0
 10
32.248459784021406
 20
38.892509479038303
 30
0.0
 40
3.3235000000000001
  0
LINE
  5
DF4C
  8
0
 10
47.248459784021399
 20
23.892509479038299
 30
0.0
 11
47.248459784021399
 21
53.892509479038289
 31
0.0
  0
LINE
  5
DF50
  8
0
 10
17.24845978402141
 20
23.892509479038299
 30
0.0
 11
47.248459784021399
 21
23.892509479038299
 31
0.0
  0
LINE
  5
DF53
  8
0
 10
17.24845978402141
 20
53.892509479038289
 30
0.0
 11
47.248459784021399
 21
53.892509479038289
 31
0.0
  0
LINE
  5
DF58
  8
0
 10
17.24845978402141
 20
23.892509479038299
 30
0.0
 11
17.24845978402141
 21
53.892509479038289
 31
0.0
  0
CIRCLE
  5
DF5F
  8
0
 10
32.248459784021406
 20
38.892509479038303
 30
0.0
 40
4.2000000000000002
  0
CIRCLE
  5
DF6F
  8
3
 10
32.248459784021406
 20
38.892509479038303
 30
0.0
 40
4.0
  0
TEXT
  5
E044
  8
0
 62
     3
 10
0.0
 20
0.0
 30
0.0
 40
10.0
  1
NDLQ30-M8
  7
STANDARD1
  0
ENDSEC
  0
EOF
