  0
SECTION
  2
HEADER
  9
$ACADVER
  1
AC1009
  9
$INSBASE
 10
0.0
 20
0.0
 30
0.0
  9
$EXTMIN
 10
50.000000000000071
 20
51.019781718963159
 30
0.0
  9
$EXTMAX
 10
400.0
 20
182.0
 30
0.0
  9
$LIMMIN
 10
0.0
 20
0.0
  9
$LIMMAX
 10
4205.0
 20
2970.0
  9
$ORTHOMODE
 70
     1
  9
$REGENMODE
 70
     1
  9
$FILLMODE
 70
     1
  9
$QTEXTMODE
 70
     0
  9
$MIRRTEXT
 70
     0
  9
$DRAGMODE
 70
     2
  9
$LTSCALE
 40
10.0
  9
$OSMODE
 70
    37
  9
$ATTMODE
 70
     1
  9
$TEXTSIZE
 40
3.0
  9
$TRACEWID
 40
0.05
  9
$TEXTSTYLE
  7
STANDARD
  9
$CLAYER
  8
0
  9
$CELTYPE
  6
BYLAYER
  9
$CECOLOR
 62
   256
  9
$DIMSCALE
 40
1.0
  9
$DIMASZ
 40
3.0
  9
$DIMEXO
 40
2.0
  9
$DIMDLI
 40
10.0
  9
$DIMRND
 40
0.0
  9
$DIMDLE
 40
0.0
  9
$DIMEXE
 40
2.0
  9
$DIMTP
 40
0.0
  9
$DIMTM
 40
0.0
  9
$DIMTXT
 40
3.0
  9
$DIMCEN
 40
0.0
  9
$DIMTSZ
 40
0.0
  9
$DIMTOL
 70
     0
  9
$DIMLIM
 70
     0
  9
$DIMTIH
 70
     0
  9
$DIMTOH
 70
     0
  9
$DIMSE1
 70
     0
  9
$DIMSE2
 70
     0
  9
$DIMTAD
 70
     1
  9
$DIMZIN
 70
     0
  9
$DIMBLK
  1

  9
$DIMASO
 70
     0
  9
$DIMSHO
 70
     0
  9
$DIMPOST
  1

  9
$DIMAPOST
  1

  9
$DIMALT
 70
     0
  9
$DIMALTD
 70
     2
  9
$DIMALTF
 40
25.399999999999999
  9
$DIMLFAC
 40
1.0
  9
$DIMTOFL
 70
     1
  9
$DIMTVP
 40
1.6000000000000001
  9
$DIMTIX
 70
     1
  9
$DIMSOXD
 70
     0
  9
$DIMSAH
 70
     0
  9
$DIMBLK1
  1

  9
$DIMBLK2
  1

  9
$DIMSTYLE
  2
STANDARD
  9
$DIMCLRD
 70
     0
  9
$DIMCLRE
 70
     0
  9
$DIMCLRT
 70
     0
  9
$DIMTFAC
 40
1.0
  9
$DIMGAP
 40
0.09
  9
$LUNITS
 70
     2
  9
$LUPREC
 70
     2
  9
$SKETCHINC
 40
0.1
  9
$FILLETRAD
 40
0.0
  9
$AUNITS
 70
     0
  9
$AUPREC
 70
     2
  9
$MENU
  1
ME
  9
$ELEVATION
 40
0.0
  9
$PELEVATION
 40
0.0
  9
$THICKNESS
 40
0.0
  9
$LIMCHECK
 70
     0
  9
$BLIPMODE
 70
     0
  9
$CHAMFERA
 40
3.0
  9
$CHAMFERB
 40
3.0
  9
$SKPOLY
 70
     0
  9
$TDCREATE
 40
2451920.3634869209
  9
$TDUPDATE
 40
2456598.7251904281
  9
$TDINDWG
 40
0.8090633333
  9
$TDUSRTIMER
 40
2456598.1055928008
  9
$USRTIMER
 70
     1
  9
$ANGBASE
 50
0.0
  9
$ANGDIR
 70
     0
  9
$PDMODE
 70
     0
  9
$PDSIZE
 40
0.0
  9
$PLINEWID
 40
0.0
  9
$COORDS
 70
     1
  9
$SPLFRAME
 70
     0
  9
$SPLINETYPE
 70
     6
  9
$SPLINESEGS
 70
     8
  9
$ATTDIA
 70
     0
  9
$ATTREQ
 70
     1
  9
$HANDLING
 70
     1
  9
$HANDSEED
  5
3F6
  9
$SURFTAB1
 70
     6
  9
$SURFTAB2
 70
     6
  9
$SURFTYPE
 70
     6
  9
$SURFU
 70
     6
  9
$SURFV
 70
     6
  9
$UCSNAME
  2

  9
$UCSORG
 10
0.0
 20
0.0
 30
0.0
  9
$UCSXDIR
 10
1.0
 20
0.0
 30
0.0
  9
$UCSYDIR
 10
0.0
 20
1.0
 30
0.0
  9
$PUCSNAME
  2

  9
$PUCSORG
 10
0.0
 20
0.0
 30
0.0
  9
$PUCSXDIR
 10
1.0
 20
0.0
 30
0.0
  9
$PUCSYDIR
 10
0.0
 20
1.0
 30
0.0
  9
$USERI1
 70
     1
  9
$USERI2
 70
     1
  9
$USERI3
 70
     5
  9
$USERI4
 70
     1
  9
$USERI5
 70
     0
  9
$USERR1
 40
5.0
  9
$USERR2
 40
3.0
  9
$USERR3
 40
1.5
  9
$USERR4
 40
1.5
  9
$USERR5
 40
10.0
  9
$WORLDVIEW
 70
     1
  9
$SHADEDGE
 70
     3
  9
$SHADEDIF
 70
    70
  9
$TILEMODE
 70
     1
  9
$MAXACTVP
 70
    16
  9
$PLIMCHECK
 70
     0
  9
$PEXTMIN
 10
1.0000000000000000E+020
 20
1.0000000000000000E+020
 30
1.0000000000000000E+020
  9
$PEXTMAX
 10
-1.0000000000000000E+020
 20
-1.0000000000000000E+020
 30
-1.0000000000000000E+020
  9
$PLIMMIN
 10
0.0
 20
0.0
  9
$PLIMMAX
 10
12.0
 20
9.0
  9
$UNITMODE
 70
     0
  9
$VISRETAIN
 70
     0
  9
$PLINEGEN
 70
     0
  9
$PSLTSCALE
 70
     0
  0
ENDSEC
  0
SECTION
  2
TABLES
  0
TABLE
  2
VPORT
 70
     1
  0
VPORT
  2
*ACTIVE
 70
     0
 10
0.0
 20
0.0
 11
1.0
 21
1.0
 12
377.86387867197749
 22
117.2075
 13
0.0
 23
0.0
 14
5.0
 24
5.0
 15
10.0
 25
10.0
 16
0.0
 26
0.0
 36
1.0
 17
0.0
 27
0.0
 37
0.0
 40
376.97156215213357
 41
1.7552447552447541
 42
50.0
 43
0.0
 44
0.0
 50
0.0
 51
0.0
 71
    16
 72
  1000
 73
     1
 74
     0
 75
     0
 76
     0
 77
     0
 78
     1
  0
ENDTAB
  0
TABLE
  2
LTYPE
 70
     4
  0
LTYPE
  2
CONTINUOUS
 70
     0
  3
Solid Line
 72
    65
 73
     0
 40
0.0
  0
LTYPE
  2
CENTER
 70
     0
  3
____ _ ____ _ ____ _ ____ _ ____ _ ____ _ ____
 72
    65
 73
     4
 40
2.0
 49
1.25
 49
-0.25
 49
0.25
 49
-0.25
  0
LTYPE
  2
HIDDEN
 70
     0
  3
_ _ _ _ _ _ _ _ _ _ _ _ _ _ _ _ _ _ _ _ _ _ _
 72
    65
 73
     2
 40
0.375
 49
0.25
 49
-0.125
  0
LTYPE
  2
PHANTOM2
 70
     0
  3
___ _ _ ___ _ _ ___ _ _ ___ _ _
 72
    65
 73
     6
 40
1.25
 49
0.625
 49
-0.125
 49
0.125
 49
-0.125
 49
0.125
 49
-0.125
  0
ENDTAB
  0
TABLE
  2
LAYER
 70
     4
  0
LAYER
  2
0
 70
     0
 62
     7
  6
CONTINUOUS
  0
LAYER
  2
1
 70
     0
 62
     1
  6
CENTER
  0
LAYER
  2
3
 70
     0
 62
     3
  6
CONTINUOUS
  0
LAYER
  2
2
 70
     0
 62
     2
  6
HIDDEN
  0
ENDTAB
  0
TABLE
  2
STYLE
 70
     2
  0
STYLE
  2
STANDARD
 70
     0
 40
0.0
 41
1.0
 50
0.0
 71
     0
 42
3.0
  3
C:/r13/com/fonts/Romans
  4
C:/r13/com/fonts/Extfont
  0
STYLE
  2
STANDARD1
 70
     0
 40
0.0
 41
1.0
 50
0.0
 71
     0
 42
3.0
  3
txt
  4

  0
ENDTAB
  0
TABLE
  2
VIEW
 70
     0
  0
ENDTAB
  0
TABLE
  2
UCS
 70
     0
  0
ENDTAB
  0
TABLE
  2
APPID
 70
     6
  0
APPID
  2
ACAD
 70
     0
  0
APPID
  2
ACAD_DSTYLE_DIMJAG
 70
     0
  0
APPID
  2
ACAD_DSTYLE_DIMTALN
 70
     0
  0
APPID
  2
ACAD_EXEMPT_FROM_CAD_STANDARDS
 70
     0
  0
APPID
  2
ACAD_MLEADERVER
 70
     0
  0
APPID
  2
ACAD_NAV_VCDISPLAY
 70
     0
  0
ENDTAB
  0
TABLE
  2
DIMSTYLE
 70
     1
  0
DIMSTYLE
  2
STANDARD
 70
     0
  3

  4

  5

  6

  7

 40
1.0
 41
0.18
 42
0.0625
 43
0.38
 44
0.18
 45
0.0
 46
0.0
 47
0.0
 48
0.0
140
0.18
141
0.09
142
0.0
143
25.399999999999999
144
1.0
145
0.0
146
1.0
147
0.09
 71
     0
 72
     0
 73
     1
 74
     1
 75
     0
 76
     0
 77
     0
 78
     0
170
     0
171
     2
172
     0
173
     0
174
     0
175
     0
176
     0
177
     0
178
     0
  0
ENDTAB
  0
ENDSEC
  0
SECTION
  2
BLOCKS
  0
BLOCK
  8
0
  2
$MODEL_SPACE
 70
     0
 10
0.0
 20
0.0
 30
0.0
  3
$MODEL_SPACE
  1

  0
ENDBLK
  5
116
  8
0
  0
BLOCK
 67
     1
  8
0
  2
$PAPER_SPACE
 70
     0
 10
0.0
 20
0.0
 30
0.0
  3
$PAPER_SPACE
  1

  0
ENDBLK
  5
114
 67
     1
  8
0
  0
ENDSEC
  0
SECTION
  2
ENTITIES
  0
LINE
  5
3C
  8
0
 10
147.5
 20
156.5
 30
0.0
 11
143.9442719099992
 21
156.5
 31
0.0
  0
LINE
  5
3D
  8
0
 10
147.5
 20
172.5
 30
0.0
 11
143.9442719099992
 21
172.5
 31
0.0
  0
LINE
  5
41
  8
1
 10
135.0
 20
182.0
 30
0.0
 11
135.0
 21
147.0
 31
0.0
  0
LINE
  5
44
  8
1
 10
152.5
 20
164.5
 30
0.0
 11
117.5
 21
164.5
 31
0.0
  0
LINE
  5
45
  8
0
 10
122.5
 20
152.0
 30
0.0
 11
122.5
 21
177.0
 31
0.0
  0
LINE
  5
46
  8
0
 10
147.5
 20
177.0
 30
0.0
 11
147.5
 21
152.0
 31
0.0
  0
LINE
  5
47
  8
0
 10
122.5
 20
152.0
 30
0.0
 11
147.5
 21
152.0
 31
0.0
  0
LINE
  5
48
  8
0
 10
122.5
 20
177.0
 30
0.0
 11
147.5
 21
177.0
 31
0.0
  0
LINE
  5
49
  8
1
 10
82.500000000000057
 20
75.0
 30
0.0
 11
82.500000000000057
 21
129.5
 31
0.0
  0
LINE
  5
4A
  8
1
 10
135.0
 20
129.5
 30
0.0
 11
135.0
 21
75.0
 31
0.0
  0
LINE
  5
4B
  8
0
 10
147.5
 20
98.0
 30
0.0
 11
122.5
 21
98.0
 31
0.0
  0
LINE
  5
4C
  8
0
 10
147.5
 20
89.0
 30
0.0
 11
122.5
 21
89.0
 31
0.0
  0
LINE
  5
4D
  8
0
 10
147.5
 20
80.0
 30
0.0
 11
122.5
 21
80.0
 31
0.0
  0
LINE
  5
4E
  8
0
 10
122.5
 20
80.0
 30
0.0
 11
122.5
 21
98.0
 31
0.0
  0
LINE
  5
4F
  8
0
 10
147.5
 20
80.0
 30
0.0
 11
147.5
 21
98.0
 31
0.0
  0
LINE
  5
50
  8
0
 10
147.5
 20
82.5
 30
0.0
 11
122.5
 21
82.5
 31
0.0
  0
LINE
  5
51
  8
0
 10
72.500000000000057
 20
80.0
 30
0.0
 11
92.500000000000057
 21
80.0
 31
0.0
  0
LINE
  5
52
  8
0
 10
95.000000000000057
 20
82.5
 30
0.0
 11
95.000000000000057
 21
89.0
 31
0.0
  0
LINE
  5
53
  8
0
 10
95.000000000000057
 20
89.0
 30
0.0
 11
90.900000000000148
 21
89.0
 31
0.0
  0
LINE
  5
54
  8
0
 10
90.500000000000057
 20
89.400000000000105
 30
0.0
 11
90.500000000000057
 21
98.0
 31
0.0
  0
LINE
  5
55
  8
0
 10
90.500000000000057
 20
98.0
 30
0.0
 11
74.500000000000057
 21
98.0
 31
0.0
  0
LINE
  5
56
  8
0
 10
74.500000000000057
 20
98.0
 30
0.0
 11
74.500000000000057
 21
89.400000000000105
 31
0.0
  0
LINE
  5
57
  8
0
 10
74.099999999999966
 20
89.0
 30
0.0
 11
70.000000000000057
 21
89.0
 31
0.0
  0
LINE
  5
58
  8
0
 10
70.000000000000057
 20
89.0
 30
0.0
 11
70.000000000000057
 21
82.5
 31
0.0
  0
ARC
  5
59
  8
0
 10
74.099999999999511
 20
89.400000000000105
 30
0.0
 40
0.4
 50
270.0
 51
0.0
  0
ARC
  5
5A
  8
0
 10
90.899999999999693
 20
89.400000000000105
 30
0.0
 40
0.4
 50
180.0
 51
270.0
  0
LINE
  5
5B
  8
0
 10
70.000000000000057
 20
82.5
 30
0.0
 11
72.500000000000057
 21
80.0
 31
0.0
  0
LINE
  5
5C
  8
0
 10
95.000000000000057
 20
82.5
 30
0.0
 11
92.500000000000057
 21
80.0
 31
0.0
  0
LINE
  5
B3
  8
3
 10
129.94700000000009
 20
116.3597478852322
 30
0.0
 11
129.00000000000011
 21
117.9999999999999
 31
0.0
  0
LINE
  5
B4
  8
3
 10
140.05300000000011
 20
116.3597478852322
 30
0.0
 11
141.00000000000011
 21
117.9999999999999
 31
0.0
  0
LINE
  5
B5
  8
0
 10
129.00000000000011
 20
116.3597478852322
 30
0.0
 11
141.00000000000011
 21
116.3597478852322
 31
0.0
  0
LINE
  5
B6
  8
0
 10
147.00000000000011
 20
124.5
 30
0.0
 11
147.00000000000011
 21
124.0
 31
0.0
  0
LINE
  5
B7
  8
0
 10
147.00000000000011
 20
124.0
 30
0.0
 11
123.0000000000001
 21
124.0
 31
0.0
  0
LINE
  5
B8
  8
0
 10
123.0000000000001
 20
124.0
 30
0.0
 11
123.0000000000001
 21
124.5
 31
0.0
  0
LINE
  5
B9
  8
0
 10
123.0000000000001
 20
124.5
 30
0.0
 11
147.00000000000011
 21
124.5
 31
0.0
  0
LINE
  5
BA
  8
0
 10
147.00000000000011
 20
124.0
 30
0.0
 11
141.00000000000011
 21
117.9999999999999
 31
0.0
  0
LINE
  5
BB
  8
0
 10
141.00000000000011
 20
117.9999999999999
 30
0.0
 11
129.00000000000011
 21
117.9999999999999
 31
0.0
  0
LINE
  5
BC
  8
0
 10
123.0000000000001
 20
124.0
 30
0.0
 11
129.00000000000011
 21
117.9999999999999
 31
0.0
  0
LINE
  5
BD
  8
0
 10
141.00000000000011
 20
117.9999999999999
 30
0.0
 11
141.00000000000011
 21
98.0
 31
0.0
  0
LINE
  5
BE
  8
3
 10
140.05300000000011
 20
116.3597478852322
 30
0.0
 11
140.05300000000011
 21
98.0
 31
0.0
  0
LINE
  5
BF
  8
3
 10
129.94700000000009
 20
116.3597478852322
 30
0.0
 11
129.947
 21
98.0
 31
0.0
  0
LINE
  5
C0
  8
0
 10
129.00000000000011
 20
117.9999999999999
 30
0.0
 11
129.00000000000011
 21
98.0
 31
0.0
  0
LINE
  5
C1
  8
2
 10
129.00000000000011
 20
98.0
 30
0.0
 11
129.0
 21
86.500000000000057
 31
0.0
  0
LINE
  5
C2
  8
2
 10
129.947
 20
98.0
 30
0.0
 11
129.947
 21
85.553000000000068
 31
0.0
  0
LINE
  5
C3
  8
2
 10
140.05300000000011
 20
98.0
 30
0.0
 11
140.05300000000011
 21
85.552999999999997
 31
0.0
  0
LINE
  5
C4
  8
2
 10
141.00000000000011
 20
98.0
 30
0.0
 11
141.0
 21
86.499999999999943
 31
0.0
  0
LINE
  5
C5
  8
2
 10
141.00000000000011
 20
86.499999999999957
 30
0.0
 11
129.0
 21
86.500000000000057
 31
0.0
  0
LINE
  5
C6
  8
2
 10
131.0
 20
84.500000000000057
 30
0.0
 11
129.0
 21
86.500000000000057
 31
0.0
  0
LINE
  5
C7
  8
2
 10
139.0
 20
84.499999999999929
 30
0.0
 11
141.0
 21
86.499999999999943
 31
0.0
  0
LINE
  5
C8
  8
2
 10
139.0
 20
84.499999999999929
 30
0.0
 11
131.0
 21
84.500000000000057
 31
0.0
  0
LINE
  5
C9
  8
0
 10
70.500000000000142
 20
124.0
 30
0.0
 11
76.500000000000142
 21
117.9999999999999
 31
0.0
  0
LINE
  5
CA
  8
0
 10
88.500000000000114
 20
117.9999999999999
 30
0.0
 11
76.500000000000142
 21
117.9999999999999
 31
0.0
  0
LINE
  5
CB
  8
0
 10
94.500000000000114
 20
124.0
 30
0.0
 11
88.500000000000114
 21
117.9999999999999
 31
0.0
  0
LINE
  5
CC
  8
0
 10
70.500000000000142
 20
124.5
 30
0.0
 11
94.500000000000114
 21
124.5
 31
0.0
  0
LINE
  5
CD
  8
0
 10
70.500000000000142
 20
124.0
 30
0.0
 11
70.500000000000142
 21
124.5
 31
0.0
  0
LINE
  5
CE
  8
0
 10
94.500000000000114
 20
124.0
 30
0.0
 11
70.500000000000142
 21
124.0
 31
0.0
  0
LINE
  5
CF
  8
0
 10
94.500000000000114
 20
124.5
 30
0.0
 11
94.500000000000114
 21
124.0
 31
0.0
  0
LINE
  5
D0
  8
0
 10
76.500000000000142
 20
116.3597478852322
 30
0.0
 11
88.500000000000171
 21
116.3597478852322
 31
0.0
  0
LINE
  5
D1
  8
3
 10
87.553000000000168
 20
116.3597478852322
 30
0.0
 11
88.500000000000171
 21
117.9999999999999
 31
0.0
  0
LINE
  5
D2
  8
3
 10
77.447000000000145
 20
116.3597478852322
 30
0.0
 11
76.500000000000142
 21
117.9999999999999
 31
0.0
  0
LINE
  5
D3
  8
3
 10
87.553000000000168
 20
116.3597478852322
 30
0.0
 11
87.553000000000168
 21
98.0
 31
0.0
  0
LINE
  5
D4
  8
0
 10
88.500000000000114
 20
117.9999999999999
 30
0.0
 11
88.500000000000114
 21
98.0
 31
0.0
  0
LINE
  5
D5
  8
0
 10
76.500000000000142
 20
117.9999999999999
 30
0.0
 11
76.500000000000085
 21
98.0
 31
0.0
  0
LINE
  5
D6
  8
3
 10
77.447000000000116
 20
116.3597478852322
 30
0.0
 11
77.447000000000074
 21
98.0
 31
0.0
  0
LINE
  5
D7
  8
2
 10
86.500000000000057
 20
84.499999999999929
 30
0.0
 11
78.500000000000085
 21
84.500000000000057
 31
0.0
  0
LINE
  5
D8
  8
2
 10
86.500000000000057
 20
84.499999999999929
 30
0.0
 11
88.500000000000057
 21
86.499999999999943
 31
0.0
  0
LINE
  5
D9
  8
2
 10
78.500000000000085
 20
84.500000000000057
 30
0.0
 11
76.500000000000085
 21
86.500000000000057
 31
0.0
  0
LINE
  5
DA
  8
2
 10
88.500000000000114
 20
86.499999999999957
 30
0.0
 11
76.500000000000085
 21
86.500000000000057
 31
0.0
  0
LINE
  5
DB
  8
2
 10
88.500000000000114
 20
98.0
 30
0.0
 11
88.500000000000057
 21
86.499999999999943
 31
0.0
  0
LINE
  5
DC
  8
2
 10
87.553000000000168
 20
98.0
 30
0.0
 11
87.553000000000097
 21
85.552999999999997
 31
0.0
  0
LINE
  5
DD
  8
2
 10
77.447000000000074
 20
98.0
 30
0.0
 11
77.447000000000074
 21
85.553000000000068
 31
0.0
  0
LINE
  5
DE
  8
2
 10
76.500000000000085
 20
98.0
 30
0.0
 11
76.500000000000085
 21
86.500000000000057
 31
0.0
  0
LINE
  5
1C7
  8
0
 10
132.69059892324191
 20
168.49999999999949
 30
0.0
 11
130.3811978464833
 21
164.49999999999949
 31
0.0
  0
LINE
  5
1C8
  8
0
 10
130.3811978464833
 20
164.49999999999949
 30
0.0
 11
132.69059892324191
 21
160.5
 31
0.0
  0
LINE
  5
1C9
  8
0
 10
132.69059892324191
 20
160.5
 30
0.0
 11
137.30940107675951
 21
160.5
 31
0.0
  0
LINE
  5
1CA
  8
0
 10
137.30940107675951
 20
160.5
 30
0.0
 11
139.61880215351721
 21
164.5
 31
0.0
  0
LINE
  5
1CB
  8
0
 10
139.61880215351721
 20
164.5
 30
0.0
 11
137.30940107675821
 21
168.5000000000004
 31
0.0
  0
LINE
  5
1CC
  8
0
 10
137.30940107675821
 20
168.5000000000004
 30
0.0
 11
132.69059892324191
 21
168.49999999999949
 31
0.0
  0
CIRCLE
  5
1CD
  8
0
 10
135.0
 20
164.5
 30
0.0
 40
12.0
  0
LINE
  5
1CE
  8
0
 10
126.0557280900009
 20
156.5
 30
0.0
 11
122.5
 21
156.5
 31
0.0
  0
LINE
  5
1CF
  8
0
 10
126.0557280900009
 20
172.5
 30
0.0
 11
122.5
 21
172.5
 31
0.0
  0
LINE
  5
26D
  8
0
 10
322.5
 20
156.5
 30
0.0
 11
326.05572809000091
 21
156.5
 31
0.0
  0
LINE
  5
26E
  8
0
 10
343.9442719099992
 20
156.5
 30
0.0
 11
347.5
 21
156.5
 31
0.0
  0
LINE
  5
26F
  8
0
 10
322.5
 20
172.5
 30
0.0
 11
326.05572809000091
 21
172.5
 31
0.0
  0
LINE
  5
270
  8
0
 10
343.9442719099992
 20
172.5
 30
0.0
 11
347.5
 21
172.5
 31
0.0
  0
LINE
  5
271
  8
1
 10
335.0
 20
182.0
 30
0.0
 11
335.0
 21
147.0
 31
0.0
  0
LINE
  5
272
  8
1
 10
317.50000000000011
 20
164.5
 30
0.0
 11
352.50000000000011
 21
164.5
 31
0.0
  0
LINE
  5
273
  8
0
 10
347.5
 20
152.0
 30
0.0
 11
347.5
 21
177.0
 31
0.0
  0
LINE
  5
274
  8
0
 10
322.5
 20
177.0
 30
0.0
 11
322.5
 21
152.0
 31
0.0
  0
LINE
  5
275
  8
0
 10
347.5
 20
152.0
 30
0.0
 11
322.5
 21
152.0
 31
0.0
  0
LINE
  5
276
  8
0
 10
347.5
 20
177.0
 30
0.0
 11
322.5
 21
177.0
 31
0.0
  0
LINE
  5
277
  8
1
 10
387.5
 20
75.0
 30
0.0
 11
387.5
 21
129.5
 31
0.0
  0
LINE
  5
278
  8
1
 10
335.0
 20
129.5
 30
0.0
 11
335.0
 21
75.0
 31
0.0
  0
LINE
  5
279
  8
0
 10
322.5
 20
98.0
 30
0.0
 11
347.5
 21
98.0
 31
0.0
  0
LINE
  5
27A
  8
0
 10
322.5
 20
89.0
 30
0.0
 11
347.5
 21
89.0
 31
0.0
  0
LINE
  5
27B
  8
0
 10
322.5
 20
80.0
 30
0.0
 11
347.5
 21
80.0
 31
0.0
  0
LINE
  5
27C
  8
0
 10
347.5
 20
80.0
 30
0.0
 11
347.5
 21
98.0
 31
0.0
  0
LINE
  5
27D
  8
0
 10
322.5
 20
80.0
 30
0.0
 11
322.5
 21
98.0
 31
0.0
  0
LINE
  5
27E
  8
0
 10
322.5
 20
82.5
 30
0.0
 11
347.5
 21
82.5
 31
0.0
  0
LINE
  5
27F
  8
0
 10
397.50000000000011
 20
80.0
 30
0.0
 11
377.50000000000011
 21
80.0
 31
0.0
  0
LINE
  5
280
  8
0
 10
375.0
 20
82.5
 30
0.0
 11
375.0
 21
89.0
 31
0.0
  0
LINE
  5
281
  8
0
 10
375.0
 20
89.0
 30
0.0
 11
379.10000000000002
 21
89.0
 31
0.0
  0
LINE
  5
282
  8
0
 10
379.50000000000011
 20
89.400000000000105
 30
0.0
 11
379.50000000000011
 21
98.0
 31
0.0
  0
LINE
  5
283
  8
0
 10
379.50000000000011
 20
98.0
 30
0.0
 11
395.5
 21
98.0
 31
0.0
  0
LINE
  5
284
  8
0
 10
395.5
 20
98.0
 30
0.0
 11
395.5
 21
89.400000000000105
 31
0.0
  0
LINE
  5
285
  8
0
 10
395.90000000000009
 20
89.0
 30
0.0
 11
400.0
 21
89.0
 31
0.0
  0
LINE
  5
286
  8
0
 10
400.0
 20
89.0
 30
0.0
 11
400.0
 21
82.5
 31
0.0
  0
ARC
  5
287
  8
0
 10
395.9000000000006
 20
89.400000000000105
 30
0.0
 40
0.4
 50
180.0
 51
270.0
  0
ARC
  5
288
  8
0
 10
379.10000000000042
 20
89.400000000000105
 30
0.0
 40
0.4
 50
270.0
 51
0.0
  0
LINE
  5
289
  8
0
 10
400.0
 20
82.5
 30
0.0
 11
397.50000000000011
 21
80.0
 31
0.0
  0
LINE
  5
28A
  8
0
 10
375.0
 20
82.5
 30
0.0
 11
377.50000000000011
 21
80.0
 31
0.0
  0
LINE
  5
28B
  8
3
 10
340.053
 20
116.3597478852322
 30
0.0
 11
341.0
 21
117.9999999999999
 31
0.0
  0
LINE
  5
28C
  8
3
 10
329.94699999999989
 20
116.3597478852322
 30
0.0
 11
329.0
 21
117.9999999999999
 31
0.0
  0
LINE
  5
28D
  8
0
 10
341.0
 20
116.3597478852322
 30
0.0
 11
329.0
 21
116.3597478852322
 31
0.0
  0
LINE
  5
28E
  8
0
 10
323.0
 20
124.5
 30
0.0
 11
323.0
 21
124.0
 31
0.0
  0
LINE
  5
28F
  8
0
 10
323.0
 20
124.0
 30
0.0
 11
347.0
 21
124.0
 31
0.0
  0
LINE
  5
290
  8
0
 10
347.0
 20
124.0
 30
0.0
 11
347.0
 21
124.5
 31
0.0
  0
LINE
  5
291
  8
0
 10
347.0
 20
124.5
 30
0.0
 11
323.0
 21
124.5
 31
0.0
  0
LINE
  5
292
  8
0
 10
323.0
 20
124.0
 30
0.0
 11
329.0
 21
117.9999999999999
 31
0.0
  0
LINE
  5
293
  8
0
 10
329.0
 20
117.9999999999999
 30
0.0
 11
341.0
 21
117.9999999999999
 31
0.0
  0
LINE
  5
294
  8
0
 10
347.0
 20
124.0
 30
0.0
 11
341.0
 21
117.9999999999999
 31
0.0
  0
LINE
  5
295
  8
0
 10
329.0
 20
117.9999999999999
 30
0.0
 11
329.0
 21
98.0
 31
0.0
  0
LINE
  5
296
  8
3
 10
329.94699999999989
 20
116.3597478852322
 30
0.0
 11
329.947
 21
98.0
 31
0.0
  0
LINE
  5
297
  8
3
 10
340.053
 20
116.3597478852322
 30
0.0
 11
340.05300000000011
 21
98.0
 31
0.0
  0
LINE
  5
298
  8
0
 10
341.0
 20
117.9999999999999
 30
0.0
 11
341.0
 21
98.0
 31
0.0
  0
LINE
  5
299
  8
2
 10
341.0
 20
98.0
 30
0.0
 11
341.00000000000011
 21
86.500000000000057
 31
0.0
  0
LINE
  5
29A
  8
2
 10
340.05300000000011
 20
98.0
 30
0.0
 11
340.05300000000011
 21
85.553000000000068
 31
0.0
  0
LINE
  5
29B
  8
2
 10
329.947
 20
98.0
 30
0.0
 11
329.947
 21
85.552999999999997
 31
0.0
  0
LINE
  5
29C
  8
2
 10
329.0
 20
98.0
 30
0.0
 11
329.0
 21
86.499999999999943
 31
0.0
  0
LINE
  5
29D
  8
2
 10
329.0
 20
86.499999999999957
 30
0.0
 11
341.00000000000011
 21
86.500000000000057
 31
0.0
  0
LINE
  5
29E
  8
2
 10
339.00000000000011
 20
84.500000000000057
 30
0.0
 11
341.00000000000011
 21
86.500000000000057
 31
0.0
  0
LINE
  5
29F
  8
2
 10
331.0
 20
84.499999999999929
 30
0.0
 11
329.0
 21
86.499999999999943
 31
0.0
  0
LINE
  5
2A0
  8
2
 10
331.0
 20
84.499999999999929
 30
0.0
 11
339.00000000000011
 21
84.500000000000057
 31
0.0
  0
LINE
  5
2A1
  8
0
 10
399.5
 20
124.0
 30
0.0
 11
393.5
 21
117.9999999999999
 31
0.0
  0
LINE
  5
2A2
  8
0
 10
381.5
 20
117.9999999999999
 30
0.0
 11
393.5
 21
117.9999999999999
 31
0.0
  0
LINE
  5
2A3
  8
0
 10
375.5
 20
124.0
 30
0.0
 11
381.5
 21
117.9999999999999
 31
0.0
  0
LINE
  5
2A4
  8
0
 10
399.5
 20
124.5
 30
0.0
 11
375.5
 21
124.5
 31
0.0
  0
LINE
  5
2A5
  8
0
 10
399.5
 20
124.0
 30
0.0
 11
399.5
 21
124.5
 31
0.0
  0
LINE
  5
2A6
  8
0
 10
375.5
 20
124.0
 30
0.0
 11
399.5
 21
124.0
 31
0.0
  0
LINE
  5
2A7
  8
0
 10
375.5
 20
124.5
 30
0.0
 11
375.5
 21
124.0
 31
0.0
  0
LINE
  5
2A8
  8
0
 10
393.5
 20
116.3597478852322
 30
0.0
 11
381.49999999999989
 21
116.3597478852322
 31
0.0
  0
LINE
  5
2A9
  8
3
 10
382.44699999999989
 20
116.3597478852322
 30
0.0
 11
381.49999999999989
 21
117.9999999999999
 31
0.0
  0
LINE
  5
2AA
  8
3
 10
392.553
 20
116.3597478852322
 30
0.0
 11
393.5
 21
117.9999999999999
 31
0.0
  0
LINE
  5
2AB
  8
3
 10
382.44699999999989
 20
116.3597478852322
 30
0.0
 11
382.44699999999989
 21
98.0
 31
0.0
  0
LINE
  5
2AC
  8
0
 10
381.5
 20
117.9999999999999
 30
0.0
 11
381.5
 21
98.0
 31
0.0
  0
LINE
  5
2AD
  8
0
 10
393.5
 20
117.9999999999999
 30
0.0
 11
393.5
 21
98.0
 31
0.0
  0
LINE
  5
2AE
  8
3
 10
392.553
 20
116.3597478852322
 30
0.0
 11
392.55300000000011
 21
98.0
 31
0.0
  0
LINE
  5
2AF
  8
2
 10
383.50000000000011
 20
84.499999999999929
 30
0.0
 11
391.5
 21
84.500000000000057
 31
0.0
  0
LINE
  5
2B0
  8
2
 10
383.50000000000011
 20
84.499999999999929
 30
0.0
 11
381.50000000000011
 21
86.499999999999943
 31
0.0
  0
LINE
  5
2B1
  8
2
 10
391.5
 20
84.500000000000057
 30
0.0
 11
393.5
 21
86.500000000000057
 31
0.0
  0
LINE
  5
2B2
  8
2
 10
381.5
 20
86.499999999999957
 30
0.0
 11
393.5
 21
86.500000000000057
 31
0.0
  0
LINE
  5
2B3
  8
2
 10
381.5
 20
98.0
 30
0.0
 11
381.50000000000011
 21
86.499999999999943
 31
0.0
  0
LINE
  5
2B4
  8
2
 10
382.44699999999989
 20
98.0
 30
0.0
 11
382.447
 21
85.552999999999997
 31
0.0
  0
LINE
  5
2B5
  8
2
 10
392.55300000000011
 20
98.0
 30
0.0
 11
392.55300000000011
 21
85.553000000000068
 31
0.0
  0
LINE
  5
2B6
  8
2
 10
393.5
 20
98.0
 30
0.0
 11
393.5
 21
86.500000000000057
 31
0.0
  0
LINE
  5
2B7
  8
0
 10
337.30940107675821
 20
168.49999999999949
 30
0.0
 11
339.61880215351681
 21
164.49999999999949
 31
0.0
  0
LINE
  5
2B8
  8
0
 10
339.61880215351681
 20
164.49999999999949
 30
0.0
 11
337.30940107675821
 21
160.5
 31
0.0
  0
LINE
  5
2B9
  8
0
 10
337.30940107675821
 20
160.5
 30
0.0
 11
332.69059892324049
 21
160.5
 31
0.0
  0
LINE
  5
2BA
  8
0
 10
332.69059892324049
 20
160.5
 30
0.0
 11
330.38119784648291
 21
164.5
 31
0.0
  0
LINE
  5
2BB
  8
0
 10
330.38119784648291
 20
164.5
 30
0.0
 11
332.69059892324191
 21
168.5000000000004
 31
0.0
  0
LINE
  5
2BC
  8
0
 10
332.69059892324191
 20
168.5000000000004
 30
0.0
 11
337.30940107675821
 21
168.49999999999949
 31
0.0
  0
CIRCLE
  5
2BD
  8
0
 10
335.0
 20
164.5
 30
0.0
 40
12.0
  0
TEXT
  5
33C
  8
0
 62
     3
 10
50.000000000000071
 20
52.5
 30
0.0
 40
5.0
  1
MVAC150T16
  7
STANDARD1
  0
ENDSEC
  0
EOF
