  0
SECTION
  2
HEADER
  9
$ACADVER
  1
AC1009
  9
$INSBASE
 10
0.0
 20
0.0
 30
0.0
  9
$EXTMIN
 10
0.0
 20
-2.960436562073669
 30
0.0
  9
$EXTMAX
 10
546.48110640410721
 20
456.33504491743389
 30
0.0
  9
$LIMMIN
 10
0.0
 20
0.0
  9
$LIMMAX
 10
750.0
 20
540.0
  9
$ORTHOMODE
 70
     1
  9
$REGENMODE
 70
     1
  9
$FILLMODE
 70
     1
  9
$QTEXTMODE
 70
     0
  9
$MIRRTEXT
 70
     0
  9
$DRAGMODE
 70
     2
  9
$LTSCALE
 40
20.0
  9
$OSMODE
 70
  3071
  9
$ATTMODE
 70
     1
  9
$TEXTSIZE
 40
8.0000000000000497
  9
$TRACEWID
 40
0.05
  9
$TEXTSTYLE
  7
STANDARD
  9
$CLAYER
  8
4
  9
$CELTYPE
  6
BYLAYER
  9
$CECOLOR
 62
   256
  9
$DIMSCALE
 40
2.0
  9
$DIMASZ
 40
3.0
  9
$DIMEXO
 40
2.0
  9
$DIMDLI
 40
0.38
  9
$DIMRND
 40
0.0
  9
$DIMDLE
 40
0.0
  9
$DIMEXE
 40
2.0
  9
$DIMTP
 40
0.0
  9
$DIMTM
 40
0.0
  9
$DIMTXT
 40
3.2000000000000002
  9
$DIMCEN
 40
0.0
  9
$DIMTSZ
 40
0.0
  9
$DIMTOL
 70
     0
  9
$DIMLIM
 70
     0
  9
$DIMTIH
 70
     0
  9
$DIMTOH
 70
     0
  9
$DIMSE1
 70
     0
  9
$DIMSE2
 70
     0
  9
$DIMTAD
 70
     1
  9
$DIMZIN
 70
     0
  9
$DIMBLK
  1

  9
$DIMASO
 70
     1
  9
$DIMSHO
 70
     0
  9
$DIMPOST
  1

  9
$DIMAPOST
  1

  9
$DIMALT
 70
     0
  9
$DIMALTD
 70
     2
  9
$DIMALTF
 40
25.399999999999999
  9
$DIMLFAC
 40
1.0
  9
$DIMTOFL
 70
     1
  9
$DIMTVP
 40
1.6000000000000001
  9
$DIMTIX
 70
     1
  9
$DIMSOXD
 70
     0
  9
$DIMSAH
 70
     0
  9
$DIMBLK1
  1

  9
$DIMBLK2
  1

  9
$DIMSTYLE
  2
STANDARD
  9
$DIMCLRD
 70
     0
  9
$DIMCLRE
 70
     0
  9
$DIMCLRT
 70
     0
  9
$DIMTFAC
 40
1.0
  9
$DIMGAP
 40
0.09
  9
$LUNITS
 70
     2
  9
$LUPREC
 70
     4
  9
$SKETCHINC
 40
0.1
  9
$FILLETRAD
 40
20.0
  9
$AUNITS
 70
     0
  9
$AUPREC
 70
     4
  9
$MENU
  1
E:\r13\win\SUPPORT\ACAD
  9
$ELEVATION
 40
0.0
  9
$PELEVATION
 40
0.0
  9
$THICKNESS
 40
0.0
  9
$LIMCHECK
 70
     0
  9
$BLIPMODE
 70
     0
  9
$CHAMFERA
 40
0.0
  9
$CHAMFERB
 40
0.0
  9
$SKPOLY
 70
     0
  9
$TDCREATE
 40
2449840.6446180558
  9
$TDUPDATE
 40
2456597.6544971191
  9
$TDINDWG
 40
0.0001578819
  9
$TDUSRTIMER
 40
0.0001578819
  9
$USRTIMER
 70
     1
  9
$ANGBASE
 50
0.0
  9
$ANGDIR
 70
     0
  9
$PDMODE
 70
    35
  9
$PDSIZE
 40
0.0
  9
$PLINEWID
 40
0.0
  9
$COORDS
 70
     1
  9
$SPLFRAME
 70
     0
  9
$SPLINETYPE
 70
     6
  9
$SPLINESEGS
 70
     8
  9
$ATTDIA
 70
     0
  9
$ATTREQ
 70
     1
  9
$HANDLING
 70
     1
  9
$HANDSEED
  5
34D
  9
$SURFTAB1
 70
     6
  9
$SURFTAB2
 70
     6
  9
$SURFTYPE
 70
     6
  9
$SURFU
 70
     6
  9
$SURFV
 70
     6
  9
$UCSNAME
  2

  9
$UCSORG
 10
0.0
 20
0.0
 30
0.0
  9
$UCSXDIR
 10
1.0
 20
0.0
 30
0.0
  9
$UCSYDIR
 10
0.0
 20
1.0
 30
0.0
  9
$PUCSNAME
  2

  9
$PUCSORG
 10
0.0
 20
0.0
 30
0.0
  9
$PUCSXDIR
 10
1.0
 20
0.0
 30
0.0
  9
$PUCSYDIR
 10
0.0
 20
1.0
 30
0.0
  9
$USERI1
 70
     0
  9
$USERI2
 70
     1
  9
$USERI3
 70
     1
  9
$USERI4
 70
     0
  9
$USERI5
 70
     0
  9
$USERR1
 40
0.0
  9
$USERR2
 40
0.0
  9
$USERR3
 40
0.0
  9
$USERR4
 40
0.0
  9
$USERR5
 40
0.0
  9
$WORLDVIEW
 70
     1
  9
$SHADEDGE
 70
     3
  9
$SHADEDIF
 70
    70
  9
$TILEMODE
 70
     1
  9
$MAXACTVP
 70
    16
  9
$PLIMCHECK
 70
     0
  9
$PEXTMIN
 10
1.0000000000000000E+020
 20
1.0000000000000000E+020
 30
1.0000000000000000E+020
  9
$PEXTMAX
 10
-1.0000000000000000E+020
 20
-1.0000000000000000E+020
 30
-1.0000000000000000E+020
  9
$PLIMMIN
 10
0.0
 20
0.0
  9
$PLIMMAX
 10
12.0
 20
9.0
  9
$UNITMODE
 70
     0
  9
$VISRETAIN
 70
     0
  9
$PLINEGEN
 70
     0
  9
$PSLTSCALE
 70
     0
  0
ENDSEC
  0
SECTION
  2
TABLES
  0
TABLE
  2
VPORT
 70
     1
  0
VPORT
  2
*ACTIVE
 70
     0
 10
0.0
 20
0.0
 11
1.0
 21
1.0
 12
374.98855678130462
 22
269.68405869568772
 13
0.0
 23
0.0
 14
20.0
 24
20.0
 15
20.0
 25
20.0
 16
0.0
 26
0.0
 36
1.0
 17
0.0
 27
0.0
 37
0.0
 40
551.57487251346481
 41
2.304913294797688
 42
50.0
 43
0.0
 44
0.0
 50
0.0
 51
0.0
 71
     0
 72
   500
 73
     1
 74
     0
 75
     0
 76
     0
 77
     0
 78
     0
  0
ENDTAB
  0
TABLE
  2
LTYPE
 70
     4
  0
LTYPE
  2
CONTINUOUS
 70
     0
  3
Solid Line
 72
    65
 73
     0
 40
0.0
  0
LTYPE
  2
CENTER
 70
     0
  3
____ _ ____ _ ____ _ ____ _ ____ _ ____ _ ____
 72
    65
 73
     4
 40
2.0
 49
1.25
 49
-0.25
 49
0.25
 49
-0.25
  0
LTYPE
  2
HIDDEN
 70
     0
  3
_ _ _ _ _ _ _ _ _ _ _ _ _ _ _ _ _ _ _ _ _ _ _
 72
    65
 73
     2
 40
0.375
 49
0.25
 49
-0.125
  0
LTYPE
  2
PHANTOM2
 70
     0
  3
___ _ _ ___ _ _ ___ _ _ ___ _ _
 72
    65
 73
     6
 40
1.25
 49
0.625
 49
-0.125
 49
0.125
 49
-0.125
 49
0.125
 49
-0.125
  0
ENDTAB
  0
TABLE
  2
LAYER
 70
     5
  0
LAYER
  2
0
 70
     0
 62
     7
  6
CONTINUOUS
  0
LAYER
  2
1
 70
     0
 62
     1
  6
CENTER
  0
LAYER
  2
3
 70
     0
 62
     3
  6
CONTINUOUS
  0
LAYER
  2
4
 70
     0
 62
     4
  6
CONTINUOUS
  0
LAYER
  2
2
 70
     0
 62
     2
  6
HIDDEN
  0
ENDTAB
  0
TABLE
  2
STYLE
 70
     2
  0
STYLE
  2
STANDARD
 70
     0
 40
0.0
 41
1.0
 50
0.0
 71
     0
 42
8.0000000000000497
  3
TXT
  4
BIGFONT
  0
STYLE
  2
STANDARD1
 70
     0
 40
0.0
 41
1.0
 50
0.0
 71
     0
 42
3.0
  3
txt
  4

  0
ENDTAB
  0
TABLE
  2
VIEW
 70
     1
  0
VIEW
  2
ALL
 70
     0
 40
540.0
 10
426.51378151260502
 20
270.0
 41
0.0
 11
0.0
 21
0.0
 31
1.0
 12
0.0
 22
0.0
 32
0.0
 42
0.0
 43
0.0
 44
0.0
 50
0.0
 71
     0
  0
ENDTAB
  0
TABLE
  2
UCS
 70
     0
  0
ENDTAB
  0
TABLE
  2
APPID
 70
     3
  0
APPID
  2
ACAD
 70
     0
  0
APPID
  2
ACAD_MLEADERVER
 70
     0
  0
APPID
  2
ACAD_NAV_VCDISPLAY
 70
     0
  0
ENDTAB
  0
TABLE
  2
DIMSTYLE
 70
     1
  0
DIMSTYLE
  2
STANDARD
 70
     0
  3

  4

  5

  6

  7

 40
1.0
 41
0.18
 42
0.0625
 43
0.38
 44
0.18
 45
0.0
 46
0.0
 47
0.0
 48
0.0
140
0.18
141
0.09
142
0.0
143
25.399999999999999
144
1.0
145
0.0
146
1.0
147
0.09
 71
     0
 72
     0
 73
     1
 74
     1
 75
     0
 76
     0
 77
     0
 78
     0
170
     0
171
     2
172
     0
173
     0
174
     0
175
     0
176
     0
177
     0
178
     0
  0
ENDTAB
  0
ENDSEC
  0
SECTION
  2
BLOCKS
  0
BLOCK
  8
0
  2
$MODEL_SPACE
 70
     0
 10
0.0
 20
0.0
 30
0.0
  3
$MODEL_SPACE
  1

  0
ENDBLK
  5
1C8
  8
0
  0
BLOCK
 67
     1
  8
0
  2
$PAPER_SPACE
 70
     0
 10
0.0
 20
0.0
 30
0.0
  3
$PAPER_SPACE
  1

  0
ENDBLK
  5
1C6
 67
     1
  8
0
  0
ENDSEC
  0
SECTION
  2
ENTITIES
  0
LINE
  5
93
  8
1
 10
264.48110640410732
 20
392.33504491743389
 30
0.0
 11
264.48110640410732
 21
456.33504491743389
 31
0.0
  0
LINE
  5
94
  8
3
 10
312.98110640410732
 20
441.83504491743378
 30
0.0
 11
312.98110640410732
 21
406.83504491743389
 31
0.0
  0
LINE
  5
95
  8
0
 10
315.48110640410732
 20
406.83504491743389
 30
0.0
 11
315.48110640410732
 21
441.83504822105851
 31
0.0
  0
ARC
  5
96
  8
0
 10
312.98110640410732
 20
441.83504491743378
 30
0.0
 40
2.5
 50
0.0
 51
85.998049131566006
  0
ARC
  5
97
  8
0
 10
312.98110640410732
 20
406.83504491743389
 30
0.0
 40
2.5
 50
274.0019508684432
 51
0.0000000000000254
  0
CIRCLE
  5
98
  8
0
 10
264.48110640410732
 20
424.33504491743389
 30
0.0
 40
6.9607695154587068
  0
LINE
  5
99
  8
0
 10
262.17170532734917
 20
420.33504491743429
 30
0.0
 11
259.86230425059063
 21
424.33504491743429
 31
0.0
  0
LINE
  5
9A
  8
0
 10
259.86230425059063
 20
424.33504491743429
 30
0.0
 11
262.17170532734917
 21
428.33504491743389
 31
0.0
  0
LINE
  5
9B
  8
0
 10
262.17170532734917
 20
428.33504491743389
 30
0.0
 11
266.79050748086678
 21
428.33504491743389
 31
0.0
  0
LINE
  5
9C
  8
0
 10
266.79050748086678
 20
428.33504491743389
 30
0.0
 11
269.09990855762447
 21
424.33504491743389
 31
0.0
  0
LINE
  5
9D
  8
0
 10
269.09990855762447
 20
424.33504491743389
 30
0.0
 11
266.79050748086547
 21
420.33504491743338
 31
0.0
  0
LINE
  5
9E
  8
0
 10
266.79050748086547
 20
420.33504491743338
 30
0.0
 11
262.17170532734917
 21
420.33504491743429
 31
0.0
  0
CIRCLE
  5
9F
  8
0
 10
264.48110640410732
 20
424.33504491743389
 30
0.0
 40
8.0
  0
ARC
  5
A0
  8
0
 10
264.48110640410732
 20
424.33504491743389
 30
0.0
 40
22.0
 50
90.000000000000028
 51
270.00000000000011
  0
LINE
  5
A1
  8
0
 10
264.48110640410732
 20
402.33504491743389
 30
0.0
 11
284.48110640410732
 21
402.33504491743389
 31
0.0
  0
LINE
  5
A2
  8
0
 10
264.48110640410732
 20
446.33504491743378
 30
0.0
 11
284.48110640410738
 21
446.33504491743378
 31
0.0
  0
ARC
  5
A3
  8
3
 10
264.48110640410732
 20
424.33504491743389
 30
0.0
 40
21.0
 50
90.000000000000028
 51
270.00000000000011
  0
CIRCLE
  5
A4
  8
0
 10
264.48110640410721
 20
424.33504491743389
 30
0.0
 40
9.0000000000000142
  0
LINE
  5
A5
  8
0
 10
284.48110640410732
 20
402.33504491743389
 30
0.0
 11
313.1555825037056
 21
404.3411407310889
 31
0.0
  0
LINE
  5
A6
  8
0
 10
284.48110640410738
 20
446.33504491743378
 30
0.0
 11
313.1555825037056
 21
444.32894910377883
 31
0.0
  0
LINE
  5
A7
  8
3
 10
313.1555825037056
 20
404.3411407310889
 30
0.0
 11
266.94232039088382
 21
403.28618742258141
 31
0.0
  0
LINE
  5
A8
  8
3
 10
313.1555825037056
 20
444.32894910377883
 30
0.0
 11
265.27566286026888
 21
445.32676653864991
 31
0.0
  0
LINE
  5
A9
  8
3
 10
465.80663030450887
 20
444.32894910377883
 30
0.0
 11
513.68654994794565
 21
445.32676653864991
 31
0.0
  0
LINE
  5
AA
  8
3
 10
465.80663030450887
 20
404.3411407310889
 30
0.0
 11
512.01989241733065
 21
403.28618742258141
 31
0.0
  0
LINE
  5
AB
  8
0
 10
494.48110640410709
 20
446.33504491743378
 30
0.0
 11
465.80663030450887
 21
444.32894910377883
 31
0.0
  0
LINE
  5
AC
  8
0
 10
494.48110640410721
 20
402.33504491743389
 30
0.0
 11
465.80663030450887
 21
404.3411407310889
 31
0.0
  0
CIRCLE
  5
AD
  8
0
 10
514.48110640410732
 20
424.33504491743389
 30
0.0
 40
9.0000000000000142
  0
ARC
  5
AE
  8
3
 10
514.48110640410732
 20
424.33504491743389
 30
0.0
 40
21.0
 50
270.0
 51
90.0
  0
LINE
  5
AF
  8
0
 10
514.48110640410732
 20
446.33504491743378
 30
0.0
 11
494.48110640410709
 21
446.33504491743378
 31
0.0
  0
LINE
  5
B0
  8
0
 10
514.48110640410732
 20
402.33504491743389
 30
0.0
 11
494.48110640410721
 21
402.33504491743389
 31
0.0
  0
ARC
  5
B1
  8
0
 10
514.48110640410732
 20
424.33504491743389
 30
0.0
 40
22.0
 50
270.0
 51
90.0
  0
CIRCLE
  5
B2
  8
0
 10
514.48110640410732
 20
424.33504491743389
 30
0.0
 40
8.0
  0
LINE
  5
B3
  8
0
 10
512.17170532734906
 20
420.33504491743338
 30
0.0
 11
516.79050748086536
 21
420.33504491743429
 31
0.0
  0
LINE
  5
B4
  8
0
 10
509.86230425059
 20
424.33504491743389
 30
0.0
 11
512.17170532734906
 21
420.33504491743338
 31
0.0
  0
LINE
  5
B5
  8
0
 10
512.17170532734781
 20
428.33504491743389
 30
0.0
 11
509.86230425059
 21
424.33504491743389
 31
0.0
  0
LINE
  5
B6
  8
0
 10
516.79050748086536
 20
428.33504491743389
 30
0.0
 11
512.17170532734781
 21
428.33504491743389
 31
0.0
  0
LINE
  5
B7
  8
0
 10
519.09990855762396
 20
424.33504491743429
 30
0.0
 11
516.79050748086536
 21
428.33504491743389
 31
0.0
  0
LINE
  5
B8
  8
0
 10
516.79050748086536
 20
420.33504491743429
 30
0.0
 11
519.09990855762396
 21
424.33504491743429
 31
0.0
  0
CIRCLE
  5
B9
  8
0
 10
514.48110640410732
 20
424.33504491743389
 30
0.0
 40
6.9607695154587068
  0
ARC
  5
BA
  8
0
 10
465.98110640410721
 20
406.83504491743389
 30
0.0
 40
2.5
 50
180.0
 51
265.99804913155691
  0
ARC
  5
BB
  8
0
 10
465.98110640410721
 20
441.83504491743378
 30
0.0
 40
2.5
 50
94.001950868433994
 51
180.0
  0
LINE
  5
BC
  8
0
 10
463.48110640410721
 20
406.83504491743389
 30
0.0
 11
463.48110640410721
 21
441.83504822105851
 31
0.0
  0
LINE
  5
BD
  8
3
 10
465.98110640410721
 20
441.83504491743378
 30
0.0
 11
465.98110640410721
 21
406.83504491743389
 31
0.0
  0
LINE
  5
BE
  8
1
 10
514.48110640410732
 20
392.33504491743389
 30
0.0
 11
514.48110640410732
 21
456.33504491743389
 31
0.0
  0
LINE
  5
BF
  8
0
 10
315.48110640410732
 20
439.33504491743389
 30
0.0
 11
463.48110640410721
 21
439.33504491743389
 31
0.0
  0
LINE
  5
C0
  8
0
 10
463.48110640410721
 20
409.33504491743378
 30
0.0
 11
315.48110640410732
 21
409.33504491743378
 31
0.0
  0
LINE
  5
C1
  8
1
 10
232.4811064041069
 20
424.33504491743389
 30
0.0
 11
546.48110640410721
 21
424.33504491743389
 31
0.0
  0
LINE
  5
C2
  8
0
 10
120.3723535823413
 20
207.74831430192631
 30
0.0
 11
120.3723535823413
 21
202.01929751535579
 31
0.0
  0
LINE
  5
C3
  8
3
 10
119.56035358234131
 20
207.74831430192631
 30
0.0
 11
119.56035358234131
 21
202.01929751535579
 31
0.0
  0
LINE
  5
C4
  8
3
 10
111.1843535823411
 20
207.74831430192631
 30
0.0
 11
111.1843535823411
 21
202.01929751535579
 31
0.0
  0
LINE
  5
C5
  8
0
 10
110.3723535823412
 20
207.74831430192631
 30
0.0
 11
110.3723535823412
 21
202.01929751535579
 31
0.0
  0
LINE
  5
C6
  8
0
 10
120.3723535823413
 20
189.2483143019262
 30
0.0
 11
110.3723535823412
 21
189.24831430192631
 31
0.0
  0
LINE
  5
C7
  8
0
 10
111.8723535823413
 20
187.74831430192631
 30
0.0
 11
110.3723535823412
 21
189.24831430192631
 31
0.0
  0
LINE
  5
C8
  8
0
 10
120.3723535823413
 20
189.2483143019262
 30
0.0
 11
118.8723535823412
 21
187.7483143019262
 31
0.0
  0
LINE
  5
C9
  8
0
 10
118.8723535823412
 20
187.7483143019262
 30
0.0
 11
111.8723535823413
 21
187.74831430192631
 31
0.0
  0
LINE
  5
CA
  8
1
 10
115.3723535823412
 20
177.74831430192631
 30
0.0
 11
115.3723535823412
 21
297.7483143019266
 31
0.0
  0
LINE
  5
CB
  8
0
 10
110.3723535823412
 20
194.01929751535559
 30
0.0
 11
110.3723535823412
 21
189.24831430192631
 31
0.0
  0
LINE
  5
CC
  8
3
 10
111.1843535823411
 20
194.01929751535559
 30
0.0
 11
111.1843535823411
 21
188.43631430192639
 31
0.0
  0
LINE
  5
CD
  8
3
 10
119.56035358234141
 20
194.0192975153555
 30
0.0
 11
119.56035358234141
 21
188.4363143019263
 31
0.0
  0
LINE
  5
CE
  8
0
 10
120.3723535823413
 20
194.01929751535559
 30
0.0
 11
120.3723535823413
 21
189.2483143019262
 31
0.0
  0
LINE
  5
CF
  8
1
 10
85.335784524974713
 20
267.74831430192643
 30
0.0
 11
145.40892263970781
 21
267.74831430192631
 31
0.0
  0
LINE
  5
D0
  8
0
 10
112.55198858983211
 20
242.74831430192631
 30
0.0
 11
118.19271857484959
 21
242.74831430192631
 31
0.0
  0
POLYLINE
  5
D1
  8
0
 66
     1
 10
0.0
 20
0.0
 30
0.0
 70
     1
  0
VERTEX
  5
D2
  8
0
 10
124.3723535823413
 20
253.96689333899889
 30
0.0
 42
0.0765366772132055
  0
VERTEX
  5
D3
  8
0
 10
123.6558069056186
 20
258.62053960654248
 30
0.0
 42
0.0865344571144404
  0
VERTEX
  5
D4
  8
0
 10
121.7363146130202
 20
262.3238907201021
 30
0.0
 42
0.1058407553704419
 70
     2
 50
127.28973871552751
  0
VERTEX
  5
D5
  8
0
 10
118.45983529535251
 20
265.13483173044568
 30
0.0
 42
0.146269350334844
 50
127.28973871552751
  0
VERTEX
  5
D6
  8
0
 10
115.3723535823413
 20
265.78547237607148
 30
0.0
 42
0.1251916892657524
  0
VERTEX
  5
D7
  8
0
 10
112.0616533400095
 20
264.94332918838711
 30
0.0
 42
0.1058407553704431
  0
VERTEX
  5
D8
  8
0
 10
109.0083925516623
 20
262.3238907201021
 30
0.0
 42
0.0865344571144402
 70
     2
 50
232.71026128447249
  0
VERTEX
  5
D9
  8
0
 10
107.088900259064
 20
258.62053960654248
 30
0.0
 42
0.076536677213207
 50
232.71026128447249
  0
VERTEX
  5
DA
  8
0
 10
106.3723535823412
 20
253.96689333899889
 30
0.0
 42
0.076536677213206
  0
VERTEX
  5
DB
  8
0
 10
107.088900259064
 20
249.31324707145529
 30
0.0
 42
0.0865344571144393
  0
VERTEX
  5
DC
  8
0
 10
109.0083925516623
 20
245.6098959578957
 30
0.0
 42
0.1058407553704457
 70
     2
 50
307.28973871552751
  0
VERTEX
  5
DD
  8
0
 10
112.0616533400095
 20
242.99045748961069
 30
0.0
 42
0.1251916892657579
 50
307.28973871552751
  0
VERTEX
  5
DE
  8
0
 10
115.3723535823413
 20
242.14831430192629
 30
0.0
 42
0.1251916892657579
  0
VERTEX
  5
DF
  8
0
 10
118.683053824673
 20
242.99045748961069
 30
0.0
 42
0.1058407553704454
  0
VERTEX
  5
E0
  8
0
 10
121.7363146130202
 20
245.6098959578957
 30
0.0
 42
0.0865344571144387
 70
     2
 50
52.71026128447248
  0
VERTEX
  5
E1
  8
0
 10
123.6558069056185
 20
249.31324707145529
 30
0.0
 42
0.0765366772132061
 50
52.71026128447248
  0
SEQEND
  5
E2
  8
0
  0
POLYLINE
  5
E3
  8
0
 66
     1
 10
0.0
 20
0.0
 30
0.0
  0
VERTEX
  5
E4
  8
0
 10
94.667302722180267
 20
253.96689333899889
 30
0.0
 42
0.0791993567491617
  0
VERTEX
  5
E5
  8
0
 10
96.307595037585472
 20
243.67638350248191
 30
0.0
 42
0.0883026673193633
  0
VERTEX
  5
E6
  8
0
 10
100.731671714309
 20
235.42755830880949
 30
0.0
 42
0.1052096022381528
 70
     2
 50
308.29847215114052
  0
VERTEX
  5
E7
  8
0
 10
108.23260246093901
 20
229.20246839746869
 30
0.0
 42
0.1420153369366078
 50
308.29847215114052
  0
VERTEX
  5
E8
  8
0
 10
115.3723535823412
 20
227.7483143019264
 30
0.0
 42
0.1213570563430466
  0
VERTEX
  5
E9
  8
0
 10
123.03418260475929
 20
229.6357455445758
 30
0.0
 42
0.1052096022381544
  0
VERTEX
  5
EA
  8
0
 10
130.01303545037339
 20
235.42755830880941
 30
0.0
 42
0.0883026673193633
 70
     2
 50
51.701527848859463
  0
VERTEX
  5
EB
  8
0
 10
134.43711212709709
 20
243.67638350248191
 30
0.0
 42
0.079199356749161
 50
51.701527848859463
  0
VERTEX
  5
EC
  8
0
 10
136.07740444250231
 20
253.96689333899889
 30
0.0
 42
0.079199356749161
  0
SEQEND
  5
ED
  8
0
  0
LINE
  5
EE
  8
0
 10
95.396703272411571
 20
268.7349219723875
 30
0.0
 11
93.372353582341304
 21
227.7483143019264
 31
0.0
  0
LINE
  5
EF
  8
0
 10
137.3723535823413
 20
227.7483143019264
 30
0.0
 11
135.3480038922709
 21
268.7349219723875
 31
0.0
  0
LINE
  5
F0
  8
0
 10
137.3723535823413
 20
207.74831430192631
 30
0.0
 11
137.3723535823413
 21
227.7483143019264
 31
0.0
  0
LINE
  5
F1
  8
0
 10
93.372353582341304
 20
207.74831430192631
 30
0.0
 11
93.372353582341304
 21
227.7483143019264
 31
0.0
  0
ARC
  5
F2
  8
0
 10
115.3723535823413
 20
267.74831430192643
 30
0.0
 40
20.000000000000199
 50
2.8275703785042281
 51
177.1724296214957
  0
LINE
  5
F3
  8
0
 10
125.8723535823418
 20
202.0192975153557
 30
0.0
 11
104.8723535823412
 21
202.0192975153557
 31
0.0
  0
LINE
  5
F4
  8
0
 10
125.8723535823418
 20
202.0192975153557
 30
0.0
 11
125.8723535823418
 21
200.01929751535559
 31
0.0
  0
LINE
  5
F5
  8
0
 10
104.8723535823412
 20
202.01929751535559
 30
0.0
 11
104.8723535823412
 21
200.01929751535559
 31
0.0
  0
LINE
  5
F6
  8
0
 10
107.1223535823412
 20
194.01929751535559
 30
0.0
 11
123.6223535823412
 21
194.01929751535559
 31
0.0
  0
LINE
  5
F7
  8
0
 10
125.8723535823418
 20
200.01929751535559
 30
0.0
 11
104.8723535823412
 21
200.01929751535559
 31
0.0
  0
ARC
  5
F8
  8
0
 10
111.1223535823412
 20
187.59945330964109
 30
0.0
 40
12.275506638416489
 50
69.743841999606488
 51
110.2561580003935
  0
LINE
  5
F9
  8
0
 10
106.8723535823412
 20
199.87495994805761
 30
0.0
 11
107.1223535823423
 21
200.01929751535559
 31
0.0
  0
ARC
  5
FA
  8
0
 10
111.1223535823412
 20
206.43914172106949
 30
0.0
 40
12.275506638416489
 50
249.7438419996065
 51
290.2561580003935
  0
LINE
  5
FB
  8
0
 10
106.8723535823412
 20
194.163635082653
 30
0.0
 11
107.1223535823423
 21
194.01929751535499
 31
0.0
  0
LINE
  5
FC
  8
0
 10
106.8723535823412
 20
199.87495994805761
 30
0.0
 11
106.8723535823412
 21
194.163635082653
 31
0.0
  0
LINE
  5
FD
  8
0
 10
115.3723535823412
 20
199.11577056950321
 30
0.0
 11
115.3723535823412
 21
194.92282446120711
 31
0.0
  0
LINE
  5
FE
  8
0
 10
123.8723535823413
 20
199.87495994805761
 30
0.0
 11
123.8723535823412
 21
194.163635082653
 31
0.0
  0
ARC
  5
FF
  8
0
 10
119.6223535823412
 20
206.43914172106949
 30
0.0
 40
12.275506638416489
 50
249.7438419996065
 51
290.2561580003935
  0
LINE
  5
100
  8
0
 10
123.8723535823413
 20
194.163635082653
 30
0.0
 11
123.6223535823402
 21
194.01929751535499
 31
0.0
  0
LINE
  5
101
  8
0
 10
123.8723535823413
 20
199.87495994805761
 30
0.0
 11
123.6223535823402
 21
200.01929751535559
 31
0.0
  0
ARC
  5
102
  8
0
 10
119.6223535823412
 20
187.59945330964109
 30
0.0
 40
12.275506638416489
 50
69.743841999606516
 51
110.2561580003935
  0
LINE
  5
103
  8
0
 10
93.372353582341276
 20
207.74831430192631
 30
0.0
 11
137.3723535823413
 21
207.74831430192631
 31
0.0
  0
LINE
  5
104
  8
0
 10
524.98110640410732
 20
202.0192975153557
 30
0.0
 11
524.98110640410732
 21
200.0192975153557
 31
0.0
  0
LINE
  5
105
  8
0
 10
503.98110640410658
 20
202.01929751535579
 30
0.0
 11
503.98110640410658
 21
200.0192975153557
 31
0.0
  0
LINE
  5
106
  8
0
 10
503.98110640410658
 20
200.0192975153557
 30
0.0
 11
524.98110640410732
 21
200.0192975153557
 31
0.0
  0
LINE
  5
107
  8
0
 10
503.98110640410658
 20
202.01929751535579
 30
0.0
 11
524.98110640410732
 21
202.01929751535579
 31
0.0
  0
ARC
  5
108
  8
0
 10
521.84232233627495
 20
195.5300612757342
 30
0.0
 40
4.3448986723233833
 50
64.38424746789147
 51
124.3842474680051
  0
ARC
  5
109
  8
0
 10
514.48110640410778
 20
183.63414932659089
 30
0.0
 40
16.24081062146659
 50
72.412046226028394
 51
107.58795377397171
  0
LINE
  5
10A
  8
0
 10
524.29606098033082
 20
199.11577056950361
 30
0.0
 11
522.73110640410732
 21
200.01929751535579
 31
0.0
  0
LINE
  5
10B
  8
0
 10
524.29606098033082
 20
194.92282446120751
 30
0.0
 11
522.73110640410732
 21
194.0192975153553
 31
0.0
  0
ARC
  5
10C
  8
0
 10
521.84232233627495
 20
198.50853375497701
 30
0.0
 40
4.3448986723233833
 50
235.6157525319949
 51
295.61575253210862
  0
ARC
  5
10D
  8
0
 10
514.48110640410778
 20
210.40444570412021
 30
0.0
 40
16.24081062146659
 50
252.41204622602839
 51
287.58795377397172
  0
LINE
  5
10E
  8
0
 10
524.29606098033082
 20
199.1157705695035
 30
0.0
 11
524.29606098033082
 21
194.9228244612076
 31
0.0
  0
LINE
  5
10F
  8
0
 10
519.38858369221987
 20
199.11577056950361
 30
0.0
 11
519.38858369221953
 21
194.9228244612074
 31
0.0
  0
LINE
  5
110
  8
0
 10
509.57362911599432
 20
199.11577056950361
 30
0.0
 11
509.573629115995
 21
194.9228244612074
 31
0.0
  0
LINE
  5
111
  8
0
 10
504.66615182788371
 20
199.1157705695035
 30
0.0
 11
504.66615182788371
 21
194.9228244612076
 31
0.0
  0
ARC
  5
112
  8
0
 10
507.11989047193953
 20
198.50853375497701
 30
0.0
 40
4.3448986723233833
 50
244.3842474678915
 51
304.38424746800519
  0
LINE
  5
113
  8
0
 10
504.66615182788371
 20
194.92282446120751
 30
0.0
 11
506.23110640410732
 21
194.0192975153553
 31
0.0
  0
LINE
  5
114
  8
0
 10
504.66615182788371
 20
199.11577056950361
 30
0.0
 11
506.23110640410732
 21
200.01929751535579
 31
0.0
  0
ARC
  5
115
  8
0
 10
507.11989047193953
 20
195.5300612757342
 30
0.0
 40
4.3448986723233833
 50
55.615752531994957
 51
115.6157525321086
  0
LINE
  5
116
  8
0
 10
506.23110640410692
 20
194.01929751535559
 30
0.0
 11
522.73110640410755
 21
194.01929751535559
 31
0.0
  0
LINE
  5
117
  8
0
 10
519.48110640410732
 20
194.01929751535559
 30
0.0
 11
519.48110640410732
 21
189.24831430192631
 31
0.0
  0
LINE
  5
118
  8
3
 10
518.66910640410742
 20
194.01929751535559
 30
0.0
 11
518.66910640410742
 21
188.43631430192639
 31
0.0
  0
LINE
  5
119
  8
0
 10
509.48110640410709
 20
194.0192975153555
 30
0.0
 11
509.48110640410721
 21
189.2483143019262
 31
0.0
  0
LINE
  5
11A
  8
3
 10
510.29310640410699
 20
194.0192975153555
 30
0.0
 11
510.29310640410711
 21
188.4363143019263
 31
0.0
  0
LINE
  5
11B
  8
1
 10
262.99101875787568
 20
267.74831430192643
 30
0.0
 11
515.97119405033868
 21
267.74831430192631
 31
0.0
  0
LINE
  5
11C
  8
3
 10
533.98110640410721
 20
226.83838871626091
 30
0.0
 11
484.96935938808281
 21
285.24831430192643
 31
0.0
  0
ARC
  5
11D
  8
3
 10
479.48110640410732
 20
230.3378683516589
 30
0.0
 40
17.5
 50
0.0
 51
39.999999999999979
  0
ARC
  5
11E
  8
0
 10
479.48110640410709
 20
230.3378683516589
 30
0.0
 40
15.0
 50
0.0
 51
40.0
  0
LINE
  5
11F
  8
3
 10
496.98110640410721
 20
230.3378683516589
 30
0.0
 11
496.98110640410721
 21
210.24831430192631
 31
0.0
  0
LINE
  5
120
  8
3
 10
492.88688415868933
 20
241.58665152117339
 30
0.0
 11
470.93464256837518
 21
267.74831430192643
 31
0.0
  0
LINE
  5
121
  8
0
 10
490.97177305089178
 20
239.97968249695711
 30
0.0
 11
467.67112434504452
 21
267.74831430192643
 31
0.0
  0
LINE
  5
122
  8
2
 10
463.48110640410721
 20
282.74831430192643
 30
0.0
 11
484.48110640410721
 21
282.74831430192643
 31
0.0
  0
LINE
  5
123
  8
2
 10
463.48110640410721
 20
252.74831430192631
 30
0.0
 11
484.48110640410721
 21
252.74831430192631
 31
0.0
  0
LINE
  5
124
  8
3
 10
465.98110640410721
 20
285.24831430192643
 30
0.0
 11
465.98110640410721
 21
250.24831430192631
 31
0.0
  0
LINE
  5
125
  8
2
 10
484.48110640410721
 20
252.74831430192631
 30
0.0
 11
484.48110640410721
 21
282.74831430192643
 31
0.0
  0
LINE
  5
126
  8
0
 10
509.48110640410721
 20
189.2483143019262
 30
0.0
 11
519.48110640410732
 21
189.24831430192631
 31
0.0
  0
LINE
  5
127
  8
0
 10
517.98110640410732
 20
187.74831430192631
 30
0.0
 11
519.48110640410732
 21
189.24831430192631
 31
0.0
  0
LINE
  5
128
  8
0
 10
509.48110640410721
 20
189.2483143019262
 30
0.0
 11
510.98110640410721
 21
187.7483143019262
 31
0.0
  0
LINE
  5
129
  8
0
 10
509.48110640410721
 20
207.74831430192631
 30
0.0
 11
509.48110640410721
 21
202.01929751535579
 31
0.0
  0
LINE
  5
12A
  8
3
 10
510.29310640410711
 20
207.74831430192631
 30
0.0
 11
510.29310640410711
 21
202.01929751535579
 31
0.0
  0
LINE
  5
12B
  8
3
 10
518.66910640410708
 20
207.74831430192631
 30
0.0
 11
518.66910640410742
 21
202.0192975153557
 31
0.0
  0
LINE
  5
12C
  8
0
 10
519.48110640410732
 20
207.74831430192631
 30
0.0
 11
519.48110640410732
 21
202.01929751535579
 31
0.0
  0
LINE
  5
12D
  8
0
 10
510.98110640410721
 20
187.7483143019262
 30
0.0
 11
517.98110640410732
 21
187.74831430192631
 31
0.0
  0
LINE
  5
12E
  8
0
 10
494.48110640410709
 20
230.3378683516589
 30
0.0
 11
494.48110640410721
 21
207.74831430192631
 31
0.0
  0
LINE
  5
12F
  8
0
 10
536.48110640410732
 20
227.7483143019264
 30
0.0
 11
536.48110640410732
 21
207.74831430192631
 31
0.0
  0
LINE
  5
130
  8
0
 10
536.48110640410698
 20
207.74831430192631
 30
0.0
 11
494.48110640410721
 21
207.74831430192631
 31
0.0
  0
LINE
  5
131
  8
0
 10
484.96935938808281
 20
287.74831430192643
 30
0.0
 11
465.98110640410721
 21
287.74831430192643
 31
0.0
  0
LINE
  5
132
  8
0
 10
465.98110640410721
 20
247.74831430192631
 30
0.0
 11
484.45311696859
 21
247.74831430192631
 31
0.0
  0
LINE
  5
133
  8
0
 10
463.48110640410721
 20
250.24831430192631
 30
0.0
 11
463.48110640410721
 21
285.24831760555099
 31
0.0
  0
ARC
  5
134
  8
0
 10
465.98110640410721
 20
285.24831430192643
 30
0.0
 40
2.5
 50
90.000000000000028
 51
180.0
  0
ARC
  5
135
  8
0
 10
465.98110640410721
 20
250.24831430192631
 30
0.0
 40
2.5
 50
180.0
 51
270.00000000000011
  0
LINE
  5
136
  8
0
 10
536.48110640410732
 20
227.7483143019264
 30
0.0
 11
486.88447049588018
 21
286.8552833261428
 31
0.0
  0
ARC
  5
137
  8
0
 10
484.96935938808281
 20
285.24831430192643
 30
0.0
 40
2.5
 50
40.000000000000099
 51
90.000000000000085
  0
LINE
  5
138
  8
1
 10
514.48110640410732
 20
177.74831430192631
 30
0.0
 11
514.48110640410732
 21
269.52413160760312
 31
0.0
  0
LINE
  5
139
  8
0
 10
463.48110640410721
 20
252.74831430192631
 30
0.0
 11
315.48110640410721
 21
252.74831430192631
 31
0.0
  0
LINE
  5
13A
  8
0
 10
315.48110640410721
 20
282.74831430192643
 30
0.0
 11
463.48110640410721
 21
282.74831430192643
 31
0.0
  0
POLYLINE
  5
13B
  8
0
 66
     1
 10
0.0
 20
0.0
 30
0.0
  0
VERTEX
  5
13C
  8
0
 10
276.87295378359909
 20
404.3593946075041
 30
0.0
 42
0.1194767093311664
  0
VERTEX
  5
13D
  8
0
 10
282.83429906443871
 20
405.80450696453329
 30
0.0
 42
0.1048516947917222
  0
VERTEX
  5
13E
  8
0
 10
288.23146031299899
 20
410.21012712467137
 30
0.0
 42
0.0891687467614096
 70
     2
 50
51.195612294162643
  0
VERTEX
  5
13F
  8
0
 10
292.0078823460305
 20
417.13273539667051
 30
0.0
 42
0.0969674765806045
 50
51.195612294162643
  0
VERTEX
  5
140
  8
0
 10
292.93630776577987
 20
424.33504491743389
 30
0.0
 42
0.08055611872696
  0
VERTEX
  5
141
  8
0
 10
291.66702221920201
 20
432.16218956333381
 30
0.0
 42
0.0891687467614129
  0
VERTEX
  5
142
  8
0
 10
288.2314603129991
 20
438.45996271019618
 30
0.0
 42
0.104851694791719
 70
     2
 50
128.8043877058372
  0
VERTEX
  5
143
  8
0
 10
282.83429906443871
 20
442.86558287033438
 30
0.0
 42
0.1194767093311592
 50
128.8043877058372
  0
VERTEX
  5
144
  8
0
 10
276.87295378359909
 20
444.31069522736323
 30
0.0
 42
0.1194767093311614
  0
SEQEND
  5
145
  8
0
  0
POLYLINE
  5
146
  8
0
 66
     1
 10
0.0
 20
0.0
 30
0.0
  0
VERTEX
  5
147
  8
0
 10
502.08925902461539
 20
404.3593946075041
 30
0.0
 42
-0.1194767093311664
  0
VERTEX
  5
148
  8
0
 10
496.12791374377582
 20
405.80450696453329
 30
0.0
 42
-0.1048516947917222
  0
VERTEX
  5
149
  8
0
 10
490.73075249521543
 20
410.21012712467137
 30
0.0
 42
-0.0891687467614096
 70
     2
 50
128.8043877058374
  0
VERTEX
  5
14A
  8
0
 10
486.95433046218392
 20
417.13273539667051
 30
0.0
 42
-0.0969674765806045
  0
VERTEX
  5
14B
  8
0
 10
486.02590504243449
 20
424.33504491743389
 30
0.0
 42
-0.08055611872696
  0
VERTEX
  5
14C
  8
0
 10
487.29519058901252
 20
432.16218956333381
 30
0.0
 42
-0.0891687467614129
  0
VERTEX
  5
14D
  8
0
 10
490.73075249521543
 20
438.45996271019618
 30
0.0
 42
-0.104851694791719
 70
     2
 50
51.1956122941628
  0
VERTEX
  5
14E
  8
0
 10
496.12791374377571
 20
442.86558287033438
 30
0.0
 42
-0.1194767093311592
  0
VERTEX
  5
14F
  8
0
 10
502.08925902461539
 20
444.31069522736323
 30
0.0
 42
-0.1194767093311614
  0
SEQEND
  5
150
  8
0
  0
LINE
  5
15A
  8
1
 10
264.48110640410709
 20
177.74831430192631
 30
0.0
 11
264.48110640410709
 21
269.52413160760312
 31
0.0
  0
ARC
  5
15B
  8
0
 10
293.99285342013161
 20
285.24831430192643
 30
0.0
 40
2.5
 50
89.999999999999915
 51
139.99999999999989
  0
LINE
  5
15C
  8
0
 10
242.48110640410709
 20
227.7483143019264
 30
0.0
 11
292.07774231233412
 21
286.8552833261428
 31
0.0
  0
ARC
  5
15D
  8
0
 10
312.98110640410721
 20
250.24831430192631
 30
0.0
 40
2.5
 50
270.0
 51
0.0000000000000254
  0
ARC
  5
15E
  8
0
 10
312.98110640410721
 20
285.24831430192643
 30
0.0
 40
2.5
 50
0.0
 51
90.0
  0
LINE
  5
15F
  8
0
 10
315.48110640410721
 20
250.24831430192631
 30
0.0
 11
315.48110640410721
 21
285.24831760555099
 31
0.0
  0
LINE
  5
160
  8
0
 10
312.98110640410721
 20
247.74831430192631
 30
0.0
 11
294.50909583962431
 21
247.74831430192631
 31
0.0
  0
LINE
  5
161
  8
0
 10
293.99285342013161
 20
287.74831430192643
 30
0.0
 11
312.98110640410721
 21
287.74831430192643
 31
0.0
  0
LINE
  5
162
  8
0
 10
242.48110640410729
 20
207.74831430192631
 30
0.0
 11
284.48110640410709
 21
207.74831430192631
 31
0.0
  0
LINE
  5
163
  8
0
 10
242.48110640410709
 20
227.7483143019264
 30
0.0
 11
242.48110640410709
 21
207.74831430192631
 31
0.0
  0
LINE
  5
164
  8
0
 10
284.48110640410732
 20
230.3378683516589
 30
0.0
 11
284.48110640410709
 21
207.74831430192631
 31
0.0
  0
LINE
  5
165
  8
0
 10
267.98110640410709
 20
187.7483143019262
 30
0.0
 11
260.98110640410709
 21
187.74831430192631
 31
0.0
  0
LINE
  5
166
  8
0
 10
259.48110640410709
 20
207.74831430192631
 30
0.0
 11
259.48110640410709
 21
202.01929751535579
 31
0.0
  0
LINE
  5
167
  8
3
 10
260.29310640410722
 20
207.74831430192631
 30
0.0
 11
260.29310640410699
 21
202.0192975153557
 31
0.0
  0
LINE
  5
168
  8
3
 10
268.66910640410731
 20
207.74831430192631
 30
0.0
 11
268.66910640410731
 21
202.01929751535579
 31
0.0
  0
LINE
  5
169
  8
0
 10
269.48110640410721
 20
207.74831430192631
 30
0.0
 11
269.48110640410721
 21
202.01929751535579
 31
0.0
  0
LINE
  5
16A
  8
0
 10
269.48110640410721
 20
189.2483143019262
 30
0.0
 11
267.98110640410709
 21
187.7483143019262
 31
0.0
  0
LINE
  5
16B
  8
0
 10
260.98110640410709
 20
187.74831430192631
 30
0.0
 11
259.48110640410709
 21
189.24831430192631
 31
0.0
  0
LINE
  5
16C
  8
0
 10
269.48110640410721
 20
189.2483143019262
 30
0.0
 11
259.48110640410709
 21
189.24831430192631
 31
0.0
  0
LINE
  5
16D
  8
2
 10
294.48110640410721
 20
252.74831430192631
 30
0.0
 11
294.48110640410721
 21
282.74831430192643
 31
0.0
  0
LINE
  5
16E
  8
3
 10
312.98110640410721
 20
285.24831430192643
 30
0.0
 11
312.98110640410721
 21
250.24831430192631
 31
0.0
  0
LINE
  5
16F
  8
2
 10
315.48110640410721
 20
252.74831430192631
 30
0.0
 11
294.48110640410721
 21
252.74831430192631
 31
0.0
  0
LINE
  5
170
  8
2
 10
315.48110640410721
 20
282.74831430192643
 30
0.0
 11
294.48110640410721
 21
282.74831430192643
 31
0.0
  0
LINE
  5
171
  8
0
 10
287.99043975732258
 20
239.97968249695711
 30
0.0
 11
311.29108846316979
 21
267.74831430192643
 31
0.0
  0
LINE
  5
172
  8
3
 10
286.07532864952509
 20
241.58665152117339
 30
0.0
 11
308.02757023983918
 21
267.74831430192643
 31
0.0
  0
LINE
  5
173
  8
3
 10
281.98110640410721
 20
230.3378683516589
 30
0.0
 11
281.98110640410721
 21
210.24831430192631
 31
0.0
  0
ARC
  5
174
  8
0
 10
299.48110640410732
 20
230.3378683516589
 30
0.0
 40
15.0
 50
140.0
 51
180.0
  0
ARC
  5
175
  8
3
 10
299.48110640410709
 20
230.3378683516589
 30
0.0
 40
17.5
 50
140.0
 51
180.0
  0
LINE
  5
176
  8
3
 10
244.98110640410709
 20
226.83838871626091
 30
0.0
 11
293.99285342013161
 21
285.24831430192643
 31
0.0
  0
LINE
  5
177
  8
3
 10
268.66910640410742
 20
194.0192975153555
 30
0.0
 11
268.66910640410731
 21
188.4363143019263
 31
0.0
  0
LINE
  5
178
  8
0
 10
269.48110640410721
 20
194.0192975153555
 30
0.0
 11
269.48110640410721
 21
189.2483143019262
 31
0.0
  0
LINE
  5
179
  8
3
 10
260.29310640410699
 20
194.01929751535559
 30
0.0
 11
260.29310640410699
 21
188.43631430192639
 31
0.0
  0
LINE
  5
17A
  8
0
 10
259.48110640410709
 20
194.01929751535559
 30
0.0
 11
259.48110640410709
 21
189.24831430192631
 31
0.0
  0
LINE
  5
17B
  8
0
 10
272.73110640410749
 20
194.01929751535559
 30
0.0
 11
256.23110640410692
 21
194.01929751535559
 31
0.0
  0
ARC
  5
17C
  8
0
 10
271.84232233627489
 20
195.5300612757342
 30
0.0
 40
4.3448986723233833
 50
64.384247467891441
 51
124.384247468005
  0
LINE
  5
17D
  8
0
 10
274.29606098033082
 20
199.11577056950361
 30
0.0
 11
272.73110640410709
 21
200.01929751535579
 31
0.0
  0
LINE
  5
17E
  8
0
 10
274.29606098033082
 20
194.92282446120751
 30
0.0
 11
272.73110640410709
 21
194.0192975153553
 31
0.0
  0
ARC
  5
17F
  8
0
 10
271.84232233627489
 20
198.50853375497701
 30
0.0
 40
4.3448986723233833
 50
235.6157525319949
 51
295.6157525321085
  0
LINE
  5
180
  8
0
 10
274.29606098033082
 20
199.1157705695035
 30
0.0
 11
274.29606098033082
 21
194.9228244612076
 31
0.0
  0
LINE
  5
181
  8
0
 10
269.38858369221998
 20
199.11577056950361
 30
0.0
 11
269.38858369221941
 21
194.9228244612074
 31
0.0
  0
LINE
  5
182
  8
0
 10
259.57362911599438
 20
199.11577056950361
 30
0.0
 11
259.57362911599489
 21
194.9228244612074
 31
0.0
  0
LINE
  5
183
  8
0
 10
254.6661518278836
 20
199.1157705695035
 30
0.0
 11
254.6661518278836
 21
194.9228244612076
 31
0.0
  0
ARC
  5
184
  8
0
 10
264.48110640410658
 20
210.40444570412021
 30
0.0
 40
16.24081062146659
 50
252.41204622602839
 51
287.58795377397172
  0
ARC
  5
185
  8
0
 10
257.11989047193953
 20
198.50853375497701
 30
0.0
 40
4.3448986723233833
 50
244.38424746789141
 51
304.38424746800513
  0
LINE
  5
186
  8
0
 10
254.6661518278836
 20
194.92282446120751
 30
0.0
 11
256.23110640410709
 21
194.0192975153553
 31
0.0
  0
LINE
  5
187
  8
0
 10
254.6661518278836
 20
199.11577056950361
 30
0.0
 11
256.23110640410709
 21
200.01929751535579
 31
0.0
  0
ARC
  5
188
  8
0
 10
264.48110640410658
 20
183.63414932659089
 30
0.0
 40
16.24081062146659
 50
72.412046226028323
 51
107.58795377397161
  0
ARC
  5
189
  8
0
 10
257.11989047193953
 20
195.5300612757342
 30
0.0
 40
4.3448986723233833
 50
55.615752531994907
 51
115.6157525321085
  0
LINE
  5
18A
  8
0
 10
274.98110640410772
 20
202.01929751535579
 30
0.0
 11
253.98110640410709
 21
202.01929751535579
 31
0.0
  0
LINE
  5
18B
  8
0
 10
274.98110640410772
 20
200.0192975153557
 30
0.0
 11
253.98110640410709
 21
200.0192975153557
 31
0.0
  0
LINE
  5
18C
  8
0
 10
274.98110640410772
 20
202.01929751535579
 30
0.0
 11
274.98110640410772
 21
200.0192975153557
 31
0.0
  0
LINE
  5
18D
  8
0
 10
253.98110640410709
 20
202.0192975153557
 30
0.0
 11
253.98110640410709
 21
200.0192975153557
 31
0.0
  0
TEXT
  5
2BE
  8
0
 62
     3
 10
0.0
 20
0.0
 30
0.0
 40
10.0
  1
MH6-250N
  7
STANDARD1
  0
ENDSEC
  0
EOF
