  0
SECTION
  2
HEADER
  9
$ACADVER
  1
AC1009
  9
$INSBASE
 10
0.0
 20
0.0
 30
0.0
  9
$EXTMIN
 10
0.0
 20
-2.960436562073669
 30
0.0
  9
$EXTMAX
 10
331.98825511884098
 20
241.6639891264241
 30
0.0
  9
$LIMMIN
 10
0.0
 20
0.0
  9
$LIMMAX
 10
375.0
 20
270.0
  9
$ORTHOMODE
 70
     1
  9
$REGENMODE
 70
     1
  9
$FILLMODE
 70
     1
  9
$QTEXTMODE
 70
     0
  9
$MIRRTEXT
 70
     0
  9
$DRAGMODE
 70
     2
  9
$LTSCALE
 40
5.0
  9
$OSMODE
 70
  3071
  9
$ATTMODE
 70
     1
  9
$TEXTSIZE
 40
4.0
  9
$TRACEWID
 40
0.05
  9
$TEXTSTYLE
  7
STANDARD
  9
$CLAYER
  8
0
  9
$CELTYPE
  6
BYLAYER
  9
$CECOLOR
 62
   256
  9
$DIMSCALE
 40
1.0
  9
$DIMASZ
 40
3.0
  9
$DIMEXO
 40
2.0
  9
$DIMDLI
 40
0.38
  9
$DIMRND
 40
0.0
  9
$DIMDLE
 40
0.0
  9
$DIMEXE
 40
2.0
  9
$DIMTP
 40
0.0
  9
$DIMTM
 40
0.0
  9
$DIMTXT
 40
3.2000000000000002
  9
$DIMCEN
 40
0.0
  9
$DIMTSZ
 40
0.0
  9
$DIMTOL
 70
     0
  9
$DIMLIM
 70
     0
  9
$DIMTIH
 70
     0
  9
$DIMTOH
 70
     0
  9
$DIMSE1
 70
     0
  9
$DIMSE2
 70
     0
  9
$DIMTAD
 70
     1
  9
$DIMZIN
 70
     0
  9
$DIMBLK
  1

  9
$DIMASO
 70
     1
  9
$DIMSHO
 70
     0
  9
$DIMPOST
  1

  9
$DIMAPOST
  1

  9
$DIMALT
 70
     0
  9
$DIMALTD
 70
     2
  9
$DIMALTF
 40
25.399999999999999
  9
$DIMLFAC
 40
1.0
  9
$DIMTOFL
 70
     0
  9
$DIMTVP
 40
1.6000000000000001
  9
$DIMTIX
 70
     1
  9
$DIMSOXD
 70
     0
  9
$DIMSAH
 70
     0
  9
$DIMBLK1
  1

  9
$DIMBLK2
  1

  9
$DIMSTYLE
  2
STANDARD
  9
$DIMCLRD
 70
     4
  9
$DIMCLRE
 70
     4
  9
$DIMCLRT
 70
     4
  9
$DIMTFAC
 40
1.0
  9
$DIMGAP
 40
0.09
  9
$LUNITS
 70
     2
  9
$LUPREC
 70
     1
  9
$SKETCHINC
 40
0.1
  9
$FILLETRAD
 40
0.0
  9
$AUNITS
 70
     0
  9
$AUPREC
 70
     0
  9
$MENU
  1
E:\r13\win\SUPPORT\ACAD
  9
$ELEVATION
 40
0.0
  9
$PELEVATION
 40
0.0
  9
$THICKNESS
 40
0.0
  9
$LIMCHECK
 70
     0
  9
$BLIPMODE
 70
     0
  9
$CHAMFERA
 40
3.0
  9
$CHAMFERB
 40
3.0
  9
$SKPOLY
 70
     0
  9
$TDCREATE
 40
2449930.6879629628
  9
$TDUPDATE
 40
2456597.65404044
  9
$TDINDWG
 40
0.0008611111
  9
$TDUSRTIMER
 40
0.0008611111
  9
$USRTIMER
 70
     1
  9
$ANGBASE
 50
0.0
  9
$ANGDIR
 70
     0
  9
$PDMODE
 70
     0
  9
$PDSIZE
 40
0.0
  9
$PLINEWID
 40
0.0
  9
$COORDS
 70
     1
  9
$SPLFRAME
 70
     0
  9
$SPLINETYPE
 70
     6
  9
$SPLINESEGS
 70
     8
  9
$ATTDIA
 70
     0
  9
$ATTREQ
 70
     1
  9
$HANDLING
 70
     1
  9
$HANDSEED
  5
32A
  9
$SURFTAB1
 70
     6
  9
$SURFTAB2
 70
     6
  9
$SURFTYPE
 70
     6
  9
$SURFU
 70
     6
  9
$SURFV
 70
     6
  9
$UCSNAME
  2

  9
$UCSORG
 10
0.0
 20
0.0
 30
0.0
  9
$UCSXDIR
 10
1.0
 20
0.0
 30
0.0
  9
$UCSYDIR
 10
0.0
 20
1.0
 30
0.0
  9
$PUCSNAME
  2

  9
$PUCSORG
 10
0.0
 20
0.0
 30
0.0
  9
$PUCSXDIR
 10
1.0
 20
0.0
 30
0.0
  9
$PUCSYDIR
 10
0.0
 20
1.0
 30
0.0
  9
$USERI1
 70
     0
  9
$USERI2
 70
     1
  9
$USERI3
 70
     1
  9
$USERI4
 70
     0
  9
$USERI5
 70
     0
  9
$USERR1
 40
0.0
  9
$USERR2
 40
0.0
  9
$USERR3
 40
0.0
  9
$USERR4
 40
0.0
  9
$USERR5
 40
0.0
  9
$WORLDVIEW
 70
     1
  9
$SHADEDGE
 70
     3
  9
$SHADEDIF
 70
    70
  9
$TILEMODE
 70
     1
  9
$MAXACTVP
 70
    16
  9
$PLIMCHECK
 70
     0
  9
$PEXTMIN
 10
1.0000000000000000E+020
 20
1.0000000000000000E+020
 30
1.0000000000000000E+020
  9
$PEXTMAX
 10
-1.0000000000000000E+020
 20
-1.0000000000000000E+020
 30
-1.0000000000000000E+020
  9
$PLIMMIN
 10
0.0
 20
0.0
  9
$PLIMMAX
 10
12.0
 20
9.0
  9
$UNITMODE
 70
     0
  9
$VISRETAIN
 70
     0
  9
$PLINEGEN
 70
     0
  9
$PSLTSCALE
 70
     0
  0
ENDSEC
  0
SECTION
  2
TABLES
  0
TABLE
  2
VPORT
 70
     1
  0
VPORT
  2
*ACTIVE
 70
     0
 10
0.0
 20
0.0
 11
1.0
 21
1.0
 12
187.49427839065231
 22
134.10366293909439
 13
0.0
 23
0.0
 14
10.0
 24
10.0
 15
10.0
 25
10.0
 16
0.0
 26
0.0
 36
1.0
 17
0.0
 27
0.0
 37
0.0
 40
277.29405978699532
 41
2.304913294797688
 42
50.0
 43
0.0
 44
0.0
 50
0.0
 51
0.0
 71
     0
 72
   500
 73
     1
 74
     0
 75
     0
 76
     0
 77
     0
 78
     2
  0
ENDTAB
  0
TABLE
  2
LTYPE
 70
     4
  0
LTYPE
  2
CONTINUOUS
 70
     0
  3
Solid Line
 72
    65
 73
     0
 40
0.0
  0
LTYPE
  2
CENTER
 70
     0
  3
____ _ ____ _ ____ _ ____ _ ____ _ ____ _ ____
 72
    65
 73
     4
 40
2.0
 49
1.25
 49
-0.25
 49
0.25
 49
-0.25
  0
LTYPE
  2
HIDDEN
 70
     0
  3
_ _ _ _ _ _ _ _ _ _ _ _ _ _ _ _ _ _ _ _ _ _ _
 72
    65
 73
     2
 40
0.375
 49
0.25
 49
-0.125
  0
LTYPE
  2
PHANTOM2
 70
     0
  3
___ _ _ ___ _ _ ___ _ _ ___ _ _
 72
    65
 73
     6
 40
1.25
 49
0.625
 49
-0.125
 49
0.125
 49
-0.125
 49
0.125
 49
-0.125
  0
ENDTAB
  0
TABLE
  2
LAYER
 70
     3
  0
LAYER
  2
0
 70
     0
 62
     7
  6
CONTINUOUS
  0
LAYER
  2
1
 70
     0
 62
     1
  6
CENTER
  0
LAYER
  2
2
 70
     0
 62
     2
  6
HIDDEN
  0
ENDTAB
  0
TABLE
  2
STYLE
 70
     2
  0
STYLE
  2
STANDARD
 70
     0
 40
0.0
 41
1.0
 50
0.0
 71
     0
 42
4.0
  3
SIMPLEX
  4
BIGFONT
  0
STYLE
  2
STANDARD1
 70
     0
 40
0.0
 41
1.0
 50
0.0
 71
     0
 42
3.0
  3
txt
  4

  0
ENDTAB
  0
TABLE
  2
VIEW
 70
     1
  0
VIEW
  2
ALL
 70
     0
 40
270.0
 10
220.78595317725751
 20
135.0
 41
441.57190635451502
 11
0.0
 21
0.0
 31
1.0
 12
0.0
 22
0.0
 32
0.0
 42
50.0
 43
0.0
 44
0.0
 50
0.0
 71
     0
  0
ENDTAB
  0
TABLE
  2
UCS
 70
     0
  0
ENDTAB
  0
TABLE
  2
APPID
 70
     3
  0
APPID
  2
ACAD
 70
     0
  0
APPID
  2
ACAD_MLEADERVER
 70
     0
  0
APPID
  2
ACAD_NAV_VCDISPLAY
 70
     0
  0
ENDTAB
  0
TABLE
  2
DIMSTYLE
 70
     1
  0
DIMSTYLE
  2
STANDARD
 70
     0
  3

  4

  5

  6

  7

 40
1.0
 41
0.18
 42
0.0625
 43
0.38
 44
0.18
 45
0.0
 46
0.0
 47
0.0
 48
0.0
140
0.18
141
0.09
142
0.0
143
25.399999999999999
144
1.0
145
0.0
146
1.0
147
0.09
 71
     0
 72
     0
 73
     1
 74
     1
 75
     0
 76
     0
 77
     0
 78
     0
170
     0
171
     2
172
     0
173
     0
174
     0
175
     0
176
     0
177
     0
178
     0
  0
ENDTAB
  0
ENDSEC
  0
SECTION
  2
BLOCKS
  0
BLOCK
  8
0
  2
$MODEL_SPACE
 70
     0
 10
0.0
 20
0.0
 30
0.0
  3
$MODEL_SPACE
  1

  0
ENDBLK
  5
1B0
  8
0
  0
BLOCK
 67
     1
  8
0
  2
$PAPER_SPACE
 70
     0
 10
0.0
 20
0.0
 30
0.0
  3
$PAPER_SPACE
  1

  0
ENDBLK
  5
1AE
 67
     1
  8
0
  0
ENDSEC
  0
SECTION
  2
ENTITIES
  0
LINE
  5
37
  8
0
 10
86.052420661185664
 20
52.701222844300503
 30
0.0
 11
86.052420661185636
 21
152.70122284430531
 31
0.0
  0
LINE
  5
38
  8
0
 10
108.631117507032
 20
178.70122284430039
 30
0.0
 11
195.4737238153136
 21
178.7012228443005
 31
0.0
  0
LINE
  5
39
  8
0
 10
218.05242066118561
 20
152.7012228443001
 30
0.0
 11
218.05242066118569
 21
52.701222844300503
 31
0.0
  0
LINE
  5
3A
  8
0
 10
218.05242066118569
 20
52.701222844300503
 30
0.0
 11
206.05242066118561
 21
52.701222844300503
 31
0.0
  0
LINE
  5
3B
  8
0
 10
110.169871310023
 20
166.70122284430039
 30
0.0
 11
193.93497001234769
 21
166.70122284430039
 31
0.0
  0
LINE
  5
3C
  8
0
 10
98.052420661185664
 20
52.701222844300503
 30
0.0
 11
98.052420661185636
 21
157.70122284429959
 31
0.0
  0
LINE
  5
3D
  8
0
 10
206.05242066118561
 20
157.70122284430019
 30
0.0
 11
206.05242066118561
 21
52.701222844300503
 31
0.0
  0
LINE
  5
3E
  8
0
 10
98.052420661185664
 20
52.701222844300503
 30
0.0
 11
86.052420661185664
 21
52.701222844300503
 31
0.0
  0
LINE
  5
3F
  8
2
 10
88.052420661185664
 20
53.224722844300523
 30
0.0
 11
88.052420661185664
 21
67.701222844300489
 31
0.0
  0
LINE
  5
40
  8
2
 10
88.728920661185526
 20
53.901222844300491
 30
0.0
 11
88.728920661185526
 21
72.701222844300489
 31
0.0
  0
LINE
  5
41
  8
2
 10
95.375920661185802
 20
53.901222844300491
 30
0.0
 11
95.375920661185802
 21
72.701222844300489
 31
0.0
  0
LINE
  5
42
  8
2
 10
96.052420661185664
 20
53.224722844300523
 30
0.0
 11
96.052420661185664
 21
67.701222844300489
 31
0.0
  0
LINE
  5
43
  8
2
 10
95.375920661185802
 20
72.701222844300489
 30
0.0
 11
92.052420661185664
 21
74.69818311163867
 31
0.0
  0
LINE
  5
44
  8
2
 10
88.728920661185526
 20
72.701222844300489
 30
0.0
 11
92.052420661185664
 21
74.69818311163867
 31
0.0
  0
LINE
  5
45
  8
2
 10
88.052420661185664
 20
67.701222844300489
 30
0.0
 11
96.052420661185664
 21
67.701222844300489
 31
0.0
  0
LINE
  5
46
  8
2
 10
88.728920661185526
 20
72.701222844300489
 30
0.0
 11
95.375920661185802
 21
72.701222844300489
 31
0.0
  0
LINE
  5
47
  8
2
 10
96.052420661185664
 20
67.701222844300489
 30
0.0
 11
95.375920661185745
 21
68.872955215620706
 31
0.0
  0
LINE
  5
48
  8
2
 10
88.052420661185707
 20
67.701222844300489
 30
0.0
 11
88.728920661185654
 21
68.872955215620706
 31
0.0
  0
LINE
  5
49
  8
2
 10
95.375920661185674
 20
53.901222844300548
 30
0.0
 11
88.728920661185569
 21
53.901222844300491
 31
0.0
  0
LINE
  5
4A
  8
2
 10
95.375920661185674
 20
53.901222844300548
 30
0.0
 11
96.575920661185734
 21
52.701222844300503
 31
0.0
  0
LINE
  5
4B
  8
2
 10
88.728920661185654
 20
53.901222844300548
 30
0.0
 11
87.528920661185595
 21
52.701222844300503
 31
0.0
  0
LINE
  5
4C
  8
0
 10
86.052420661185579
 20
198.6639891264241
 30
0.0
 11
86.052420661185678
 21
213.66398912642421
 31
0.0
  0
LINE
  5
4D
  8
0
 10
218.05242066118561
 20
198.6639891264241
 30
0.0
 11
218.05242066118561
 21
213.66398912642441
 31
0.0
  0
LINE
  5
4E
  8
0
 10
111.4276805612681
 20
241.6639891264241
 30
0.0
 11
192.6771607610994
 21
241.6639891264241
 31
0.0
  0
LINE
  5
4F
  8
0
 10
116.2073557160182
 20
229.6639891264241
 30
0.0
 11
187.8974856063528
 21
229.6639891264241
 31
0.0
  0
LINE
  5
50
  8
0
 10
206.05242066118561
 20
198.6639891264241
 30
0.0
 11
206.05242066118561
 21
220.66398912642239
 31
0.0
  0
LINE
  5
51
  8
0
 10
98.052420661185636
 20
198.6639891264241
 30
0.0
 11
98.052420661185636
 21
220.6639891264243
 31
0.0
  0
ARC
  5
52
  8
0
 10
92.052420661185636
 20
198.6639891264241
 30
0.0
 40
6.0
 50
180.0
 51
0.0
  0
ARC
  5
53
  8
0
 10
212.05242066118569
 20
198.6639891264241
 30
0.0
 40
6.0
 50
180.0
 51
0.0
  0
LINE
  5
54
  8
1
 10
103.05242066118559
 20
198.6639891264241
 30
0.0
 11
81.052420661185636
 21
198.6639891264241
 31
0.0
  0
LINE
  5
55
  8
1
 10
223.05242066118561
 20
198.6639891264241
 30
0.0
 11
201.05242066118561
 21
198.6639891264241
 31
0.0
  0
LINE
  5
56
  8
0
 10
279.98825511884098
 20
52.701222844300439
 30
0.0
 11
291.98825511884121
 21
52.701222844300482
 31
0.0
  0
LINE
  5
57
  8
0
 10
279.98825511884098
 20
134.21246964744239
 30
0.0
 11
279.98825511884098
 21
52.701222844300439
 31
0.0
  0
LINE
  5
58
  8
0
 10
291.98825511884098
 20
134.21246964744239
 30
0.0
 11
291.98825511884098
 21
52.701222844300439
 31
0.0
  0
LINE
  5
59
  8
1
 10
285.98825511884098
 20
134.21246964744239
 30
0.0
 11
285.98825511884098
 21
47.701222844300439
 31
0.0
  0
LINE
  5
5A
  8
1
 10
331.98825511884098
 20
172.70122284430039
 30
0.0
 11
309.98825511884098
 21
172.70122284430039
 31
0.0
  0
LINE
  5
5B
  8
1
 10
320.98825511884098
 20
183.70122284430039
 30
0.0
 11
320.98825511884098
 21
161.7012228443005
 31
0.0
  0
POLYLINE
  5
5C
  8
0
 66
     1
 10
0.0
 20
0.0
 30
0.0
 70
     2
  0
VERTEX
  5
5D
  8
0
 10
218.05242066118561
 20
213.66398912642489
 30
0.0
 42
0.0257761084716076
  0
VERTEX
  5
5E
  8
0
 10
217.26805817788349
 20
220.53838111398801
 30
0.0
 42
0.0338720340535264
 70
     1
  0
VERTEX
  5
5F
  8
0
 10
216.05242066118569
 20
225.6639891264241
 30
0.0
 42
0.0052914296271395
  0
VERTEX
  5
60
  8
0
 10
214.326420238628
 20
231.0306453998607
 30
0.0
 42
0.0433069275981801
 70
     1
  0
VERTEX
  5
61
  8
0
 10
214.05242066118569
 20
231.6639891264241
 30
0.0
 42
0.0332993924000978
  0
VERTEX
  5
62
  8
0
 10
212.98561100357571
 20
233.36012879694289
 30
0.0
 42
0.0473408133688351
 70
     1
  0
VERTEX
  5
63
  8
0
 10
212.05242066118569
 20
234.41849074395509
 30
0.0
 42
0.0090007689943989
  0
VERTEX
  5
64
  8
0
 10
210.98995524789009
 20
235.37999132915911
 30
0.0
 42
0.0105535876255445
 70
     1
  0
VERTEX
  5
65
  8
0
 10
210.05242066118569
 20
236.1639891264241
 30
0.0
 42
0.0079601406897998
  0
VERTEX
  5
66
  8
0
 10
208.37286196365659
 20
237.4659455100977
 30
0.0
 42
0.04499370036657
 70
     1
  0
VERTEX
  5
67
  8
0
 10
208.05242066118569
 20
237.66398912642401
 30
0.0
  0
VERTEX
  5
68
  8
0
 10
206.05242066118561
 20
238.6639891264241
 30
0.0
  0
VERTEX
  5
69
  8
0
 10
204.05242066118561
 20
239.66398912642421
 30
0.0
 42
0.0166278749564212
  0
VERTEX
  5
6A
  8
0
 10
203.04716769256709
 20
240.12549985872309
 30
0.0
 42
0.0172880759035001
 70
     1
  0
VERTEX
  5
6B
  8
0
 10
202.05242066118561
 20
240.50284647855821
 30
0.0
 42
0.02328918731414
  0
VERTEX
  5
6C
  8
0
 10
201.1314943226329
 20
240.76908610915589
 30
0.0
 42
0.020298067449731
 70
     1
  0
VERTEX
  5
6D
  8
0
 10
200.05242066118561
 20
240.98139131161679
 30
0.0
 42
0.0033265463718075
  0
VERTEX
  5
6E
  8
0
 10
198.8990495370231
 20
241.1521955317728
 30
0.0
 42
0.0045418309783567
 70
     1
  0
VERTEX
  5
6F
  8
0
 10
198.05242066118561
 20
241.26398912642409
 30
0.0
 42
0.0022069278991699
  0
VERTEX
  5
70
  8
0
 10
196.70655929400471
 20
241.42325349335141
 30
0.0
 42
0.0044053199445046
 70
     1
  0
VERTEX
  5
71
  8
0
 10
196.03131876442899
 20
241.49411791846541
 30
0.0
 42
0.0069797948041892
  0
VERTEX
  5
72
  8
0
 10
195.85034168268061
 20
241.50895389941331
 30
0.0
 42
0.0006904447089
 70
     1
  0
VERTEX
  5
73
  8
0
 10
194.0188239624307
 20
241.63084501362499
 30
0.0
 42
0.0100939324711226
  0
VERTEX
  5
74
  8
0
 10
193.61770026224821
 20
241.64886191584819
 30
0.0
 42
0.0043083102556349
 70
     1
  0
VERTEX
  5
75
  8
0
 10
192.67716076109849
 20
241.6639891264241
 30
0.0
  0
SEQEND
  5
76
  8
0
  0
POLYLINE
  5
77
  8
0
 66
     1
 10
0.0
 20
0.0
 30
0.0
 70
     2
  0
VERTEX
  5
78
  8
0
 10
206.05242066118561
 20
220.66398912642421
 30
0.0
 42
0.0666614922848466
  0
VERTEX
  5
79
  8
0
 10
205.30849918335019
 20
223.6095906318204
 30
0.0
 42
0.0843291345742469
 70
     1
  0
VERTEX
  5
7A
  8
0
 10
204.05242066118561
 20
225.6639891264241
 30
0.0
 42
0.0170945276968741
  0
VERTEX
  5
7B
  8
0
 10
202.48356769523309
 20
227.34394838115301
 30
0.0
 42
0.07355363831532
 70
     1
  0
VERTEX
  5
7C
  8
0
 10
202.05242066118561
 20
227.6639891264241
 30
0.0
 42
0.0278086894841557
  0
VERTEX
  5
7D
  8
0
 10
200.86943848653181
 20
228.2153018024795
 30
0.0
 42
0.0425417574016698
 70
     1
  0
VERTEX
  5
7E
  8
0
 10
200.05242066118561
 20
228.4639891264242
 30
0.0
 42
0.0073877076725095
  0
VERTEX
  5
7F
  8
0
 10
198.64028966940691
 20
228.7438772354374
 30
0.0
 42
0.0179060556693948
 70
     1
  0
VERTEX
  5
80
  8
0
 10
198.05242066118561
 20
228.82977072930569
 30
0.0
 42
0.0003262961220202
  0
VERTEX
  5
81
  8
0
 10
196.754212575607
 20
228.9713424886269
 30
0.0
 42
0.0004911320722659
 70
     1
  0
VERTEX
  5
82
  8
0
 10
195.8915621809569
 20
229.0639891264241
 30
0.0
 42
0.000354705555134
  0
VERTEX
  5
83
  8
0
 10
194.25726658063959
 20
229.2367125765999
 30
0.0
 42
0.002831772182925
 70
     1
  0
VERTEX
  5
84
  8
0
 10
194.05242066118561
 20
229.2570429016794
 30
0.0
 42
0.0176816799578383
  0
VERTEX
  5
85
  8
0
 10
193.4826028881364
 20
229.2900721319775
 30
0.0
 42
-0.0070500265681529
 70
     1
  0
VERTEX
  5
86
  8
0
 10
192.05242066118561
 20
229.3424973361542
 30
0.0
 42
-0.0014767031186017
  0
VERTEX
  5
87
  8
0
 10
191.8494227734906
 20
229.3534074144429
 30
0.0
 42
-0.0001545355593145
 70
     1
  0
VERTEX
  5
88
  8
0
 10
189.909980408351
 20
229.4639891264242
 30
0.0
 42
-0.010447686315961
  0
VERTEX
  5
89
  8
0
 10
189.2446843882806
 20
229.5160943344076
 30
0.0
 42
-0.0051439178164194
 70
     1
  0
VERTEX
  5
8A
  8
0
 10
187.8974856063526
 20
229.66398912642421
 30
0.0
  0
SEQEND
  5
8B
  8
0
  0
POLYLINE
  5
8C
  8
0
 66
     1
 10
0.0
 20
0.0
 30
0.0
 70
     2
  0
VERTEX
  5
8D
  8
0
 10
86.052420661185764
 20
213.66398912642489
 30
0.0
 42
-0.0257761084716076
  0
VERTEX
  5
8E
  8
0
 10
86.836783144487924
 20
220.53838111398801
 30
0.0
 42
-0.0338720340535264
 70
     1
  0
VERTEX
  5
8F
  8
0
 10
88.052420661185749
 20
225.6639891264241
 30
0.0
 42
-0.0052914296271395
  0
VERTEX
  5
90
  8
0
 10
89.778421083743353
 20
231.0306453998607
 30
0.0
 42
-0.0433069275981801
 70
     1
  0
VERTEX
  5
91
  8
0
 10
90.052420661185735
 20
231.6639891264241
 30
0.0
 42
-0.0332993924000978
  0
VERTEX
  5
92
  8
0
 10
91.119230318795701
 20
233.36012879694289
 30
0.0
 42
-0.0473408133688351
 70
     1
  0
VERTEX
  5
93
  8
0
 10
92.052420661185749
 20
234.41849074395509
 30
0.0
 42
-0.0090007689943989
  0
VERTEX
  5
94
  8
0
 10
93.114886074481262
 20
235.37999132915911
 30
0.0
 42
-0.0105535876255445
 70
     1
  0
VERTEX
  5
95
  8
0
 10
94.052420661185735
 20
236.1639891264241
 30
0.0
 42
-0.0079601406897998
  0
VERTEX
  5
96
  8
0
 10
95.731979358714796
 20
237.4659455100977
 30
0.0
 42
-0.04499370036657
 70
     1
  0
VERTEX
  5
97
  8
0
 10
96.052420661185636
 20
237.66398912642401
 30
0.0
  0
VERTEX
  5
98
  8
0
 10
98.052420661185749
 20
238.6639891264241
 30
0.0
  0
VERTEX
  5
99
  8
0
 10
100.05242066118571
 20
239.66398912642421
 30
0.0
 42
-0.0166278749564212
  0
VERTEX
  5
9A
  8
0
 10
101.0576736298042
 20
240.12549985872309
 30
0.0
 42
-0.0172880759035001
 70
     1
  0
VERTEX
  5
9B
  8
0
 10
102.05242066118571
 20
240.50284647855821
 30
0.0
 42
-0.02328918731414
  0
VERTEX
  5
9C
  8
0
 10
102.9733469997384
 20
240.76908610915589
 30
0.0
 42
-0.020298067449731
 70
     1
  0
VERTEX
  5
9D
  8
0
 10
104.05242066118571
 20
240.98139131161679
 30
0.0
 42
-0.0033265463718075
  0
VERTEX
  5
9E
  8
0
 10
105.2057917853482
 20
241.1521955317728
 30
0.0
 42
-0.0045418309783567
 70
     1
  0
VERTEX
  5
9F
  8
0
 10
106.05242066118571
 20
241.26398912642409
 30
0.0
 42
-0.0022069278991699
  0
VERTEX
  5
A0
  8
0
 10
107.39828202836659
 20
241.42325349335141
 30
0.0
 42
-0.0044053199445046
 70
     1
  0
VERTEX
  5
A1
  8
0
 10
108.0735225579423
 20
241.49411791846541
 30
0.0
 42
-0.0069797948041892
  0
VERTEX
  5
A2
  8
0
 10
108.25449963969081
 20
241.50895389941331
 30
0.0
 42
-0.0006904447089
 70
     1
  0
VERTEX
  5
A3
  8
0
 10
110.0860173599406
 20
241.63084501362499
 30
0.0
 42
-0.0100939324711226
  0
VERTEX
  5
A4
  8
0
 10
110.48714106012319
 20
241.64886191584819
 30
0.0
 42
-0.0043083102556349
 70
     1
  0
VERTEX
  5
A5
  8
0
 10
111.42768056127279
 20
241.6639891264241
 30
0.0
  0
SEQEND
  5
A6
  8
0
  0
POLYLINE
  5
A7
  8
0
 66
     1
 10
0.0
 20
0.0
 30
0.0
 70
     2
  0
VERTEX
  5
A8
  8
0
 10
98.052420661185749
 20
220.66398912642421
 30
0.0
 42
-0.0666614922848466
  0
VERTEX
  5
A9
  8
0
 10
98.796342139021206
 20
223.6095906318204
 30
0.0
 42
-0.0843291345742469
 70
     1
  0
VERTEX
  5
AA
  8
0
 10
100.05242066118571
 20
225.6639891264241
 30
0.0
 42
-0.0170945276968741
  0
VERTEX
  5
AB
  8
0
 10
101.62127362713829
 20
227.34394838115301
 30
0.0
 42
-0.07355363831532
 70
     1
  0
VERTEX
  5
AC
  8
0
 10
102.05242066118571
 20
227.6639891264241
 30
0.0
 42
-0.0278086894841557
  0
VERTEX
  5
AD
  8
0
 10
103.23540283583959
 20
228.2153018024795
 30
0.0
 42
-0.0425417574016698
 70
     1
  0
VERTEX
  5
AE
  8
0
 10
104.05242066118571
 20
228.4639891264242
 30
0.0
 42
-0.0073877076725095
  0
VERTEX
  5
AF
  8
0
 10
105.4645516529644
 20
228.7438772354374
 30
0.0
 42
-0.0179060556693948
 70
     1
  0
VERTEX
  5
B0
  8
0
 10
106.05242066118571
 20
228.82977072930569
 30
0.0
 42
-0.0003262961220202
  0
VERTEX
  5
B1
  8
0
 10
107.3506287467643
 20
228.9713424886269
 30
0.0
 42
-0.0004911320722659
 70
     1
  0
VERTEX
  5
B2
  8
0
 10
108.2132791414145
 20
229.0639891264241
 30
0.0
 42
-0.000354705555134
  0
VERTEX
  5
B3
  8
0
 10
109.84757474173171
 20
229.2367125765999
 30
0.0
 42
-0.002831772182925
 70
     1
  0
VERTEX
  5
B4
  8
0
 10
110.05242066118571
 20
229.2570429016794
 30
0.0
 42
-0.0176816799578383
  0
VERTEX
  5
B5
  8
0
 10
110.6222384342348
 20
229.2900721319775
 30
0.0
 42
0.0070500265681529
 70
     1
  0
VERTEX
  5
B6
  8
0
 10
112.05242066118571
 20
229.3424973361542
 30
0.0
 42
0.0014767031186017
  0
VERTEX
  5
B7
  8
0
 10
112.2554185488807
 20
229.3534074144429
 30
0.0
 42
0.0001545355593145
 70
     1
  0
VERTEX
  5
B8
  8
0
 10
114.1948609140203
 20
229.4639891264242
 30
0.0
 42
0.010447686315961
  0
VERTEX
  5
B9
  8
0
 10
114.8601569340907
 20
229.5160943344076
 30
0.0
 42
0.0051439178164194
 70
     1
  0
VERTEX
  5
BA
  8
0
 10
116.2073557160187
 20
229.66398912642421
 30
0.0
  0
SEQEND
  5
BB
  8
0
  0
ARC
  5
BC
  8
2
 10
92.052420661185636
 20
198.66398912642421
 30
0.0
 40
6.0
 50
0.0
 51
180.0
  0
ARC
  5
BD
  8
2
 10
212.05242066118569
 20
198.66398912642421
 30
0.0
 40
6.0
 50
0.0
 51
180.0
  0
POLYLINE
  5
BE
  8
0
 66
     1
 10
0.0
 20
0.0
 30
0.0
 70
     2
  0
VERTEX
  5
BF
  8
0
 10
206.05242066118561
 20
157.70122284430039
 30
0.0
 42
0.0666614922848416
  0
VERTEX
  5
C0
  8
0
 10
205.2971213978519
 20
160.69187537065869
 30
0.0
 42
0.0872683942663912
 70
     1
  0
VERTEX
  5
C1
  8
0
 10
204.05242066118561
 20
162.7012228443005
 30
0.0
 42
0.0141760337061976
  0
VERTEX
  5
C2
  8
0
 10
202.4902760969247
 20
164.35455103307311
 30
0.0
 42
0.0579187921823959
 70
     1
  0
VERTEX
  5
C3
  8
0
 10
202.05242066118561
 20
164.7012228443005
 30
0.0
 42
0.0225873209835422
  0
VERTEX
  5
C4
  8
0
 10
200.8624348665837
 20
165.36500098713529
 30
0.0
 42
0.0351184168994809
 70
     1
  0
VERTEX
  5
C5
  8
0
 10
200.05242066118561
 20
165.7012228443005
 30
0.0
 42
0.0142116405590957
  0
VERTEX
  5
C6
  8
0
 10
198.7099965908107
 20
166.1088619867902
 30
0.0
 42
0.0296935692458578
 70
     1
  0
VERTEX
  5
C7
  8
0
 10
198.05242066118561
 20
166.2469714861862
 30
0.0
 42
0.0050408085318423
  0
VERTEX
  5
C8
  8
0
 10
197.7231659386789
 20
166.29255431192229
 30
0.0
 42
0.0009949584532457
 70
     1
  0
VERTEX
  5
C9
  8
0
 10
196.05242066118561
 20
166.50333478961051
 30
0.0
 42
0.0075805170824043
  0
VERTEX
  5
CA
  8
0
 10
195.2756714232253
 20
166.58782323075161
 30
0.0
 42
0.0044018692689082
 70
     1
  0
VERTEX
  5
CB
  8
0
 10
193.93497001234749
 20
166.70122284430039
 30
0.0
  0
SEQEND
  5
CC
  8
0
  0
POLYLINE
  5
CD
  8
0
 66
     1
 10
0.0
 20
0.0
 30
0.0
 70
     2
  0
VERTEX
  5
CE
  8
0
 10
214.05242066118569
 20
169.08405871074831
 30
0.0
 42
0.0399228102155027
  0
VERTEX
  5
CF
  8
0
 10
212.91148220604541
 20
171.10255201011
 30
0.0
 42
0.0686553568890238
 70
     1
  0
VERTEX
  5
D0
  8
0
 10
212.00817869979309
 20
172.10914569115451
 30
0.0
 42
0.0072722954695184
  0
VERTEX
  5
D1
  8
0
 10
210.1022303382685
 20
173.67511609884119
 30
0.0
 42
0.0217930828883311
 70
     1
  0
VERTEX
  5
D2
  8
0
 10
209.43665756390641
 20
174.1600521185488
 30
0.0
 42
0.0080893339606564
  0
VERTEX
  5
D3
  8
0
 10
207.80074872635899
 20
175.20840121880551
 30
0.0
 42
0.0154832030408587
 70
     1
  0
VERTEX
  5
D4
  8
0
 10
206.92103906140861
 20
175.71532282598949
 30
0.0
 42
0.0154578013328618
  0
VERTEX
  5
D5
  8
0
 10
205.28292167024259
 20
176.5287358250402
 30
0.0
 42
0.0226555158922551
 70
     1
  0
VERTEX
  5
D6
  8
0
 10
204.12590739196659
 20
176.99713934311089
 30
0.0
 42
0.006033445740393
  0
VERTEX
  5
D7
  8
0
 10
203.7635622339084
 20
177.12015954428281
 30
0.0
 42
0.0010200120969109
 70
     1
  0
VERTEX
  5
D8
  8
0
 10
201.61028888946879
 20
177.81750191406849
 30
0.0
 42
0.0085470366495879
  0
VERTEX
  5
D9
  8
0
 10
200.75035305889119
 20
178.07792440194029
 30
0.0
 42
0.0046836573885798
 70
     1
  0
VERTEX
  5
DA
  8
0
 10
199.1691438015628
 20
178.51145209514041
 30
0.0
  0
SEQEND
  5
DB
  8
0
  0
POLYLINE
  5
DC
  8
0
 66
     1
 10
0.0
 20
0.0
 30
0.0
  0
VERTEX
  5
DD
  8
0
 10
214.05242066118569
 20
169.08405871074831
 30
0.0
 42
-0.0129546578378853
  0
VERTEX
  5
DE
  8
0
 10
214.4361872747524
 20
168.2976677790742
 30
0.0
 42
-0.0028745135194218
  0
VERTEX
  5
DF
  8
0
 10
216.05242066118569
 20
164.7012228443005
 30
0.0
 42
-0.0629467132370929
  0
VERTEX
  5
E0
  8
0
 10
217.55776759713319
 20
159.6727945495725
 30
0.0
 42
-0.0471922418960627
  0
VERTEX
  5
E1
  8
0
 10
218.05242066118561
 20
152.70122284430039
 30
0.0
  0
SEQEND
  5
E2
  8
0
  0
POLYLINE
  5
E3
  8
0
 66
     1
 10
0.0
 20
0.0
 30
0.0
  0
VERTEX
  5
E4
  8
0
 10
199.1691438015626
 20
178.51145209514041
 30
0.0
 42
0.0148309437982411
  0
VERTEX
  5
E5
  8
0
 10
198.9613414445065
 20
178.53488381231401
 30
0.0
 42
0.0004583385489101
  0
VERTEX
  5
E6
  8
0
 10
198.2557414729886
 20
178.59266629540201
 30
0.0
 42
0.0039169131153588
  0
VERTEX
  5
E7
  8
0
 10
198.17311826515379
 20
178.5987050782297
 30
0.0
 42
0.0015705156013643
  0
VERTEX
  5
E8
  8
0
 10
198.09227343630931
 20
178.6037225650266
 30
0.0
 42
0.0001266755429689
  0
VERTEX
  5
E9
  8
0
 10
197.0897612926189
 20
178.66252634414531
 30
0.0
 42
0.0085990166406788
  0
VERTEX
  5
EA
  8
0
 10
196.4795330248966
 20
178.68764428907471
 30
0.0
 42
0.0052207542619962
  0
VERTEX
  5
EB
  8
0
 10
195.47372381531579
 20
178.7012228443005
 30
0.0
  0
SEQEND
  5
EC
  8
0
  0
POLYLINE
  5
ED
  8
0
 66
     1
 10
0.0
 20
0.0
 30
0.0
  0
VERTEX
  5
EE
  8
0
 10
104.9356975208088
 20
178.51145209514041
 30
0.0
 42
-0.0148309437982411
  0
VERTEX
  5
EF
  8
0
 10
105.1434998778648
 20
178.53488381231401
 30
0.0
 42
-0.0004583385489101
  0
VERTEX
  5
F0
  8
0
 10
105.8490998493827
 20
178.59266629540201
 30
0.0
 42
-0.0039169131153588
  0
VERTEX
  5
F1
  8
0
 10
105.9317230572175
 20
178.5987050782297
 30
0.0
 42
-0.0015705156013643
  0
VERTEX
  5
F2
  8
0
 10
106.0125678860621
 20
178.6037225650266
 30
0.0
 42
-0.0001266755429689
  0
VERTEX
  5
F3
  8
0
 10
107.0150800297525
 20
178.66252634414531
 30
0.0
 42
-0.0085990166406788
  0
VERTEX
  5
F4
  8
0
 10
107.6253082974747
 20
178.68764428907471
 30
0.0
 42
-0.0052207542619962
  0
VERTEX
  5
F5
  8
0
 10
108.63111750705551
 20
178.7012228443005
 30
0.0
  0
SEQEND
  5
F6
  8
0
  0
POLYLINE
  5
F7
  8
0
 66
     1
 10
0.0
 20
0.0
 30
0.0
  0
VERTEX
  5
F8
  8
0
 10
90.052420661185735
 20
169.08405871074831
 30
0.0
 42
0.0129546578378853
  0
VERTEX
  5
F9
  8
0
 10
89.668654047618986
 20
168.2976677790742
 30
0.0
 42
0.0028745135194218
  0
VERTEX
  5
FA
  8
0
 10
88.052420661185749
 20
164.7012228443005
 30
0.0
 42
0.0629467132370929
  0
VERTEX
  5
FB
  8
0
 10
86.547073725238135
 20
159.6727945495725
 30
0.0
 42
0.0471922418960627
  0
VERTEX
  5
FC
  8
0
 10
86.052420661185764
 20
152.70122284430039
 30
0.0
  0
SEQEND
  5
FD
  8
0
  0
POLYLINE
  5
FE
  8
0
 66
     1
 10
0.0
 20
0.0
 30
0.0
 70
     2
  0
VERTEX
  5
FF
  8
0
 10
90.052420661185735
 20
169.08405871074831
 30
0.0
 42
-0.0399228102155027
  0
VERTEX
  5
100
  8
0
 10
91.193359116326008
 20
171.10255201011
 30
0.0
 42
-0.0686553568890238
 70
     1
  0
VERTEX
  5
101
  8
0
 10
92.096662622578307
 20
172.10914569115451
 30
0.0
 42
-0.0072722954695184
  0
VERTEX
  5
102
  8
0
 10
94.002610984102887
 20
173.67511609884119
 30
0.0
 42
-0.0217930828883311
 70
     1
  0
VERTEX
  5
103
  8
0
 10
94.668183758464977
 20
174.1600521185488
 30
0.0
 42
-0.0080893339606564
  0
VERTEX
  5
104
  8
0
 10
96.304092596012353
 20
175.20840121880551
 30
0.0
 42
-0.0154832030408587
 70
     1
  0
VERTEX
  5
105
  8
0
 10
97.18380226096275
 20
175.71532282598949
 30
0.0
 42
-0.0154578013328618
  0
VERTEX
  5
106
  8
0
 10
98.82191965212877
 20
176.5287358250402
 30
0.0
 42
-0.0226555158922551
 70
     1
  0
VERTEX
  5
107
  8
0
 10
99.978933930404835
 20
176.99713934311089
 30
0.0
 42
-0.006033445740393
  0
VERTEX
  5
108
  8
0
 10
100.3412790884629
 20
177.12015954428281
 30
0.0
 42
-0.0010200120969109
 70
     1
  0
VERTEX
  5
109
  8
0
 10
102.49455243290259
 20
177.81750191406849
 30
0.0
 42
-0.0085470366495879
  0
VERTEX
  5
10A
  8
0
 10
103.35448826348011
 20
178.07792440194029
 30
0.0
 42
-0.0046836573885798
 70
     1
  0
VERTEX
  5
10B
  8
0
 10
104.9356975208085
 20
178.51145209514041
 30
0.0
  0
SEQEND
  5
10C
  8
0
  0
POLYLINE
  5
10D
  8
0
 66
     1
 10
0.0
 20
0.0
 30
0.0
 70
     2
  0
VERTEX
  5
10E
  8
0
 10
98.052420661185749
 20
157.70122284430039
 30
0.0
 42
-0.0666614922848416
  0
VERTEX
  5
10F
  8
0
 10
98.807719924519517
 20
160.69187537065869
 30
0.0
 42
-0.0872683942663912
 70
     1
  0
VERTEX
  5
110
  8
0
 10
100.05242066118571
 20
162.7012228443005
 30
0.0
 42
-0.0141760337061976
  0
VERTEX
  5
111
  8
0
 10
101.6145652254467
 20
164.35455103307311
 30
0.0
 42
-0.0579187921823959
 70
     1
  0
VERTEX
  5
112
  8
0
 10
102.05242066118571
 20
164.7012228443005
 30
0.0
 42
-0.0225873209835422
  0
VERTEX
  5
113
  8
0
 10
103.2424064557877
 20
165.36500098713529
 30
0.0
 42
-0.0351184168994809
 70
     1
  0
VERTEX
  5
114
  8
0
 10
104.05242066118571
 20
165.7012228443005
 30
0.0
 42
-0.0142116405590957
  0
VERTEX
  5
115
  8
0
 10
105.3948447315607
 20
166.1088619867902
 30
0.0
 42
-0.0296935692458578
 70
     1
  0
VERTEX
  5
116
  8
0
 10
106.05242066118571
 20
166.2469714861862
 30
0.0
 42
-0.0050408085318423
  0
VERTEX
  5
117
  8
0
 10
106.3816753836924
 20
166.29255431192229
 30
0.0
 42
-0.0009949584532457
 70
     1
  0
VERTEX
  5
118
  8
0
 10
108.05242066118571
 20
166.50333478961051
 30
0.0
 42
-0.0075805170824043
  0
VERTEX
  5
119
  8
0
 10
108.829169899146
 20
166.58782323075161
 30
0.0
 42
-0.0044018692689082
 70
     1
  0
VERTEX
  5
11A
  8
0
 10
110.16987131002389
 20
166.70122284430039
 30
0.0
  0
SEQEND
  5
11B
  8
0
  0
LINE
  5
11C
  8
0
 10
324.91207990547713
 20
168.1621040924081
 30
0.0
 11
296.14060554556892
 21
143.290707151227
 31
0.0
  0
ARC
  5
11D
  8
0
 10
320.98825511884053
 20
172.70122284430039
 30
0.0
 40
6.0
 50
310.84165638720549
 51
130.84165638720549
  0
LINE
  5
11E
  8
0
 10
317.06443033220501
 20
177.24034159619279
 30
0.0
 11
288.2929559722968
 21
152.36894465501169
 31
0.0
  0
ARC
  5
11F
  8
0
 10
303.98825511884098
 20
134.21246964744239
 30
0.0
 40
24.0
 50
130.84165638720549
 51
180.0
  0
ARC
  5
120
  8
0
 10
303.98825511884098
 20
134.21246964744239
 30
0.0
 40
12.0
 50
130.84165638720549
 51
180.0
  0
ARC
  5
121
  8
1
 10
303.98825511884098
 20
134.21246964744239
 30
0.0
 40
18.0
 50
130.84165638720549
 51
180.0
  0
LINE
  5
122
  8
1
 10
329.3099728306438
 20
179.89490161980009
 30
0.0
 11
292.21678075893283
 21
147.8298259031194
 31
0.0
  0
ARC
  5
123
  8
2
 10
320.98825511884098
 20
172.70122284429991
 30
0.0
 40
6.0
 50
130.8416563872056
 51
310.84165638720532
  0
LINE
  5
124
  8
1
 10
109.9473219031553
 20
172.70122284430039
 30
0.0
 11
194.15751941921499
 21
172.70122284430039
 31
0.0
  0
POLYLINE
  5
125
  8
1
 66
     1
 10
0.0
 20
0.0
 30
0.0
  0
VERTEX
  5
126
  8
1
 10
212.05242066118561
 20
158.00867908021351
 30
0.0
 42
0.0720594577703769
  0
VERTEX
  5
127
  8
1
 10
210.86798154316389
 20
162.92021942878219
 30
0.0
 42
0.0872683942664187
  0
VERTEX
  5
128
  8
1
 10
208.52867356276749
 20
166.69661518562069
 30
0.0
 42
0.0141760337061978
  0
VERTEX
  5
129
  8
1
 10
206.73291678404399
 20
168.5971917201924
 30
0.0
 42
0.0579187921823942
  0
VERTEX
  5
12A
  8
1
 10
205.20888524832171
 20
169.8038428879797
 30
0.0
 42
0.0225873209835388
  0
VERTEX
  5
12B
  8
1
 10
203.5457164395832
 20
170.73156413313501
 30
0.0
 42
0.0351184168994886
  0
VERTEX
  5
12C
  8
1
 10
201.9582157033455
 20
171.39050621369589
 30
0.0
 42
0.0142116405591027
  0
VERTEX
  5
12D
  8
1
 10
200.2894932527019
 20
171.89722879402299
 30
0.0
 42
0.029693569245826
  0
VERTEX
  5
12E
  8
1
 10
198.9351024996933
 20
172.18168906766971
 30
0.0
 42
0.0050408085318571
  0
VERTEX
  5
12F
  8
1
 10
198.48601437786709
 20
172.24386192108091
 30
0.0
 42
0.0009949584532452
  0
VERTEX
  5
130
  8
1
 10
196.7915779140655
 20
172.45763126824801
 30
0.0
 42
0.0075805170823698
  0
VERTEX
  5
131
  8
1
 10
195.83397345154091
 20
172.56179166431221
 30
0.0
 42
0.0051029559745097
  0
VERTEX
  5
132
  8
1
 10
194.15751941921511
 20
172.70122284430039
 30
0.0
 42
0.0044018692689197
  0
SEQEND
  5
133
  8
1
  0
LINE
  5
134
  8
1
 10
212.05242066118561
 20
158.0086790802134
 30
0.0
 11
212.05242066118569
 21
47.701222844300503
 31
0.0
  0
LINE
  5
135
  8
1
 10
92.052420661185664
 20
47.701222844300503
 30
0.0
 11
92.052420661185636
 21
158.008679080213
 31
0.0
  0
POLYLINE
  5
136
  8
1
 66
     1
 10
0.0
 20
0.0
 30
0.0
  0
VERTEX
  5
137
  8
1
 10
92.052420661185636
 20
158.0086790802126
 30
0.0
 42
-0.0720594577703907
  0
VERTEX
  5
138
  8
1
 10
93.236859779207506
 20
162.92021942878219
 30
0.0
 42
-0.0872683942664182
  0
VERTEX
  5
139
  8
1
 10
95.576167759603948
 20
166.69661518562069
 30
0.0
 42
-0.0141760337061977
  0
VERTEX
  5
13A
  8
1
 10
97.371924538327406
 20
168.5971917201924
 30
0.0
 42
-0.057918792182394
  0
VERTEX
  5
13B
  8
1
 10
98.895956074049678
 20
169.8038428879797
 30
0.0
 42
-0.0225873209835391
  0
VERTEX
  5
13C
  8
1
 10
100.5591248827881
 20
170.73156413313501
 30
0.0
 42
-0.0351184168994886
  0
VERTEX
  5
13D
  8
1
 10
102.1466256190259
 20
171.39050621369589
 30
0.0
 42
-0.0142116405591029
  0
VERTEX
  5
13E
  8
1
 10
103.8153480696694
 20
171.89722879402299
 30
0.0
 42
-0.0296935692458259
  0
VERTEX
  5
13F
  8
1
 10
105.1697388226781
 20
172.18168906766971
 30
0.0
 42
-0.0050408085318568
  0
VERTEX
  5
140
  8
1
 10
105.61882694450421
 20
172.24386192108091
 30
0.0
 42
-0.0009949584532451
  0
VERTEX
  5
141
  8
1
 10
107.3132634083058
 20
172.45763126824801
 30
0.0
 42
-0.0075805170823702
  0
VERTEX
  5
142
  8
1
 10
108.2708678708304
 20
172.56179166431221
 30
0.0
 42
-0.0051029559745074
  0
VERTEX
  5
143
  8
1
 10
109.9473219031555
 20
172.70122284430039
 30
0.0
 42
-0.0044018692689196
  0
SEQEND
  5
144
  8
1
  0
LINE
  5
145
  8
1
 10
115.83942896961921
 20
235.6639891264241
 30
0.0
 11
188.26541235275221
 21
235.6639891264241
 31
0.0
  0
LINE
  5
146
  8
1
 10
212.05242066118569
 20
187.6639891264241
 30
0.0
 11
212.05242066118569
 21
220.9710036685311
 31
0.0
  0
LINE
  5
147
  8
1
 10
92.052420661185636
 20
187.6639891264241
 30
0.0
 11
92.052420661185636
 21
220.9710036685309
 31
0.0
  0
POLYLINE
  5
148
  8
1
 66
     1
 10
0.0
 20
0.0
 30
0.0
  0
VERTEX
  5
149
  8
1
 10
92.052420661185636
 20
220.97100366853181
 30
0.0
 42
-0.0721199721607801
  0
VERTEX
  5
14A
  8
1
 10
93.225481993709607
 20
225.83793468994489
 30
0.0
 42
-0.0843291345742487
  0
VERTEX
  5
14B
  8
1
 10
95.529842999313715
 20
229.60686768051829
 30
0.0
 42
-0.0170945276968777
  0
VERTEX
  5
14C
  8
1
 10
97.378632940019358
 20
231.5865890682725
 30
0.0
 42
-0.0735536383152547
  0
VERTEX
  5
14D
  8
1
 10
99.219603639920493
 20
232.95314290789329
 30
0.0
 42
-0.0278086894841162
  0
VERTEX
  5
14E
  8
1
 10
101.00705877771129
 20
233.78616194778951
 30
0.0
 42
-0.0425417574017619
  0
VERTEX
  5
14F
  8
1
 10
102.7990682781075
 20
234.33162134085549
 30
0.0
 42
-0.0073877076725153
  0
VERTEX
  5
150
  8
1
 10
104.3851114743299
 20
234.64597931018591
 30
0.0
 42
-0.0179060556693611
  0
VERTEX
  5
151
  8
1
 10
105.39807455914919
 20
234.79398326565541
 30
0.0
 42
-0.0003262961220112
  0
VERTEX
  5
152
  8
1
 10
106.7040675972324
 20
234.93640398704551
 30
0.0
 42
-0.0004911320722865
  0
VERTEX
  5
153
  8
1
 10
107.57843776315811
 20
235.03030930090819
 30
0.0
 42
-0.0003547055551338
  0
VERTEX
  5
154
  8
1
 10
109.2211991469034
 20
235.20392747252961
 30
0.0
 42
-0.0028317721829386
  0
VERTEX
  5
155
  8
1
 10
109.4936747952309
 20
235.23096983940459
 30
0.0
 42
-0.0176816799578369
  0
VERTEX
  5
156
  8
1
 10
110.48700936787441
 20
235.2885480300379
 30
0.0
 42
0.0070500265681516
  0
VERTEX
  5
157
  8
1
 10
111.7481129226443
 20
235.33477543386169
 30
0.0
 42
0.0014767031186143
  0
VERTEX
  5
158
  8
1
 10
111.9157210875678
 20
235.34378349902849
 30
0.0
 42
0.0001545355593144
  0
VERTEX
  5
159
  8
1
 10
113.8514606133954
 20
235.45415408521509
 30
0.0
 42
0.0104476863159388
  0
VERTEX
  5
15A
  8
1
 10
114.2668049385682
 20
235.4866833681136
 30
0.0
 42
0.0066086750496505
  0
VERTEX
  5
15B
  8
1
 10
115.83942896961911
 20
235.6639891264241
 30
0.0
 42
0.0051439178164249
  0
SEQEND
  5
15C
  8
1
  0
POLYLINE
  5
15D
  8
1
 66
     1
 10
0.0
 20
0.0
 30
0.0
  0
VERTEX
  5
15E
  8
1
 10
212.05242066118569
 20
220.97100366853149
 30
0.0
 42
0.0721199721607837
  0
VERTEX
  5
15F
  8
1
 10
210.87935932866179
 20
225.83793468994489
 30
0.0
 42
0.08432913457425
  0
VERTEX
  5
160
  8
1
 10
208.57499832305771
 20
229.60686768051841
 30
0.0
 42
0.0170945276968775
  0
VERTEX
  5
161
  8
1
 10
206.72620838235201
 20
231.5865890682725
 30
0.0
 42
0.0735536383152544
  0
VERTEX
  5
162
  8
1
 10
204.88523768245091
 20
232.95314290789329
 30
0.0
 42
0.0278086894841158
  0
VERTEX
  5
163
  8
1
 10
203.09778254466011
 20
233.78616194778951
 30
0.0
 42
0.0425417574017624
  0
VERTEX
  5
164
  8
1
 10
201.3057730442639
 20
234.33162134085549
 30
0.0
 42
0.0073877076725155
  0
VERTEX
  5
165
  8
1
 10
199.7197298480414
 20
234.64597931018591
 30
0.0
 42
0.0179060556693611
  0
VERTEX
  5
166
  8
1
 10
198.70676676322219
 20
234.79398326565541
 30
0.0
 42
0.0003262961220112
  0
VERTEX
  5
167
  8
1
 10
197.400773725139
 20
234.93640398704551
 30
0.0
 42
0.0004911320722865
  0
VERTEX
  5
168
  8
1
 10
196.52640355921321
 20
235.03030930090819
 30
0.0
 42
0.0003547055551338
  0
VERTEX
  5
169
  8
1
 10
194.88364217546791
 20
235.20392747252961
 30
0.0
 42
0.0028317721829363
  0
VERTEX
  5
16A
  8
1
 10
194.61116652714071
 20
235.23096983940459
 30
0.0
 42
0.0176816799578392
  0
VERTEX
  5
16B
  8
1
 10
193.61783195449701
 20
235.2885480300379
 30
0.0
 42
-0.0070500265681527
  0
VERTEX
  5
16C
  8
1
 10
192.35672839972699
 20
235.33477543386169
 30
0.0
 42
-0.0014767031186133
  0
VERTEX
  5
16D
  8
1
 10
192.18912023480351
 20
235.34378349902849
 30
0.0
 42
-0.0001545355593144
  0
VERTEX
  5
16E
  8
1
 10
190.2533807089759
 20
235.45415408521509
 30
0.0
 42
-0.0104476863159385
  0
VERTEX
  5
16F
  8
1
 10
189.83803638380309
 20
235.4866833681136
 30
0.0
 42
-0.0066086750496508
  0
VERTEX
  5
170
  8
1
 10
188.26541235275221
 20
235.6639891264241
 30
0.0
 42
-0.0051439178164249
  0
SEQEND
  5
171
  8
1
  0
LINE
  5
172
  8
2
 10
215.37592066116
 20
53.901222844300548
 30
0.0
 11
216.57592066116001
 21
52.701222844300503
 31
0.0
  0
LINE
  5
173
  8
2
 10
208.72892066116
 20
53.901222844300548
 30
0.0
 11
207.5289206611599
 21
52.701222844300503
 31
0.0
  0
LINE
  5
174
  8
2
 10
208.72892066116
 20
53.901222844300548
 30
0.0
 11
215.37592066116011
 21
53.901222844300491
 31
0.0
  0
LINE
  5
175
  8
2
 10
216.05242066115991
 20
67.701222844300489
 30
0.0
 11
215.37592066116
 21
68.872955215620706
 31
0.0
  0
LINE
  5
176
  8
2
 10
208.05242066116
 20
67.701222844300489
 30
0.0
 11
208.72892066115989
 21
68.872955215620706
 31
0.0
  0
LINE
  5
177
  8
2
 10
215.37592066116011
 20
72.701222844300489
 30
0.0
 11
208.7289206611598
 21
72.701222844300489
 31
0.0
  0
LINE
  5
178
  8
2
 10
216.05242066116
 20
67.701222844300489
 30
0.0
 11
208.05242066116
 21
67.701222844300489
 31
0.0
  0
LINE
  5
179
  8
2
 10
215.37592066116011
 20
72.701222844300489
 30
0.0
 11
212.05242066116
 21
74.69818311163867
 31
0.0
  0
LINE
  5
17A
  8
2
 10
208.7289206611598
 20
72.701222844300489
 30
0.0
 11
212.05242066116
 21
74.69818311163867
 31
0.0
  0
LINE
  5
17B
  8
2
 10
208.05242066116
 20
53.224722844300523
 30
0.0
 11
208.05242066116
 21
67.701222844300489
 31
0.0
  0
LINE
  5
17C
  8
2
 10
208.7289206611598
 20
53.901222844300491
 30
0.0
 11
208.7289206611598
 21
72.701222844300489
 31
0.0
  0
LINE
  5
17D
  8
2
 10
215.37592066116011
 20
53.901222844300491
 30
0.0
 11
215.37592066116011
 21
72.701222844300489
 31
0.0
  0
LINE
  5
17E
  8
2
 10
216.05242066116
 20
53.224722844300523
 30
0.0
 11
216.05242066116
 21
67.701222844300489
 31
0.0
  0
TEXT
  5
29C
  8
0
 62
     3
 10
0.0
 20
0.0
 30
0.0
 40
10.0
  1
MH11-120B
  7
STANDARD1
  0
ENDSEC
  0
EOF
