  0
SECTION
  2
HEADER
  9
$ACADVER
  1
AC1009
  9
$INSBASE
 10
0.0
 20
0.0
 30
0.0
  9
$EXTMIN
 10
0.0
 20
-1.4802182810368341
 30
0.0
  9
$EXTMAX
 10
71.27395001602477
 20
72.085889369917084
 30
0.0
  9
$LIMMIN
 10
0.0
 20
0.0
  9
$LIMMAX
 10
12.0
 20
9.0
  9
$ORTHOMODE
 70
     1
  9
$REGENMODE
 70
     1
  9
$FILLMODE
 70
     1
  9
$QTEXTMODE
 70
     0
  9
$MIRRTEXT
 70
     0
  9
$DRAGMODE
 70
     2
  9
$LTSCALE
 40
5.0
  9
$OSMODE
 70
  3071
  9
$ATTMODE
 70
     1
  9
$TEXTSIZE
 40
0.2
  9
$TRACEWID
 40
0.05
  9
$TEXTSTYLE
  7
STANDARD
  9
$CLAYER
  8
0
  9
$CELTYPE
  6
BYLAYER
  9
$CECOLOR
 62
   256
  9
$DIMSCALE
 40
1.0
  9
$DIMASZ
 40
0.18
  9
$DIMEXO
 40
0.0625
  9
$DIMDLI
 40
0.38
  9
$DIMRND
 40
0.0
  9
$DIMDLE
 40
0.0
  9
$DIMEXE
 40
0.18
  9
$DIMTP
 40
0.0
  9
$DIMTM
 40
0.0
  9
$DIMTXT
 40
0.18
  9
$DIMCEN
 40
0.09
  9
$DIMTSZ
 40
0.0
  9
$DIMTOL
 70
     0
  9
$DIMLIM
 70
     0
  9
$DIMTIH
 70
     1
  9
$DIMTOH
 70
     1
  9
$DIMSE1
 70
     0
  9
$DIMSE2
 70
     0
  9
$DIMTAD
 70
     0
  9
$DIMZIN
 70
     0
  9
$DIMBLK
  1

  9
$DIMASO
 70
     1
  9
$DIMSHO
 70
     1
  9
$DIMPOST
  1

  9
$DIMAPOST
  1

  9
$DIMALT
 70
     0
  9
$DIMALTD
 70
     2
  9
$DIMALTF
 40
25.399999999999999
  9
$DIMLFAC
 40
1.0
  9
$DIMTOFL
 70
     0
  9
$DIMTVP
 40
0.0
  9
$DIMTIX
 70
     0
  9
$DIMSOXD
 70
     0
  9
$DIMSAH
 70
     0
  9
$DIMBLK1
  1

  9
$DIMBLK2
  1

  9
$DIMSTYLE
  2
STANDARD
  9
$DIMCLRD
 70
     0
  9
$DIMCLRE
 70
     0
  9
$DIMCLRT
 70
     0
  9
$DIMTFAC
 40
1.0
  9
$DIMGAP
 40
0.09
  9
$LUNITS
 70
     2
  9
$LUPREC
 70
     4
  9
$SKETCHINC
 40
0.1
  9
$FILLETRAD
 40
2.5
  9
$AUNITS
 70
     0
  9
$AUPREC
 70
     0
  9
$MENU
  1
.
  9
$ELEVATION
 40
0.0
  9
$PELEVATION
 40
0.0
  9
$THICKNESS
 40
0.0
  9
$LIMCHECK
 70
     0
  9
$BLIPMODE
 70
     0
  9
$CHAMFERA
 40
0.25
  9
$CHAMFERB
 40
0.25
  9
$SKPOLY
 70
     0
  9
$TDCREATE
 40
2453083.4120647679
  9
$TDUPDATE
 40
2456597.6510590161
  9
$TDINDWG
 40
0.4070669329
  9
$TDUSRTIMER
 40
0.4070668171
  9
$USRTIMER
 70
     1
  9
$ANGBASE
 50
0.0
  9
$ANGDIR
 70
     0
  9
$PDMODE
 70
     0
  9
$PDSIZE
 40
0.0
  9
$PLINEWID
 40
0.0
  9
$COORDS
 70
     1
  9
$SPLFRAME
 70
     0
  9
$SPLINETYPE
 70
     6
  9
$SPLINESEGS
 70
     8
  9
$ATTDIA
 70
     0
  9
$ATTREQ
 70
     1
  9
$HANDLING
 70
     1
  9
$HANDSEED
  5
2DD2
  9
$SURFTAB1
 70
     6
  9
$SURFTAB2
 70
     6
  9
$SURFTYPE
 70
     6
  9
$SURFU
 70
     6
  9
$SURFV
 70
     6
  9
$UCSNAME
  2

  9
$UCSORG
 10
0.0
 20
0.0
 30
0.0
  9
$UCSXDIR
 10
1.0
 20
0.0
 30
0.0
  9
$UCSYDIR
 10
0.0
 20
1.0
 30
0.0
  9
$PUCSNAME
  2

  9
$PUCSORG
 10
0.0
 20
0.0
 30
0.0
  9
$PUCSXDIR
 10
1.0
 20
0.0
 30
0.0
  9
$PUCSYDIR
 10
0.0
 20
1.0
 30
0.0
  9
$USERI1
 70
     0
  9
$USERI2
 70
     1
  9
$USERI3
 70
     0
  9
$USERI4
 70
     0
  9
$USERI5
 70
     0
  9
$USERR1
 40
0.0
  9
$USERR2
 40
0.0
  9
$USERR3
 40
0.0
  9
$USERR4
 40
0.0
  9
$USERR5
 40
0.0
  9
$WORLDVIEW
 70
     1
  9
$SHADEDGE
 70
     3
  9
$SHADEDIF
 70
    70
  9
$TILEMODE
 70
     1
  9
$MAXACTVP
 70
    64
  9
$PLIMCHECK
 70
     0
  9
$PEXTMIN
 10
0.0
 20
0.0
 30
0.0
  9
$PEXTMAX
 10
0.0
 20
0.0
 30
0.0
  9
$PLIMMIN
 10
0.0
 20
0.0
  9
$PLIMMAX
 10
12.0
 20
9.0
  9
$UNITMODE
 70
     0
  9
$VISRETAIN
 70
     1
  9
$PLINEGEN
 70
     0
  9
$PSLTSCALE
 70
     1
  0
ENDSEC
  0
SECTION
  2
TABLES
  0
TABLE
  2
VPORT
 70
     1
  0
VPORT
  2
*ACTIVE
 70
     0
 10
0.0
 20
0.0
 11
1.0
 21
1.0
 12
35.636975173959982
 22
35.462497046445733
 13
0.0
 23
0.0
 14
0.5
 24
0.5
 15
0.5
 25
0.5
 16
0.0
 26
0.0
 36
1.0
 17
0.0
 27
0.0
 37
0.0
 40
74.733870112096156
 41
2.304913294797688
 42
50.0
 43
0.0
 44
0.0
 50
0.0
 51
0.0
 71
     0
 72
  1000
 73
     1
 74
     2
 75
     0
 76
     0
 77
     0
 78
     0
  0
ENDTAB
  0
TABLE
  2
LTYPE
 70
     4
  0
LTYPE
  2
CONTINUOUS
 70
     0
  3
Solid Line
 72
    65
 73
     0
 40
0.0
  0
LTYPE
  2
CENTER
 70
     0
  3
____ _ ____ _ ____ _ ____ _ ____ _ ____ _ ____
 72
    65
 73
     4
 40
2.0
 49
1.25
 49
-0.25
 49
0.25
 49
-0.25
  0
LTYPE
  2
HIDDEN
 70
     0
  3
Hidden __ __ __ __ __ __ __ __ __ __ __ __ __ _
 72
    65
 73
     2
 40
0.375
 49
0.25
 49
-0.125
  0
LTYPE
  2
PHANTOM2
 70
     0
  3
___ _ _ ___ _ _ ___ _ _ ___ _ _
 72
    65
 73
     6
 40
1.25
 49
0.625
 49
-0.125
 49
0.125
 49
-0.125
 49
0.125
 49
-0.125
  0
ENDTAB
  0
TABLE
  2
LAYER
 70
     4
  0
LAYER
  2
0
 70
     0
 62
     7
  6
CONTINUOUS
  0
LAYER
  2
1
 70
     0
 62
     1
  6
CENTER
  0
LAYER
  2
2
 70
     0
 62
     2
  6
HIDDEN
  0
LAYER
  2
3
 70
     0
 62
     3
  6
CONTINUOUS
  0
ENDTAB
  0
TABLE
  2
STYLE
 70
     2
  0
STYLE
  2
STANDARD
 70
     0
 40
0.0
 41
1.0
 50
0.0
 71
     0
 42
0.2
  3
simplex.shx
  4
bigfont.shx
  0
STYLE
  2
STANDARD1
 70
     0
 40
0.0
 41
1.0
 50
0.0
 71
     0
 42
3.0
  3
txt
  4

  0
ENDTAB
  0
TABLE
  2
VIEW
 70
     0
  0
ENDTAB
  0
TABLE
  2
UCS
 70
     0
  0
ENDTAB
  0
TABLE
  2
APPID
 70
     4
  0
APPID
  2
ACAD
 70
     0
  0
APPID
  2
DCO15
 70
     0
  0
APPID
  2
ACAD_MLEADERVER
 70
     0
  0
APPID
  2
ACAD_NAV_VCDISPLAY
 70
     0
  0
ENDTAB
  0
TABLE
  2
DIMSTYLE
 70
     1
  0
DIMSTYLE
  2
STANDARD
 70
     0
  3

  4

  5

  6

  7

 40
1.0
 41
0.18
 42
0.0625
 43
0.38
 44
0.18
 45
0.0
 46
0.0
 47
0.0
 48
0.0
140
0.18
141
0.09
142
0.0
143
25.399999999999999
144
1.0
145
0.0
146
1.0
147
0.09
 71
     0
 72
     0
 73
     1
 74
     1
 75
     0
 76
     0
 77
     0
 78
     0
170
     0
171
     2
172
     0
173
     0
174
     0
175
     0
176
     0
177
     0
178
     0
  0
ENDTAB
  0
ENDSEC
  0
SECTION
  2
BLOCKS
  0
BLOCK
  8
0
  2
$MODEL_SPACE
 70
     0
 10
0.0
 20
0.0
 30
0.0
  3
$MODEL_SPACE
  1

  0
ENDBLK
  5
21
  8
0
  0
BLOCK
 67
     1
  8
0
  2
$PAPER_SPACE
 70
     0
 10
0.0
 20
0.0
 30
0.0
  3
$PAPER_SPACE
  1

  0
ENDBLK
  5
5B
 67
     1
  8
0
  0
BLOCK
  8
0
  2
STDGX5
 70
     0
 10
0.0
 20
0.0
 30
0.0
  3
STDGX5
  1

  0
ENDBLK
  5
16DA
  8
0
  0
BLOCK
  8
0
  2
M05-C
 70
     0
 10
0.0
 20
0.0
 30
0.0
  3
M05-C
  1

  0
CIRCLE
  5
2160
  8
0
 10
0.0
 20
0.0
 30
0.0
 40
2.0669999999999988
  0
CIRCLE
  5
2161
  8
3
 10
0.0
 20
0.0
 30
0.0
 40
2.5
  0
ENDBLK
  5
2162
  8
0
  0
ENDSEC
  0
SECTION
  2
ENTITIES
  0
INSERT
  5
1747
  8
0
  2
STDGX5
 10
142.93956481232809
 20
0.1619180124085346
 30
0.0
  0
LINE
  5
28E9
  8
2
 10
61.589307439659351
 20
40.313654742077432
 30
0.0
 11
61.589307439659393
 21
34.126123997756842
 31
0.0
  0
LINE
  5
28EA
  8
2
 10
61.418279372701093
 20
40.313654742077432
 30
0.0
 11
61.589307439659358
 21
40.313654742077432
 31
0.0
  0
LINE
  5
28EB
  8
2
 10
60.589307439659407
 20
34.126123997756842
 30
0.0
 11
61.589307439659407
 21
34.126123997756842
 31
0.0
  0
LINE
  5
28EC
  8
2
 10
61.589307439659407
 20
34.719889369917027
 30
0.0
 11
68.773950016024756
 21
34.71988936991702
 31
0.0
  0
LINE
  5
28ED
  8
2
 10
61.589307439659393
 20
35.152889369917041
 30
0.0
 11
68.773950016024756
 21
35.152889369917013
 31
0.0
  0
LINE
  5
28EE
  8
2
 10
61.589307439659358
 20
39.286889369917027
 30
0.0
 11
68.77395001602477
 21
39.286889369917013
 31
0.0
  0
LINE
  5
28EF
  8
2
 10
61.589307439659358
 20
39.719889369917027
 30
0.0
 11
68.77395001602477
 21
39.719889369917013
 31
0.0
  0
LINE
  5
28F0
  8
0
 10
63.098651626776871
 20
46.58488936991715
 30
0.0
 11
68.773950016024784
 21
45.314889386442509
 31
0.0
  0
LINE
  5
28F1
  8
0
 10
29.959714065389051
 20
46.5848893699171
 30
0.0
 11
29.959714065389051
 21
37.219889369917183
 31
0.0
  0
ARC
  5
28F2
  8
0
 10
37.104714065388997
 20
37.219889369917148
 30
0.0
 40
7.1449999999999987
 50
179.9999999999996
 51
0.0
  0
LINE
  5
28F3
  8
0
 10
44.249714065389071
 20
46.5848893699171
 30
0.0
 11
44.249714065389071
 21
37.219889369917183
 31
0.0
  0
LINE
  5
28F4
  8
1
 10
71.27395001602477
 20
37.219889369917091
 30
0.0
 11
56.748950016024729
 21
37.219889369917126
 31
0.0
  0
INSERT
  5
28F5
  8
0
  2
M05-C
 10
37.105200016024753
 20
37.219889369917112
 30
0.0
  0
LINE
  5
28F6
  8
0
 10
29.959714065389051
 20
46.584889369917093
 30
0.0
 11
44.249714065389071
 21
46.584889369917093
 31
0.0
  0
LINE
  5
28F7
  8
0
 10
29.961450016024742
 20
37.219889369917169
 30
0.0
 11
33.295200016024808
 21
37.219889369917183
 31
0.0
  0
LINE
  5
28F8
  8
0
 10
40.915200016024812
 20
37.219889369917126
 30
0.0
 11
44.248950016024757
 21
37.219889369917112
 31
0.0
  0
LINE
  5
28F9
  8
0
 10
68.011950016024784
 20
30.07488938644256
 30
0.0
 11
68.773950016024784
 21
30.836889386442571
 31
0.0
  0
LINE
  5
28FA
  8
0
 10
60.589307439659422
 20
30.074889386442539
 30
0.0
 11
68.011950016024784
 21
30.07488938644256
 31
0.0
  0
LINE
  5
28FB
  8
0
 10
68.773950016024784
 20
45.314889386442509
 30
0.0
 11
68.773950016024713
 21
30.836889386442522
 31
0.0
  0
LINE
  5
28FC
  8
0
 10
68.77395001602477
 20
37.219889369917141
 30
0.0
 11
68.01195001602477
 21
37.219889369917141
 31
0.0
  0
LINE
  5
28FD
  8
0
 10
68.011950016024741
 20
30.07488938644256
 30
0.0
 11
68.011950016024755
 21
45.485407290706569
 31
0.0
  0
LINE
  5
28FE
  8
0
 10
60.589307439659393
 20
37.219889369917126
 30
0.0
 11
60.589307439659443
 21
30.074889386442539
 31
0.0
  0
LINE
  5
28FF
  8
0
 10
60.589307439659393
 20
37.219889369917112
 30
0.0
 11
68.01195001602477
 21
37.219889369917141
 31
0.0
  0
LINE
  5
2900
  8
0
 10
63.098651626776871
 20
46.58488936991715
 30
0.0
 11
60.589307439659343
 21
37.219889369917126
 31
0.0
  0
LINE
  5
2901
  8
0
 10
59.853746606938643
 20
39.47702097545222
 30
0.0
 11
60.769227752356642
 21
37.891361118216992
 31
0.0
  0
LINE
  5
2902
  8
0
 10
59.853746606938643
 20
39.47702097545222
 30
0.0
 11
59.919486644394759
 21
39.722366135329942
 31
0.0
  0
LINE
  5
2903
  8
0
 10
61.06520559650761
 20
40.383847280748007
 30
0.0
 11
59.919486644394759
 21
39.722366135329942
 31
0.0
  0
ARC
  5
2904
  8
0
 10
60.811205596507669
 20
40.82378818587047
 30
0.0
 40
0.5079999999999632
 50
299.99999999999631
 51
30.00000000000778
  0
LINE
  5
2905
  8
0
 10
60.58966535621213
 20
42.223507137983319
 30
0.0
 11
61.251146501630103
 21
41.077788185870503
 31
0.0
  0
LINE
  5
2906
  8
0
 10
60.58966535621213
 20
42.223507137983319
 30
0.0
 11
60.658371282613068
 21
42.479921146092629
 31
0.0
  0
LINE
  5
2907
  8
0
 10
60.658371282613068
 20
42.479921146092629
 30
0.0
 11
62.007170262157949
 21
43.258650600015613
 31
0.0
  0
ARC
  5
2908
  8
0
 10
61.753170262158022
 20
43.698591505138083
 30
0.0
 40
0.5079999999999344
 50
299.9999999999925
 51
30.00000000000734
  0
LINE
  5
2909
  8
0
 10
61.414381713357493
 20
45.301390484683012
 30
0.0
 11
62.193111167280421
 21
43.952591505138102
 31
0.0
  0
LINE
  5
290A
  8
0
 10
61.414381713357493
 20
45.301390484683012
 30
0.0
 11
61.480121750813538
 21
45.546735644560442
 31
0.0
  0
LINE
  5
290B
  8
0
 10
63.065781608048837
 20
46.46221678997842
 30
0.0
 11
61.480121750813538
 21
45.546735644560442
 31
0.0
  0
LINE
  5
290C
  8
0
 10
39.328871714370138
 20
40.313654742077432
 30
0.0
 11
34.881528317679539
 21
40.313654742077468
 31
0.0
  0
ARC
  5
290D
  8
0
 10
37.10520001602481
 20
37.219889369917141
 30
0.0
 40
3.8100000000000098
 50
305.70703132784888
 51
54.292968672151133
  0
ARC
  5
290E
  8
0
 10
37.10520001602481
 20
37.219889369917141
 30
0.0
 40
3.8100000000000098
 50
125.7070313278488
 51
234.29296867215109
  0
LINE
  5
290F
  8
3
 10
33.66079233239271
 20
46.388965098483339
 30
0.0
 11
32.469700016024802
 21
45.546735644560378
 31
0.0
  0
POLYLINE
  5
2910
  8
3
 66
     1
 10
0.0
 20
0.0
 30
0.0
 70
   128
  0
VERTEX
  5
2911
  8
3
 10
33.570989771181978
 20
43.952591505138038
 30
0.0
  0
VERTEX
  5
2912
  8
3
 10
33.604917369066129
 20
43.907601921643227
 30
0.0
  0
VERTEX
  5
2913
  8
3
 10
33.634950721727819
 20
43.860541975727322
 30
0.0
  0
VERTEX
  5
2914
  8
3
 10
33.66079233239271
 20
43.811877821877609
 30
0.0
  0
SEQEND
  5
2915
  8
3
  0
LINE
  5
2916
  8
3
 10
32.469700016024802
 20
45.546735644560378
 30
0.0
 11
32.215700016024783
 21
45.546735644560378
 31
0.0
  0
LINE
  5
2917
  8
3
 10
32.469700016024802
 20
45.301390484682948
 30
0.0
 11
32.469700016024802
 21
45.546735644560378
 31
0.0
  0
LINE
  5
2918
  8
3
 10
32.469700016024802
 20
45.301390484682948
 30
0.0
 11
32.215700016024783
 21
45.301390484682948
 31
0.0
  0
LINE
  5
2919
  8
3
 10
33.570989771181978
 20
43.952591505138038
 30
0.0
 11
31.114410260867551
 21
43.952591505138038
 31
0.0
  0
LINE
  5
291A
  8
3
 10
32.469700016024802
 20
45.301390484682948
 30
0.0
 11
33.570989771181978
 21
43.952591505138038
 31
0.0
  0
POLYLINE
  5
291B
  8
3
 66
     1
 10
0.0
 20
0.0
 30
0.0
 70
   128
  0
VERTEX
  5
291C
  8
3
 10
34.289410260867562
 20
43.952591505138038
 30
0.0
  0
VERTEX
  5
291D
  8
3
 10
34.255482662983439
 20
43.907601921643227
 30
0.0
  0
VERTEX
  5
291E
  8
3
 10
34.22544931032175
 20
43.860541975727322
 30
0.0
  0
VERTEX
  5
291F
  8
3
 10
34.199607699656873
 20
43.811877821877609
 30
0.0
  0
SEQEND
  5
2920
  8
3
  0
POLYLINE
  5
2921
  8
3
 66
     1
 10
0.0
 20
0.0
 30
0.0
 70
   128
  0
VERTEX
  5
2922
  8
3
 10
34.199607699656873
 20
43.352879056995363
 30
0.0
  0
VERTEX
  5
2923
  8
3
 10
34.163825051419373
 20
43.415153114159878
 30
0.0
  0
VERTEX
  5
2924
  8
3
 10
34.129995982736567
 20
43.506810912948787
 30
0.0
  0
VERTEX
  5
2925
  8
3
 10
34.124562224262242
 20
43.593032003655509
 30
0.0
  0
VERTEX
  5
2926
  8
3
 10
34.143847355271561
 20
43.680478076858279
 30
0.0
  0
VERTEX
  5
2927
  8
3
 10
34.199607699656873
 20
43.811877821877609
 30
0.0
  0
SEQEND
  5
2928
  8
3
  0
LINE
  5
2929
  8
3
 10
34.199607699656873
 20
43.811877821877609
 30
0.0
 11
34.199607699656873
 21
46.388965098483339
 31
0.0
  0
POLYLINE
  5
292A
  8
3
 66
     1
 10
0.0
 20
0.0
 30
0.0
 70
   128
  0
VERTEX
  5
292B
  8
3
 10
34.199607699656873
 20
46.388965098483339
 30
0.0
  0
VERTEX
  5
292C
  8
3
 10
34.142813391415928
 20
46.422023315291383
 30
0.0
  0
VERTEX
  5
292D
  8
3
 10
34.078093321185037
 20
46.44674777034021
 30
0.0
  0
VERTEX
  5
292E
  8
3
 10
34.007860111743298
 20
46.46221678997837
 30
0.0
  0
SEQEND
  5
292F
  8
3
  0
POLYLINE
  5
2930
  8
3
 66
     1
 10
0.0
 20
0.0
 30
0.0
 70
   128
  0
VERTEX
  5
2931
  8
3
 10
33.852539920306242
 20
46.46221678997837
 30
0.0
  0
VERTEX
  5
2932
  8
3
 10
33.782306710864532
 20
46.44674777034021
 30
0.0
  0
VERTEX
  5
2933
  8
3
 10
33.717586640633613
 20
46.422023315291383
 30
0.0
  0
VERTEX
  5
2934
  8
3
 10
33.66079233239271
 20
46.388965098483339
 30
0.0
  0
SEQEND
  5
2935
  8
3
  0
LINE
  5
2936
  8
3
 10
33.66079233239271
 20
43.811877821877609
 30
0.0
 11
33.66079233239271
 21
46.388965098483339
 31
0.0
  0
POLYLINE
  5
2937
  8
3
 66
     1
 10
0.0
 20
0.0
 30
0.0
 70
   128
  0
VERTEX
  5
2938
  8
3
 10
33.66079233239271
 20
43.811877821877609
 30
0.0
  0
VERTEX
  5
2939
  8
3
 10
33.716873224315179
 20
43.679507511160857
 30
0.0
  0
VERTEX
  5
293A
  8
3
 10
33.736483730216428
 20
43.584529544135712
 30
0.0
  0
VERTEX
  5
293B
  8
3
 10
33.72667498478728
 20
43.491643951652883
 30
0.0
  0
VERTEX
  5
293C
  8
3
 10
33.677786872136153
 20
43.380659005087352
 30
0.0
  0
VERTEX
  5
293D
  8
3
 10
33.66079233239271
 20
43.352879056995363
 30
0.0
  0
SEQEND
  5
293E
  8
3
  0
LINE
  5
293F
  8
3
 10
33.570989771181978
 20
43.258650600015557
 30
0.0
 11
31.114410260867551
 21
43.258650600015557
 31
0.0
  0
LINE
  5
2940
  8
3
 10
33.405175623128997
 20
41.077788185870439
 30
0.0
 11
31.28022440892056
 21
41.077788185870439
 31
0.0
  0
LINE
  5
2941
  8
3
 10
32.469700016024802
 20
42.479921146092579
 30
0.0
 11
32.215700016024783
 21
42.479921146092579
 31
0.0
  0
LINE
  5
2942
  8
3
 10
32.469700016024802
 20
42.223507137983262
 30
0.0
 11
32.215700016024783
 21
42.223507137983262
 31
0.0
  0
LINE
  5
2943
  8
3
 10
34.199607699657662
 20
39.684363612239068
 30
0.0
 11
34.199607699656873
 21
43.352879056995363
 31
0.0
  0
LINE
  5
2944
  8
3
 10
34.455224408920571
 20
40.38384728074795
 30
0.0
 11
34.723790786468527
 21
40.193942173985057
 31
0.0
  0
POLYLINE
  5
2945
  8
3
 66
     1
 10
0.0
 20
0.0
 30
0.0
 70
   128
  0
VERTEX
  5
2946
  8
3
 10
34.455224408920571
 20
40.38384728074795
 30
0.0
  0
VERTEX
  5
2947
  8
3
 10
34.392048090713622
 20
40.441853563671131
 30
0.0
  0
VERTEX
  5
2948
  8
3
 10
34.345103851247558
 20
40.514537379934019
 30
0.0
  0
VERTEX
  5
2949
  8
3
 10
34.316195731318487
 20
40.599105531239204
 30
0.0
  0
VERTEX
  5
294A
  8
3
 10
34.306434653763318
 20
40.692308110958372
 30
0.0
  0
VERTEX
  5
294B
  8
3
 10
34.316195731318487
 20
40.790563396221529
 30
0.0
  0
VERTEX
  5
294C
  8
3
 10
34.345103851247593
 20
40.890095491518238
 30
0.0
  0
VERTEX
  5
294D
  8
3
 10
34.392048090713622
 20
40.987079434244457
 30
0.0
  0
VERTEX
  5
294E
  8
3
 10
34.455224408920571
 20
41.077788185870439
 30
0.0
  0
SEQEND
  5
294F
  8
3
  0
POLYLINE
  5
2950
  8
3
 66
     1
 10
0.0
 20
0.0
 30
0.0
 70
   128
  0
VERTEX
  5
2951
  8
3
 10
34.199607699656873
 20
43.352879056995363
 30
0.0
  0
VERTEX
  5
2952
  8
3
 10
34.22544931032175
 20
43.317591505138047
 30
0.0
  0
VERTEX
  5
2953
  8
3
 10
34.255482662983439
 20
43.286077966536382
 30
0.0
  0
VERTEX
  5
2954
  8
3
 10
34.289410260867562
 20
43.258650600015557
 30
0.0
  0
SEQEND
  5
2955
  8
3
  0
LINE
  5
2956
  8
3
 10
43.28938586797176
 20
46.462216789978378
 30
0.0
 11
30.92101416407781
 21
46.46221678997837
 31
0.0
  0
LINE
  5
2957
  8
3
 10
33.405175623128997
 20
40.38384728074795
 30
0.0
 11
31.28022440892056
 21
40.38384728074795
 31
0.0
  0
LINE
  5
2958
  8
3
 10
31.28022440892056
 20
40.38384728074795
 30
0.0
 11
32.215700016024783
 21
39.722366135329878
 31
0.0
  0
POLYLINE
  5
2959
  8
3
 66
     1
 10
0.0
 20
0.0
 30
0.0
 70
   128
  0
VERTEX
  5
295A
  8
3
 10
31.28022440892056
 20
40.38384728074795
 30
0.0
  0
VERTEX
  5
295B
  8
3
 10
31.2170480907136
 20
40.441853563671131
 30
0.0
  0
VERTEX
  5
295C
  8
3
 10
31.170103851247571
 20
40.514537379934019
 30
0.0
  0
VERTEX
  5
295D
  8
3
 10
31.141195731318479
 20
40.599105531239204
 30
0.0
  0
VERTEX
  5
295E
  8
3
 10
31.131434653763339
 20
40.692308110958372
 30
0.0
  0
VERTEX
  5
295F
  8
3
 10
31.141195731318479
 20
40.790563396221529
 30
0.0
  0
VERTEX
  5
2960
  8
3
 10
31.170103851247571
 20
40.890095491518238
 30
0.0
  0
VERTEX
  5
2961
  8
3
 10
31.217048090713629
 20
40.987079434244457
 30
0.0
  0
VERTEX
  5
2962
  8
3
 10
31.28022440892056
 20
41.077788185870439
 30
0.0
  0
SEQEND
  5
2963
  8
3
  0
LINE
  5
2964
  8
3
 10
32.215700016024783
 20
42.223507137983262
 30
0.0
 11
31.28022440892056
 21
41.077788185870439
 31
0.0
  0
LINE
  5
2965
  8
3
 10
32.215700016024783
 20
42.223507137983262
 30
0.0
 11
32.215700016024783
 21
42.479921146092579
 31
0.0
  0
LINE
  5
2966
  8
3
 10
32.215700016024783
 20
42.479921146092579
 30
0.0
 11
31.114410260867551
 21
43.258650600015557
 31
0.0
  0
POLYLINE
  5
2967
  8
3
 66
     1
 10
0.0
 20
0.0
 30
0.0
 70
   128
  0
VERTEX
  5
2968
  8
3
 10
31.114410260867551
 20
43.952591505138038
 30
0.0
  0
VERTEX
  5
2969
  8
3
 10
31.051233942660641
 20
43.861882753512063
 30
0.0
  0
VERTEX
  5
296A
  8
3
 10
31.004289703194591
 20
43.764898810785823
 30
0.0
  0
VERTEX
  5
296B
  8
3
 10
30.97538158326546
 20
43.665366715489142
 30
0.0
  0
VERTEX
  5
296C
  8
3
 10
30.965620505710319
 20
43.567111430225957
 30
0.0
  0
VERTEX
  5
296D
  8
3
 10
30.97538158326546
 20
43.473908850506803
 30
0.0
  0
VERTEX
  5
296E
  8
3
 10
31.004289703194591
 20
43.389340699201611
 30
0.0
  0
VERTEX
  5
296F
  8
3
 10
31.051233942660641
 20
43.31665688293873
 30
0.0
  0
VERTEX
  5
2970
  8
3
 10
31.114410260867551
 20
43.258650600015557
 30
0.0
  0
SEQEND
  5
2971
  8
3
  0
LINE
  5
2972
  8
3
 10
32.215700016024783
 20
45.301390484682948
 30
0.0
 11
31.114410260867551
 21
43.952591505138038
 31
0.0
  0
LINE
  5
2973
  8
3
 10
32.215700016024783
 20
45.301390484682948
 30
0.0
 11
32.215700016024783
 21
45.546735644560378
 31
0.0
  0
LINE
  5
2974
  8
3
 10
30.92101416407781
 20
46.46221678997837
 30
0.0
 11
32.215700016024783
 21
45.546735644560378
 31
0.0
  0
LINE
  5
2975
  8
3
 10
30.92101416407781
 20
37.891361118216878
 30
0.0
 11
30.92101416407781
 21
46.46221678997837
 31
0.0
  0
LINE
  5
2976
  8
3
 10
33.354836608135457
 20
37.891361118216849
 30
0.0
 11
30.92101416407781
 21
37.891361118216878
 31
0.0
  0
LINE
  5
2977
  8
3
 10
32.215700016024783
 20
39.477020975452163
 30
0.0
 11
30.92101416407781
 21
37.891361118216878
 31
0.0
  0
LINE
  5
2978
  8
3
 10
33.66079233239271
 20
38.848433415663592
 30
0.0
 11
33.66079233239271
 21
43.352879056995363
 31
0.0
  0
POLYLINE
  5
2979
  8
3
 66
     1
 10
0.0
 20
0.0
 30
0.0
 70
   128
  0
VERTEX
  5
297A
  8
3
 10
33.66079233239271
 20
43.352879056995363
 30
0.0
  0
VERTEX
  5
297B
  8
3
 10
33.634950721727819
 20
43.317591505138047
 30
0.0
  0
VERTEX
  5
297C
  8
3
 10
33.604917369066129
 20
43.286077966536382
 30
0.0
  0
VERTEX
  5
297D
  8
3
 10
33.570989771181978
 20
43.258650600015557
 30
0.0
  0
SEQEND
  5
297E
  8
3
  0
LINE
  5
297F
  8
3
 10
32.469700016024802
 20
42.479921146092579
 30
0.0
 11
33.570989771181978
 21
43.258650600015557
 31
0.0
  0
LINE
  5
2980
  8
3
 10
32.469700016024802
 20
42.223507137983262
 30
0.0
 11
32.469700016024802
 21
42.479921146092579
 31
0.0
  0
LINE
  5
2981
  8
3
 10
32.469700016024802
 20
42.223507137983262
 30
0.0
 11
33.405175623128997
 21
41.077788185870439
 31
0.0
  0
POLYLINE
  5
2982
  8
3
 66
     1
 10
0.0
 20
0.0
 30
0.0
 70
   128
  0
VERTEX
  5
2983
  8
3
 10
33.405175623128997
 20
40.38384728074795
 30
0.0
  0
VERTEX
  5
2984
  8
3
 10
33.468351941335932
 20
40.441853563671131
 30
0.0
  0
VERTEX
  5
2985
  8
3
 10
33.515296180801961
 20
40.514537379934019
 30
0.0
  0
VERTEX
  5
2986
  8
3
 10
33.544204300731082
 20
40.599105531239204
 30
0.0
  0
VERTEX
  5
2987
  8
3
 10
33.55396537828625
 20
40.692308110958372
 30
0.0
  0
VERTEX
  5
2988
  8
3
 10
33.544204300731082
 20
40.790563396221543
 30
0.0
  0
VERTEX
  5
2989
  8
3
 10
33.515296180801961
 20
40.890095491518238
 30
0.0
  0
VERTEX
  5
298A
  8
3
 10
33.468351941335932
 20
40.987079434244457
 30
0.0
  0
VERTEX
  5
298B
  8
3
 10
33.405175623128969
 20
41.077788185870439
 30
0.0
  0
SEQEND
  5
298C
  8
3
  0
LINE
  5
298D
  8
3
 10
33.405175623128997
 20
40.38384728074795
 30
0.0
 11
32.469700016024802
 21
39.722366135329878
 31
0.0
  0
LINE
  5
298E
  8
3
 10
32.469700016024802
 20
39.477020975452163
 30
0.0
 11
33.446024475437241
 21
38.281272600972628
 31
0.0
  0
LINE
  5
298F
  8
3
 10
32.469700016024802
 20
39.722366135329878
 30
0.0
 11
32.215700016024783
 21
39.722366135329878
 31
0.0
  0
LINE
  5
2990
  8
3
 10
32.215700016024783
 20
39.477020975452163
 30
0.0
 11
32.215700016024783
 21
39.722366135329878
 31
0.0
  0
LINE
  5
2991
  8
3
 10
32.469700016024802
 20
39.477020975452163
 30
0.0
 11
32.215700016024783
 21
39.477020975452163
 31
0.0
  0
LINE
  5
2992
  8
3
 10
32.469700016024802
 20
39.477020975452163
 30
0.0
 11
32.469700016024802
 21
39.722366135329878
 31
0.0
  0
LINE
  5
2993
  8
3
 10
41.994700016024773
 20
45.546735644560378
 30
0.0
 11
41.740700016024753
 21
45.546735644560378
 31
0.0
  0
POLYLINE
  5
2994
  8
3
 66
     1
 10
0.0
 20
0.0
 30
0.0
 70
   128
  0
VERTEX
  5
2995
  8
3
 10
40.639410260867542
 20
43.952591505138038
 30
0.0
  0
VERTEX
  5
2996
  8
3
 10
40.605482662983427
 20
43.907601921643227
 30
0.0
  0
VERTEX
  5
2997
  8
3
 10
40.575449310321737
 20
43.860541975727322
 30
0.0
  0
VERTEX
  5
2998
  8
3
 10
40.54960769965686
 20
43.811877821877609
 30
0.0
  0
SEQEND
  5
2999
  8
3
  0
LINE
  5
299A
  8
3
 10
41.740700016024753
 20
45.301390484682948
 30
0.0
 11
41.740700016024753
 21
45.546735644560378
 31
0.0
  0
LINE
  5
299B
  8
3
 10
40.54960769965686
 20
46.388965098483339
 30
0.0
 11
41.740700016024753
 21
45.546735644560378
 31
0.0
  0
LINE
  5
299C
  8
3
 10
41.994700016024773
 20
45.301390484682948
 30
0.0
 11
41.740700016024753
 21
45.301390484682948
 31
0.0
  0
LINE
  5
299D
  8
3
 10
41.740700016024753
 20
45.301390484682948
 30
0.0
 11
40.639410260867542
 21
43.952591505138038
 31
0.0
  0
LINE
  5
299E
  8
3
 10
43.095989771182012
 20
43.952591505138038
 30
0.0
 11
40.639410260867542
 21
43.952591505138038
 31
0.0
  0
LINE
  5
299F
  8
3
 10
35.644700016024792
 20
45.546735644560378
 30
0.0
 11
35.390700016024773
 21
45.546735644560378
 31
0.0
  0
LINE
  5
29A0
  8
3
 10
39.920989771182008
 20
43.952591505138038
 30
0.0
 11
37.464410260867567
 21
43.952591505138038
 31
0.0
  0
LINE
  5
29A1
  8
3
 10
35.644700016024792
 20
45.301390484682948
 30
0.0
 11
35.390700016024773
 21
45.301390484682948
 31
0.0
  0
LINE
  5
29A2
  8
3
 10
36.745989771182003
 20
43.952591505138038
 30
0.0
 11
34.289410260867562
 21
43.952591505138038
 31
0.0
  0
LINE
  5
29A3
  8
3
 10
38.819700016024768
 20
45.546735644560378
 30
0.0
 11
38.565700016024778
 21
45.546735644560378
 31
0.0
  0
LINE
  5
29A4
  8
3
 10
38.819700016024768
 20
45.301390484682948
 30
0.0
 11
38.565700016024778
 21
45.301390484682948
 31
0.0
  0
LINE
  5
29A5
  8
3
 10
40.01079233239269
 20
46.388965098483339
 30
0.0
 11
38.819700016024768
 21
45.546735644560378
 31
0.0
  0
LINE
  5
29A6
  8
3
 10
38.819700016024768
 20
45.301390484682948
 30
0.0
 11
38.819700016024768
 21
45.546735644560378
 31
0.0
  0
LINE
  5
29A7
  8
3
 10
38.819700016024768
 20
45.301390484682948
 30
0.0
 11
39.920989771182008
 21
43.952591505138038
 31
0.0
  0
POLYLINE
  5
29A8
  8
3
 66
     1
 10
0.0
 20
0.0
 30
0.0
 70
   128
  0
VERTEX
  5
29A9
  8
3
 10
39.920989771182008
 20
43.952591505138038
 30
0.0
  0
VERTEX
  5
29AA
  8
3
 10
39.954917369066152
 20
43.907601921643227
 30
0.0
  0
VERTEX
  5
29AB
  8
3
 10
39.98495072172782
 20
43.860541975727322
 30
0.0
  0
VERTEX
  5
29AC
  8
3
 10
40.01079233239269
 20
43.811877821877609
 30
0.0
  0
SEQEND
  5
29AD
  8
3
  0
LINE
  5
29AE
  8
3
 10
36.835792332392707
 20
46.388965098483339
 30
0.0
 11
35.644700016024792
 21
45.546735644560378
 31
0.0
  0
LINE
  5
29AF
  8
3
 10
35.644700016024792
 20
45.301390484682948
 30
0.0
 11
35.644700016024792
 21
45.546735644560378
 31
0.0
  0
LINE
  5
29B0
  8
3
 10
35.644700016024792
 20
45.301390484682948
 30
0.0
 11
36.745989771182003
 21
43.952591505138038
 31
0.0
  0
POLYLINE
  5
29B1
  8
3
 66
     1
 10
0.0
 20
0.0
 30
0.0
 70
   128
  0
VERTEX
  5
29B2
  8
3
 10
36.745989771182003
 20
43.952591505138038
 30
0.0
  0
VERTEX
  5
29B3
  8
3
 10
36.779917369066112
 20
43.907601921643227
 30
0.0
  0
VERTEX
  5
29B4
  8
3
 10
36.80995072172783
 20
43.86054197572728
 30
0.0
  0
VERTEX
  5
29B5
  8
3
 10
36.835792332392707
 20
43.811877821877609
 30
0.0
  0
SEQEND
  5
29B6
  8
3
  0
POLYLINE
  5
29B7
  8
3
 66
     1
 10
0.0
 20
0.0
 30
0.0
 70
   128
  0
VERTEX
  5
29B8
  8
3
 10
37.464410260867567
 20
43.952591505138038
 30
0.0
  0
VERTEX
  5
29B9
  8
3
 10
37.430482662983451
 20
43.907601921643227
 30
0.0
  0
VERTEX
  5
29BA
  8
3
 10
37.400449310321733
 20
43.86054197572728
 30
0.0
  0
VERTEX
  5
29BB
  8
3
 10
37.374607699656849
 20
43.811877821877609
 30
0.0
  0
SEQEND
  5
29BC
  8
3
  0
LINE
  5
29BD
  8
3
 10
38.565700016024778
 20
45.301390484682948
 30
0.0
 11
37.464410260867567
 21
43.952591505138038
 31
0.0
  0
LINE
  5
29BE
  8
3
 10
38.565700016024778
 20
45.301390484682948
 30
0.0
 11
38.565700016024778
 21
45.546735644560378
 31
0.0
  0
LINE
  5
29BF
  8
3
 10
37.374607699656849
 20
46.388965098483339
 30
0.0
 11
38.565700016024778
 21
45.546735644560378
 31
0.0
  0
LINE
  5
29C0
  8
3
 10
35.390700016024773
 20
45.301390484682948
 30
0.0
 11
34.289410260867562
 21
43.952591505138038
 31
0.0
  0
LINE
  5
29C1
  8
3
 10
35.390700016024773
 20
45.301390484682948
 30
0.0
 11
35.390700016024773
 21
45.546735644560378
 31
0.0
  0
LINE
  5
29C2
  8
3
 10
34.199607699656873
 20
46.388965098483339
 30
0.0
 11
35.390700016024773
 21
45.546735644560378
 31
0.0
  0
POLYLINE
  5
29C3
  8
3
 66
     1
 10
0.0
 20
0.0
 30
0.0
 70
   128
  0
VERTEX
  5
29C4
  8
3
 10
37.374607699656849
 20
43.352879056995363
 30
0.0
  0
VERTEX
  5
29C5
  8
3
 10
37.338825051419377
 20
43.415153114159892
 30
0.0
  0
VERTEX
  5
29C6
  8
3
 10
37.304995982736557
 20
43.506810912948787
 30
0.0
  0
VERTEX
  5
29C7
  8
3
 10
37.299562224262253
 20
43.593032003655509
 30
0.0
  0
VERTEX
  5
29C8
  8
3
 10
37.318847355271551
 20
43.680478076858279
 30
0.0
  0
VERTEX
  5
29C9
  8
3
 10
37.374607699656849
 20
43.811877821877609
 30
0.0
  0
SEQEND
  5
29CA
  8
3
  0
LINE
  5
29CB
  8
3
 10
37.374607699656849
 20
43.811877821877609
 30
0.0
 11
37.374607699656849
 21
46.388965098483339
 31
0.0
  0
POLYLINE
  5
29CC
  8
3
 66
     1
 10
0.0
 20
0.0
 30
0.0
 70
   128
  0
VERTEX
  5
29CD
  8
3
 10
37.374607699656849
 20
46.388965098483339
 30
0.0
  0
VERTEX
  5
29CE
  8
3
 10
37.317813391415939
 20
46.422023315291383
 30
0.0
  0
VERTEX
  5
29CF
  8
3
 10
37.253093321185048
 20
46.44674777034021
 30
0.0
  0
VERTEX
  5
29D0
  8
3
 10
37.182860111743338
 20
46.46221678997837
 30
0.0
  0
SEQEND
  5
29D1
  8
3
  0
POLYLINE
  5
29D2
  8
3
 66
     1
 10
0.0
 20
0.0
 30
0.0
 70
   128
  0
VERTEX
  5
29D3
  8
3
 10
37.027539920306218
 20
46.46221678997837
 30
0.0
  0
VERTEX
  5
29D4
  8
3
 10
36.957306710864508
 20
46.44674777034021
 30
0.0
  0
VERTEX
  5
29D5
  8
3
 10
36.892586640633603
 20
46.422023315291383
 30
0.0
  0
VERTEX
  5
29D6
  8
3
 10
36.835792332392707
 20
46.388965098483339
 30
0.0
  0
SEQEND
  5
29D7
  8
3
  0
LINE
  5
29D8
  8
3
 10
36.835792332392707
 20
43.811877821877609
 30
0.0
 11
36.835792332392707
 21
46.388965098483339
 31
0.0
  0
POLYLINE
  5
29D9
  8
3
 66
     1
 10
0.0
 20
0.0
 30
0.0
 70
   128
  0
VERTEX
  5
29DA
  8
3
 10
36.835792332392707
 20
43.811877821877609
 30
0.0
  0
VERTEX
  5
29DB
  8
3
 10
36.891873224315219
 20
43.679507511160821
 30
0.0
  0
VERTEX
  5
29DC
  8
3
 10
36.911483730216453
 20
43.584529544135663
 30
0.0
  0
VERTEX
  5
29DD
  8
3
 10
36.901674984787263
 20
43.491643951652833
 30
0.0
  0
VERTEX
  5
29DE
  8
3
 10
36.852786872136143
 20
43.380659005087303
 30
0.0
  0
VERTEX
  5
29DF
  8
3
 10
36.835792332392707
 20
43.352879056995363
 30
0.0
  0
SEQEND
  5
29E0
  8
3
  0
POLYLINE
  5
29E1
  8
3
 66
     1
 10
0.0
 20
0.0
 30
0.0
 70
   128
  0
VERTEX
  5
29E2
  8
3
 10
40.54960769965686
 20
43.352879056995363
 30
0.0
  0
VERTEX
  5
29E3
  8
3
 10
40.489316780451922
 20
43.473216744229809
 30
0.0
  0
VERTEX
  5
29E4
  8
3
 10
40.473449309137941
 20
43.560823872700347
 30
0.0
  0
VERTEX
  5
29E5
  8
3
 10
40.485867183365571
 20
43.654064350694419
 30
0.0
  0
VERTEX
  5
29E6
  8
3
 10
40.538995848442681
 20
43.789542076301309
 30
0.0
  0
VERTEX
  5
29E7
  8
3
 10
40.549607699656882
 20
43.811877821877609
 30
0.0
  0
SEQEND
  5
29E8
  8
3
  0
LINE
  5
29E9
  8
3
 10
40.54960769965686
 20
43.811877821877609
 30
0.0
 11
40.54960769965686
 21
46.388965098483339
 31
0.0
  0
POLYLINE
  5
29EA
  8
3
 66
     1
 10
0.0
 20
0.0
 30
0.0
 70
   128
  0
VERTEX
  5
29EB
  8
3
 10
40.54960769965686
 20
46.388965098483339
 30
0.0
  0
VERTEX
  5
29EC
  8
3
 10
40.49281339141595
 20
46.422023315291383
 30
0.0
  0
VERTEX
  5
29ED
  8
3
 10
40.428093321185059
 20
46.44674777034021
 30
0.0
  0
VERTEX
  5
29EE
  8
3
 10
40.357860111743321
 20
46.46221678997837
 30
0.0
  0
SEQEND
  5
29EF
  8
3
  0
POLYLINE
  5
29F0
  8
3
 66
     1
 10
0.0
 20
0.0
 30
0.0
 70
   128
  0
VERTEX
  5
29F1
  8
3
 10
40.202539920306243
 20
46.46221678997837
 30
0.0
  0
VERTEX
  5
29F2
  8
3
 10
40.132306710864533
 20
46.44674777034021
 30
0.0
  0
VERTEX
  5
29F3
  8
3
 10
40.067586640633628
 20
46.422023315291383
 30
0.0
  0
VERTEX
  5
29F4
  8
3
 10
40.01079233239269
 20
46.388965098483339
 30
0.0
  0
SEQEND
  5
29F5
  8
3
  0
LINE
  5
29F6
  8
3
 10
40.01079233239269
 20
43.811877821877609
 30
0.0
 11
40.01079233239269
 21
46.388965098483339
 31
0.0
  0
POLYLINE
  5
29F7
  8
3
 66
     1
 10
0.0
 20
0.0
 30
0.0
 70
   128
  0
VERTEX
  5
29F8
  8
3
 10
40.01079233239269
 20
43.811877821877609
 30
0.0
  0
VERTEX
  5
29F9
  8
3
 10
40.071083251597621
 20
43.666137078635103
 30
0.0
  0
VERTEX
  5
29FA
  8
3
 10
40.086950722911631
 20
43.57342065091251
 30
0.0
  0
VERTEX
  5
29FB
  8
3
 10
40.074532848683987
 20
43.484130755547049
 30
0.0
  0
VERTEX
  5
29FC
  8
3
 10
40.021404183606897
 20
43.369930024861738
 30
0.0
  0
VERTEX
  5
29FD
  8
3
 10
40.01079233239269
 20
43.352879056995363
 30
0.0
  0
SEQEND
  5
29FE
  8
3
  0
LINE
  5
29FF
  8
3
 10
43.095989771182012
 20
43.258650600015557
 30
0.0
 11
40.639410260867542
 21
43.258650600015557
 31
0.0
  0
LINE
  5
2A00
  8
3
 10
36.745989771182003
 20
43.258650600015557
 30
0.0
 11
34.289410260867562
 21
43.258650600015557
 31
0.0
  0
LINE
  5
2A01
  8
3
 10
39.920989771182008
 20
43.258650600015557
 30
0.0
 11
37.464410260867567
 21
43.258650600015557
 31
0.0
  0
LINE
  5
2A02
  8
3
 10
42.930175623128967
 20
41.077788185870439
 30
0.0
 11
40.805224408920587
 21
41.077788185870439
 31
0.0
  0
LINE
  5
2A03
  8
3
 10
41.994700016024773
 20
42.479921146092579
 30
0.0
 11
41.740700016024753
 21
42.479921146092579
 31
0.0
  0
LINE
  5
2A04
  8
3
 10
41.994700016024773
 20
42.223507137983262
 30
0.0
 11
41.740700016024753
 21
42.223507137983262
 31
0.0
  0
LINE
  5
2A05
  8
3
 10
38.565700016024778
 20
42.479921146092579
 30
0.0
 11
37.464410260867567
 21
43.258650600015557
 31
0.0
  0
POLYLINE
  5
2A06
  8
3
 66
     1
 10
0.0
 20
0.0
 30
0.0
 70
   128
  0
VERTEX
  5
2A07
  8
3
 10
37.374607699656849
 20
43.352879056995363
 30
0.0
  0
VERTEX
  5
2A08
  8
3
 10
37.400449310321733
 20
43.317591505138047
 30
0.0
  0
VERTEX
  5
2A09
  8
3
 10
37.430482662983451
 20
43.286077966536382
 30
0.0
  0
VERTEX
  5
2A0A
  8
3
 10
37.464410260867567
 20
43.258650600015557
 30
0.0
  0
SEQEND
  5
2A0B
  8
3
  0
POLYLINE
  5
2A0C
  8
3
 66
     1
 10
0.0
 20
0.0
 30
0.0
 70
   128
  0
VERTEX
  5
2A0D
  8
3
 10
40.01079233239269
 20
43.352879056995363
 30
0.0
  0
VERTEX
  5
2A0E
  8
3
 10
39.98495072172782
 20
43.317591505138047
 30
0.0
  0
VERTEX
  5
2A0F
  8
3
 10
39.954917369066152
 20
43.286077966536382
 30
0.0
  0
VERTEX
  5
2A10
  8
3
 10
39.920989771182008
 20
43.258650600015557
 30
0.0
  0
SEQEND
  5
2A11
  8
3
  0
LINE
  5
2A12
  8
3
 10
38.819700016024768
 20
42.479921146092579
 30
0.0
 11
39.920989771182008
 21
43.258650600015557
 31
0.0
  0
LINE
  5
2A13
  8
3
 10
38.565700016024778
 20
42.223507137983262
 30
0.0
 11
37.630224408920562
 21
41.077788185870439
 31
0.0
  0
LINE
  5
2A14
  8
3
 10
39.755175623128991
 20
41.077788185870439
 30
0.0
 11
37.630224408920562
 21
41.077788185870439
 31
0.0
  0
LINE
  5
2A15
  8
3
 10
38.819700016024768
 20
42.223507137983262
 30
0.0
 11
39.755175623128991
 21
41.077788185870439
 31
0.0
  0
LINE
  5
2A16
  8
3
 10
35.390700016024773
 20
42.479921146092579
 30
0.0
 11
34.289410260867562
 21
43.258650600015557
 31
0.0
  0
LINE
  5
2A17
  8
3
 10
38.819700016024768
 20
42.479921146092579
 30
0.0
 11
38.565700016024778
 21
42.479921146092579
 31
0.0
  0
LINE
  5
2A18
  8
3
 10
38.565700016024778
 20
42.223507137983262
 30
0.0
 11
38.565700016024778
 21
42.479921146092579
 31
0.0
  0
LINE
  5
2A19
  8
3
 10
38.819700016024768
 20
42.223507137983262
 30
0.0
 11
38.565700016024778
 21
42.223507137983262
 31
0.0
  0
LINE
  5
2A1A
  8
3
 10
38.819700016024768
 20
42.223507137983262
 30
0.0
 11
38.819700016024768
 21
42.479921146092579
 31
0.0
  0
LINE
  5
2A1B
  8
3
 10
35.390700016024773
 20
42.223507137983262
 30
0.0
 11
34.455224408920571
 21
41.077788185870439
 31
0.0
  0
LINE
  5
2A1C
  8
3
 10
36.580175623129008
 20
41.077788185870439
 30
0.0
 11
34.455224408920571
 21
41.077788185870439
 31
0.0
  0
POLYLINE
  5
2A1D
  8
3
 66
     1
 10
0.0
 20
0.0
 30
0.0
 70
   128
  0
VERTEX
  5
2A1E
  8
3
 10
36.835792332392707
 20
43.352879056995363
 30
0.0
  0
VERTEX
  5
2A1F
  8
3
 10
36.80995072172783
 20
43.317591505138047
 30
0.0
  0
VERTEX
  5
2A20
  8
3
 10
36.779917369066112
 20
43.286077966536382
 30
0.0
  0
VERTEX
  5
2A21
  8
3
 10
36.745989771182003
 20
43.258650600015557
 30
0.0
  0
SEQEND
  5
2A22
  8
3
  0
LINE
  5
2A23
  8
3
 10
35.644700016024792
 20
42.479921146092579
 30
0.0
 11
36.745989771182003
 21
43.258650600015557
 31
0.0
  0
LINE
  5
2A24
  8
3
 10
35.644700016024792
 20
42.223507137983262
 30
0.0
 11
36.580175623129008
 21
41.077788185870439
 31
0.0
  0
LINE
  5
2A25
  8
3
 10
35.644700016024792
 20
42.479921146092579
 30
0.0
 11
35.390700016024773
 21
42.479921146092579
 31
0.0
  0
LINE
  5
2A26
  8
3
 10
35.390700016024773
 20
42.223507137983262
 30
0.0
 11
35.390700016024773
 21
42.479921146092579
 31
0.0
  0
LINE
  5
2A27
  8
3
 10
35.644700016024792
 20
42.223507137983262
 30
0.0
 11
35.390700016024773
 21
42.223507137983262
 31
0.0
  0
LINE
  5
2A28
  8
3
 10
35.644700016024792
 20
42.223507137983262
 30
0.0
 11
35.644700016024792
 21
42.479921146092579
 31
0.0
  0
LINE
  5
2A29
  8
3
 10
43.289385867971781
 20
46.46221678997837
 30
0.0
 11
41.994700016024773
 21
45.546735644560378
 31
0.0
  0
LINE
  5
2A2A
  8
3
 10
41.994700016024773
 20
45.301390484682948
 30
0.0
 11
41.994700016024773
 21
45.546735644560378
 31
0.0
  0
LINE
  5
2A2B
  8
3
 10
41.994700016024773
 20
45.301390484682948
 30
0.0
 11
43.095989771182012
 21
43.952591505138038
 31
0.0
  0
POLYLINE
  5
2A2C
  8
3
 66
     1
 10
0.0
 20
0.0
 30
0.0
 70
   128
  0
VERTEX
  5
2A2D
  8
3
 10
43.095989771182012
 20
43.952591505138038
 30
0.0
  0
VERTEX
  5
2A2E
  8
3
 10
43.152908764838017
 20
43.872337737947468
 30
0.0
  0
VERTEX
  5
2A2F
  8
3
 10
43.197183882153858
 20
43.786804779392853
 30
0.0
  0
VERTEX
  5
2A30
  8
3
 10
43.227469846094088
 20
43.69859150513804
 30
0.0
  0
VERTEX
  5
2A31
  8
3
 10
43.242846432969849
 20
43.610378230883242
 30
0.0
  0
VERTEX
  5
2A32
  8
3
 10
43.242846432969849
 20
43.524845272328598
 30
0.0
  0
VERTEX
  5
2A33
  8
3
 10
43.227469846094088
 20
43.44459150513805
 30
0.0
  0
VERTEX
  5
2A34
  8
3
 10
43.197183882153858
 20
43.372055399417292
 30
0.0
  0
VERTEX
  5
2A35
  8
3
 10
43.152908764838017
 20
43.309440928033609
 30
0.0
  0
VERTEX
  5
2A36
  8
3
 10
43.095989771181991
 20
43.258650600015557
 30
0.0
  0
SEQEND
  5
2A37
  8
3
  0
LINE
  5
2A38
  8
3
 10
41.994700016024773
 20
42.479921146092579
 30
0.0
 11
43.095989771182012
 21
43.258650600015557
 31
0.0
  0
LINE
  5
2A39
  8
3
 10
41.994700016024773
 20
42.223507137983262
 30
0.0
 11
41.994700016024773
 21
42.479921146092579
 31
0.0
  0
LINE
  5
2A3A
  8
3
 10
41.994700016024773
 20
42.223507137983262
 30
0.0
 11
42.930175623128967
 21
41.077788185870439
 31
0.0
  0
LINE
  5
2A3B
  8
3
 10
41.740700016024753
 20
42.223507137983262
 30
0.0
 11
40.805224408920587
 21
41.077788185870439
 31
0.0
  0
LINE
  5
2A3C
  8
3
 10
41.740700016024753
 20
42.223507137983262
 30
0.0
 11
41.740700016024753
 21
42.479921146092579
 31
0.0
  0
LINE
  5
2A3D
  8
3
 10
41.740700016024753
 20
42.479921146092579
 30
0.0
 11
40.639410260867542
 21
43.258650600015557
 31
0.0
  0
POLYLINE
  5
2A3E
  8
3
 66
     1
 10
0.0
 20
0.0
 30
0.0
 70
   128
  0
VERTEX
  5
2A3F
  8
3
 10
40.54960769965686
 20
43.352879056995363
 30
0.0
  0
VERTEX
  5
2A40
  8
3
 10
40.575449310321737
 20
43.317591505138047
 30
0.0
  0
VERTEX
  5
2A41
  8
3
 10
40.605482662983427
 20
43.286077966536382
 30
0.0
  0
VERTEX
  5
2A42
  8
3
 10
40.639410260867542
 20
43.258650600015557
 30
0.0
  0
SEQEND
  5
2A43
  8
3
  0
LINE
  5
2A44
  8
3
 10
42.930175623129031
 20
40.38384728074795
 30
0.0
 11
40.80522440892053
 21
40.38384728074795
 31
0.0
  0
LINE
  5
2A45
  8
3
 10
43.289385867971781
 20
37.891361118216942
 30
0.0
 11
40.855563423914163
 21
37.891361118216871
 31
0.0
  0
POLYLINE
  5
2A46
  8
3
 66
     1
 10
0.0
 20
0.0
 30
0.0
 70
   128
  0
VERTEX
  5
2A47
  8
3
 10
42.930175623129031
 20
40.38384728074795
 30
0.0
  0
VERTEX
  5
2A48
  8
3
 10
42.993351941335959
 20
40.441853563671131
 30
0.0
  0
VERTEX
  5
2A49
  8
3
 10
43.040296180801953
 20
40.514537379934019
 30
0.0
  0
VERTEX
  5
2A4A
  8
3
 10
43.06920430073108
 20
40.599105531239204
 30
0.0
  0
VERTEX
  5
2A4B
  8
3
 10
43.07896537828622
 20
40.692308110958372
 30
0.0
  0
VERTEX
  5
2A4C
  8
3
 10
43.06920430073108
 20
40.790563396221543
 30
0.0
  0
VERTEX
  5
2A4D
  8
3
 10
43.040296180801953
 20
40.890095491518238
 30
0.0
  0
VERTEX
  5
2A4E
  8
3
 10
42.993351941335902
 20
40.987079434244457
 30
0.0
  0
VERTEX
  5
2A4F
  8
3
 10
42.930175623128967
 20
41.077788185870439
 30
0.0
  0
SEQEND
  5
2A50
  8
3
  0
LINE
  5
2A51
  8
3
 10
42.930175623129031
 20
40.38384728074795
 30
0.0
 11
41.994700016024773
 21
39.722366135329878
 31
0.0
  0
LINE
  5
2A52
  8
3
 10
41.994700016024773
 20
39.477020975452163
 30
0.0
 11
43.289385867971781
 21
37.891361118216942
 31
0.0
  0
LINE
  5
2A53
  8
3
 10
43.289385867971781
 20
37.891361118216942
 30
0.0
 11
43.289385867971781
 21
46.46221678997837
 31
0.0
  0
LINE
  5
2A54
  8
3
 10
41.994700016024773
 20
39.722366135329878
 30
0.0
 11
41.740700016024753
 21
39.722366135329878
 31
0.0
  0
LINE
  5
2A55
  8
3
 10
41.994700016024773
 20
39.477020975452163
 30
0.0
 11
41.740700016024753
 21
39.477020975452163
 31
0.0
  0
LINE
  5
2A56
  8
3
 10
41.994700016024773
 20
39.477020975452163
 30
0.0
 11
41.994700016024773
 21
39.722366135329878
 31
0.0
  0
LINE
  5
2A57
  8
3
 10
40.54960769965686
 20
38.848433415663692
 30
0.0
 11
40.54960769965686
 21
43.352879056995363
 31
0.0
  0
LINE
  5
2A58
  8
3
 10
41.740700016024753
 20
39.477020975452163
 30
0.0
 11
40.76437555661235
 21
38.281272600972727
 31
0.0
  0
LINE
  5
2A59
  8
3
 10
41.740700016024753
 20
39.477020975452163
 30
0.0
 11
41.740700016024753
 21
39.722366135329878
 31
0.0
  0
LINE
  5
2A5A
  8
3
 10
40.80522440892053
 20
40.38384728074795
 30
0.0
 11
41.740700016024753
 21
39.722366135329878
 31
0.0
  0
POLYLINE
  5
2A5B
  8
3
 66
     1
 10
0.0
 20
0.0
 30
0.0
 70
   128
  0
VERTEX
  5
2A5C
  8
3
 10
40.80522440892053
 20
40.38384728074795
 30
0.0
  0
VERTEX
  5
2A5D
  8
3
 10
40.742048090713602
 20
40.441853563671131
 30
0.0
  0
VERTEX
  5
2A5E
  8
3
 10
40.69510385124758
 20
40.514537379934019
 30
0.0
  0
VERTEX
  5
2A5F
  8
3
 10
40.666195731318467
 20
40.599105531239204
 30
0.0
  0
VERTEX
  5
2A60
  8
3
 10
40.656434653763341
 20
40.692308110958372
 30
0.0
  0
VERTEX
  5
2A61
  8
3
 10
40.666195731318467
 20
40.790563396221529
 30
0.0
  0
VERTEX
  5
2A62
  8
3
 10
40.69510385124758
 20
40.890095491518238
 30
0.0
  0
VERTEX
  5
2A63
  8
3
 10
40.742048090713631
 20
40.987079434244457
 30
0.0
  0
VERTEX
  5
2A64
  8
3
 10
40.805224408920587
 20
41.077788185870439
 30
0.0
  0
SEQEND
  5
2A65
  8
3
  0
LINE
  5
2A66
  8
3
 10
40.010792332391532
 20
39.684363612239579
 30
0.0
 11
40.01079233239269
 21
43.352879056995363
 31
0.0
  0
LINE
  5
2A67
  8
3
 10
39.755175623128991
 20
40.38384728074795
 30
0.0
 11
37.630224408920533
 21
40.38384728074795
 31
0.0
  0
LINE
  5
2A68
  8
3
 10
37.630224408920533
 20
40.38384728074795
 30
0.0
 11
37.729491649085787
 21
40.313654742077453
 31
0.0
  0
POLYLINE
  5
2A69
  8
3
 66
     1
 10
0.0
 20
0.0
 30
0.0
 70
   128
  0
VERTEX
  5
2A6A
  8
3
 10
37.630224408920533
 20
40.38384728074795
 30
0.0
  0
VERTEX
  5
2A6B
  8
3
 10
37.567048090713627
 20
40.441853563671131
 30
0.0
  0
VERTEX
  5
2A6C
  8
3
 10
37.520103851247598
 20
40.514537379934019
 30
0.0
  0
VERTEX
  5
2A6D
  8
3
 10
37.49119573131847
 20
40.599105531239204
 30
0.0
  0
VERTEX
  5
2A6E
  8
3
 10
37.481434653763301
 20
40.692308110958372
 30
0.0
  0
VERTEX
  5
2A6F
  8
3
 10
37.49119573131847
 20
40.790563396221529
 30
0.0
  0
VERTEX
  5
2A70
  8
3
 10
37.520103851247598
 20
40.890095491518238
 30
0.0
  0
VERTEX
  5
2A71
  8
3
 10
37.567048090713627
 20
40.987079434244457
 30
0.0
  0
VERTEX
  5
2A72
  8
3
 10
37.630224408920562
 20
41.077788185870439
 30
0.0
  0
SEQEND
  5
2A73
  8
3
  0
LINE
  5
2A74
  8
3
 10
37.374607699656849
 20
40.313654742077453
 30
0.0
 11
37.374607699656849
 21
43.352879056995363
 31
0.0
  0
POLYLINE
  5
2A75
  8
3
 66
     1
 10
0.0
 20
0.0
 30
0.0
 70
   128
  0
VERTEX
  5
2A76
  8
3
 10
39.755175623128991
 20
40.38384728074795
 30
0.0
  0
VERTEX
  5
2A77
  8
3
 10
39.818351941335948
 20
40.441853563671131
 30
0.0
  0
VERTEX
  5
2A78
  8
3
 10
39.865296180802012
 20
40.514537379934019
 30
0.0
  0
VERTEX
  5
2A79
  8
3
 10
39.894204300731083
 20
40.599105531239204
 30
0.0
  0
VERTEX
  5
2A7A
  8
3
 10
39.903965378286252
 20
40.692308110958372
 30
0.0
  0
VERTEX
  5
2A7B
  8
3
 10
39.894204300731083
 20
40.790563396221543
 30
0.0
  0
VERTEX
  5
2A7C
  8
3
 10
39.865296180801948
 20
40.890095491518238
 30
0.0
  0
VERTEX
  5
2A7D
  8
3
 10
39.818351941335948
 20
40.987079434244457
 30
0.0
  0
VERTEX
  5
2A7E
  8
3
 10
39.755175623128991
 20
41.077788185870439
 30
0.0
  0
SEQEND
  5
2A7F
  8
3
  0
LINE
  5
2A80
  8
3
 10
36.580175623129037
 20
40.38384728074795
 30
0.0
 11
34.455224408920571
 21
40.38384728074795
 31
0.0
  0
POLYLINE
  5
2A81
  8
3
 66
     1
 10
0.0
 20
0.0
 30
0.0
 70
   128
  0
VERTEX
  5
2A82
  8
3
 10
36.580175623129037
 20
40.38384728074795
 30
0.0
  0
VERTEX
  5
2A83
  8
3
 10
36.643351941335943
 20
40.441853563671131
 30
0.0
  0
VERTEX
  5
2A84
  8
3
 10
36.690296180801973
 20
40.514537379934019
 30
0.0
  0
VERTEX
  5
2A85
  8
3
 10
36.7192043007311
 20
40.599105531239204
 30
0.0
  0
VERTEX
  5
2A86
  8
3
 10
36.728965378286262
 20
40.692308110958372
 30
0.0
  0
VERTEX
  5
2A87
  8
3
 10
36.719204300731057
 20
40.790563396221543
 30
0.0
  0
VERTEX
  5
2A88
  8
3
 10
36.690296180801973
 20
40.890095491518238
 30
0.0
  0
VERTEX
  5
2A89
  8
3
 10
36.643351941335943
 20
40.987079434244457
 30
0.0
  0
VERTEX
  5
2A8A
  8
3
 10
36.580175623129008
 20
41.077788185870439
 30
0.0
  0
SEQEND
  5
2A8B
  8
3
  0
LINE
  5
2A8C
  8
3
 10
36.835792332392707
 20
40.313654742077453
 30
0.0
 11
36.835792332392707
 21
43.352879056995363
 31
0.0
  0
LINE
  5
2A8D
  8
3
 10
36.580175623129037
 20
40.38384728074795
 30
0.0
 11
36.480908382963783
 21
40.313654742077432
 31
0.0
  0
LINE
  5
2A8E
  8
3
 10
39.755175623128991
 20
40.38384728074795
 30
0.0
 11
39.486609245581072
 21
40.193942173985079
 31
0.0
  0
LINE
  5
2A8F
  8
0
 10
39.328871714370109
 20
34.126123997756842
 30
0.0
 11
34.881528317679511
 21
34.126123997756821
 31
0.0
  0
LINE
  5
2A92
  8
1
 10
46.748950016024729
 20
37.219889369917126
 30
0.0
 11
27.460478114753251
 21
37.219889369917169
 31
0.0
  0
LINE
  5
2A93
  8
1
 10
37.105200016024838
 20
49.084889369917093
 30
0.0
 11
37.105200016024781
 21
27.574889369917098
 31
0.0
  0
LINE
  5
2A94
  8
0
 10
29.96020001602486
 20
68.823889369916941
 30
0.0
 11
29.96020001602486
 21
61.401246793551643
 31
0.0
  0
LINE
  5
2A95
  8
0
 10
30.722200016024861
 20
69.58588936991697
 30
0.0
 11
29.96020001602486
 21
68.823889369916941
 31
0.0
  0
LINE
  5
2A96
  8
0
 10
43.488200016024628
 20
69.585889369917055
 30
0.0
 11
30.722200016025031
 21
69.58588936991714
 31
0.0
  0
LINE
  5
2A97
  8
0
 10
43.488200016024763
 20
69.58588936991697
 30
0.0
 11
44.250200016024763
 21
68.823889369916955
 31
0.0
  0
LINE
  5
2A98
  8
0
 10
44.250200016024763
 20
68.823889369916955
 30
0.0
 11
44.250200016024849
 21
61.401246793551628
 31
0.0
  0
LINE
  5
2A99
  8
1
 10
37.105200016024838
 20
72.085889369917084
 30
0.0
 11
37.105200016024838
 21
59.084889369917093
 31
0.0
  0
LINE
  5
2A9A
  8
0
 10
33.85253992030627
 20
63.91059098066917
 30
0.0
 11
29.960200016024839
 21
63.910590980669177
 31
0.0
  0
LINE
  5
2A9B
  8
0
 10
44.25020001602482
 20
63.910590980669177
 30
0.0
 11
40.357860111743349
 21
63.91059098066917
 31
0.0
  0
POLYLINE
  5
2A9C
  8
3
 66
     1
 10
0.0
 20
0.0
 30
0.0
 70
   128
  0
VERTEX
  5
2A9D
  8
3
 10
40.202539920306243
 20
63.910590980669177
 30
0.0
  0
VERTEX
  5
2A9E
  8
3
 10
40.221775320290639
 20
63.91396452064668
 30
0.0
  0
VERTEX
  5
2A9F
  8
3
 10
40.24116454830272
 20
63.916380556664542
 30
0.0
  0
VERTEX
  5
2AA0
  8
3
 10
40.260656553897689
 20
63.917832727473439
 30
0.0
  0
VERTEX
  5
2AA1
  8
3
 10
40.280200016024793
 20
63.918317209611992
 30
0.0
  0
VERTEX
  5
2AA2
  8
3
 10
40.299743478151903
 20
63.917832727473439
 30
0.0
  0
VERTEX
  5
2AA3
  8
3
 10
40.319235483746837
 20
63.916380556664542
 30
0.0
  0
VERTEX
  5
2AA4
  8
3
 10
40.338624711758932
 20
63.91396452064668
 30
0.0
  0
VERTEX
  5
2AA5
  8
3
 10
40.357860111743321
 20
63.910590980669177
 30
0.0
  0
SEQEND
  5
2AA6
  8
3
  0
LINE
  5
2AA7
  8
0
 10
40.202539920306243
 20
63.91059098066917
 30
0.0
 11
37.182860111743338
 21
63.91059098066917
 31
0.0
  0
POLYLINE
  5
2AA8
  8
3
 66
     1
 10
0.0
 20
0.0
 30
0.0
 70
   128
  0
VERTEX
  5
2AA9
  8
3
 10
37.027539920306218
 20
63.910590980669177
 30
0.0
  0
VERTEX
  5
2AAA
  8
3
 10
37.046775320290642
 20
63.91396452064668
 30
0.0
  0
VERTEX
  5
2AAB
  8
3
 10
37.066164548302709
 20
63.916380556664542
 30
0.0
  0
VERTEX
  5
2AAC
  8
3
 10
37.085656553897678
 20
63.917832727473439
 30
0.0
  0
VERTEX
  5
2AAD
  8
3
 10
37.105200016024781
 20
63.918317209611992
 30
0.0
  0
VERTEX
  5
2AAE
  8
3
 10
37.124743478151878
 20
63.917832727473439
 30
0.0
  0
VERTEX
  5
2AAF
  8
3
 10
37.144235483746861
 20
63.916380556664542
 30
0.0
  0
VERTEX
  5
2AB0
  8
3
 10
37.163624711758928
 20
63.91396452064668
 30
0.0
  0
VERTEX
  5
2AB1
  8
3
 10
37.182860111743338
 20
63.910590980669177
 30
0.0
  0
SEQEND
  5
2AB2
  8
3
  0
LINE
  5
2AB3
  8
0
 10
37.027539920306218
 20
63.91059098066917
 30
0.0
 11
34.007860111743327
 21
63.91059098066917
 31
0.0
  0
POLYLINE
  5
2AB4
  8
3
 66
     1
 10
0.0
 20
0.0
 30
0.0
 70
   128
  0
VERTEX
  5
2AB5
  8
3
 10
33.85253992030627
 20
63.910590980669177
 30
0.0
  0
VERTEX
  5
2AB6
  8
3
 10
33.871775320290659
 20
63.91396452064668
 30
0.0
  0
VERTEX
  5
2AB7
  8
3
 10
33.891164548302733
 20
63.916380556664542
 30
0.0
  0
VERTEX
  5
2AB8
  8
3
 10
33.910656553897716
 20
63.917832727473439
 30
0.0
  0
VERTEX
  5
2AB9
  8
3
 10
33.93020001602477
 20
63.918317209611992
 30
0.0
  0
VERTEX
  5
2ABA
  8
3
 10
33.949743478151881
 20
63.917832727473439
 30
0.0
  0
VERTEX
  5
2ABB
  8
3
 10
33.969235483746871
 20
63.916380556664542
 30
0.0
  0
VERTEX
  5
2ABC
  8
3
 10
33.988624711758952
 20
63.91396452064668
 30
0.0
  0
VERTEX
  5
2ABD
  8
3
 10
34.007860111743327
 20
63.910590980669177
 30
0.0
  0
SEQEND
  5
2ABE
  8
3
  0
LINE
  5
2ABF
  8
3
 10
40.010792332391453
 20
61.915571230079181
 30
0.0
 11
40.01079233239269
 21
62.937328507563286
 31
0.0
  0
POLYLINE
  5
2AC0
  8
3
 66
     1
 10
0.0
 20
0.0
 30
0.0
 70
   128
  0
VERTEX
  5
2AC1
  8
3
 10
40.01079233239269
 20
63.06031685594035
 30
0.0
  0
VERTEX
  5
2AC2
  8
3
 10
40.071083251597621
 20
63.07207185350034
 30
0.0
  0
VERTEX
  5
2AC3
  8
3
 10
40.086950722911631
 20
63.057447160071092
 30
0.0
  0
VERTEX
  5
2AC4
  8
3
 10
40.074532848683987
 20
63.025620839458441
 30
0.0
  0
VERTEX
  5
2AC5
  8
3
 10
40.021404183606897
 20
62.952466856053093
 30
0.0
  0
VERTEX
  5
2AC6
  8
3
 10
40.01079233239269
 20
62.937328507563308
 30
0.0
  0
SEQEND
  5
2AC7
  8
3
  0
LINE
  5
2AC8
  8
3
 10
40.01079233239269
 20
63.060316855940343
 30
0.0
 11
40.01079233239269
 21
63.750845310531368
 31
0.0
  0
POLYLINE
  5
2AC9
  8
3
 66
     1
 10
0.0
 20
0.0
 30
0.0
 70
   128
  0
VERTEX
  5
2ACA
  8
3
 10
40.202539920306243
 20
63.877720961941179
 30
0.0
  0
VERTEX
  5
2ACB
  8
3
 10
40.132306710864533
 20
63.850927833984599
 30
0.0
  0
VERTEX
  5
2ACC
  8
3
 10
40.067586640633628
 20
63.808103821650548
 30
0.0
  0
VERTEX
  5
2ACD
  8
3
 10
40.01079233239269
 20
63.750845310531389
 30
0.0
  0
SEQEND
  5
2ACE
  8
3
  0
LINE
  5
2ACF
  8
3
 10
40.202539920306243
 20
63.91059098066917
 30
0.0
 11
40.202539920306243
 21
63.877720961941158
 31
0.0
  0
LINE
  5
2AD0
  8
3
 10
40.357860111743349
 20
63.877720961941158
 30
0.0
 11
40.357860111743349
 21
63.91059098066917
 31
0.0
  0
POLYLINE
  5
2AD1
  8
3
 66
     1
 10
0.0
 20
0.0
 30
0.0
 70
   128
  0
VERTEX
  5
2AD2
  8
3
 10
40.54960769965686
 20
63.750845310531389
 30
0.0
  0
VERTEX
  5
2AD3
  8
3
 10
40.49281339141595
 20
63.808103821650548
 30
0.0
  0
VERTEX
  5
2AD4
  8
3
 10
40.428093321185059
 20
63.850927833984599
 30
0.0
  0
VERTEX
  5
2AD5
  8
3
 10
40.357860111743321
 20
63.877720961941179
 30
0.0
  0
SEQEND
  5
2AD6
  8
3
  0
LINE
  5
2AD7
  8
3
 10
40.549607699656882
 20
63.060316855940343
 30
0.0
 11
40.549607699656882
 21
63.750845310531368
 31
0.0
  0
POLYLINE
  5
2AD8
  8
3
 66
     1
 10
0.0
 20
0.0
 30
0.0
 70
   128
  0
VERTEX
  5
2AD9
  8
3
 10
40.54960769965686
 20
62.937328507563308
 30
0.0
  0
VERTEX
  5
2ADA
  8
3
 10
40.489316780451922
 20
63.020379005692881
 30
0.0
  0
VERTEX
  5
2ADB
  8
3
 10
40.473449309137941
 20
63.054071863521919
 30
0.0
  0
VERTEX
  5
2ADC
  8
3
 10
40.485867183365571
 20
63.071154409045079
 30
0.0
  0
VERTEX
  5
2ADD
  8
3
 10
40.538995848442681
 20
63.064901566370672
 30
0.0
  0
VERTEX
  5
2ADE
  8
3
 10
40.549607699656882
 20
63.060316855940393
 30
0.0
  0
SEQEND
  5
2ADF
  8
3
  0
LINE
  5
2AE0
  8
3
 10
40.549607699656882
 20
61.691584408972098
 30
0.0
 11
40.549607699656882
 21
62.937328507563286
 31
0.0
  0
POLYLINE
  5
2AE1
  8
3
 66
     1
 10
0.0
 20
0.0
 30
0.0
 70
   128
  0
VERTEX
  5
2AE2
  8
3
 10
40.54960769965686
 20
61.691584408972119
 30
0.0
  0
VERTEX
  5
2AE3
  8
3
 10
40.456511394113249
 20
61.811956637090873
 30
0.0
  0
VERTEX
  5
2AE4
  8
3
 10
40.345846911190812
 20
61.901703027735437
 30
0.0
  0
VERTEX
  5
2AE5
  8
3
 10
40.194362447099877
 20
61.958148597824049
 30
0.0
  0
VERTEX
  5
2AE6
  8
3
 10
40.070844001661037
 20
61.946761091617532
 30
0.0
  0
VERTEX
  5
2AE7
  8
3
 10
40.010792332391453
 20
61.915571230079188
 30
0.0
  0
SEQEND
  5
2AE8
  8
3
  0
LINE
  5
2AE9
  8
3
 10
43.289385867971809
 20
61.581167106248969
 30
0.0
 11
43.289385867971809
 21
63.877720961941158
 31
0.0
  0
LINE
  5
2AEA
  8
3
 10
43.289385867971809
 20
63.877720961941158
 30
0.0
 11
40.357860111743349
 21
63.877720961941158
 31
0.0
  0
LINE
  5
2AEB
  8
3
 10
33.85253992030627
 20
63.91059098066917
 30
0.0
 11
33.85253992030627
 21
63.877720961941158
 31
0.0
  0
LINE
  5
2AEC
  8
3
 10
33.85253992030627
 20
63.877720961941158
 30
0.0
 11
30.921014164077832
 21
63.877720961941158
 31
0.0
  0
LINE
  5
2AED
  8
3
 10
30.921014164077832
 20
61.581167106248969
 30
0.0
 11
30.921014164077832
 21
63.877720961941158
 31
0.0
  0
LINE
  5
2AEE
  8
3
 10
40.202539920306243
 20
63.877720961941158
 30
0.0
 11
37.182860111743338
 21
63.877720961941158
 31
0.0
  0
LINE
  5
2AEF
  8
3
 10
37.182860111743338
 20
63.877720961941158
 30
0.0
 11
37.182860111743338
 21
63.91059098066917
 31
0.0
  0
LINE
  5
2AF0
  8
3
 10
33.660792332392731
 20
61.691584408972098
 30
0.0
 11
33.660792332392731
 21
62.937328507563286
 31
0.0
  0
POLYLINE
  5
2AF1
  8
3
 66
     1
 10
0.0
 20
0.0
 30
0.0
 70
   128
  0
VERTEX
  5
2AF2
  8
3
 10
33.660792332392731
 20
63.06031685594035
 30
0.0
  0
VERTEX
  5
2AF3
  8
3
 10
33.716873224315208
 20
63.072751026076958
 30
0.0
  0
VERTEX
  5
2AF4
  8
3
 10
33.73648373021647
 20
63.060138775850298
 30
0.0
  0
VERTEX
  5
2AF5
  8
3
 10
33.726674984787309
 20
63.029045721679601
 30
0.0
  0
VERTEX
  5
2AF6
  8
3
 10
33.677786872136181
 20
62.961320324400667
 30
0.0
  0
VERTEX
  5
2AF7
  8
3
 10
33.660792332392731
 20
62.937328507563308
 30
0.0
  0
SEQEND
  5
2AF8
  8
3
  0
LINE
  5
2AF9
  8
3
 10
33.660792332392731
 20
63.060316855940343
 30
0.0
 11
33.660792332392731
 21
63.750845310531368
 31
0.0
  0
POLYLINE
  5
2AFA
  8
3
 66
     1
 10
0.0
 20
0.0
 30
0.0
 70
   128
  0
VERTEX
  5
2AFB
  8
3
 10
33.85253992030627
 20
63.877720961941179
 30
0.0
  0
VERTEX
  5
2AFC
  8
3
 10
33.78230671086456
 20
63.850927833984599
 30
0.0
  0
VERTEX
  5
2AFD
  8
3
 10
33.717586640633641
 20
63.808103821650548
 30
0.0
  0
VERTEX
  5
2AFE
  8
3
 10
33.660792332392731
 20
63.750845310531389
 30
0.0
  0
SEQEND
  5
2AFF
  8
3
  0
LINE
  5
2B00
  8
3
 10
34.007860111743327
 20
63.877720961941158
 30
0.0
 11
34.007860111743327
 21
63.91059098066917
 31
0.0
  0
POLYLINE
  5
2B01
  8
3
 66
     1
 10
0.0
 20
0.0
 30
0.0
 70
   128
  0
VERTEX
  5
2B02
  8
3
 10
34.199607699656873
 20
63.750845310531389
 30
0.0
  0
VERTEX
  5
2B03
  8
3
 10
34.142813391415963
 20
63.808103821650548
 30
0.0
  0
VERTEX
  5
2B04
  8
3
 10
34.078093321185037
 20
63.850927833984599
 30
0.0
  0
VERTEX
  5
2B05
  8
3
 10
34.007860111743327
 20
63.877720961941179
 30
0.0
  0
SEQEND
  5
2B06
  8
3
  0
LINE
  5
2B07
  8
3
 10
34.199607699656873
 20
63.060316855940343
 30
0.0
 11
34.199607699656873
 21
63.750845310531368
 31
0.0
  0
POLYLINE
  5
2B08
  8
3
 66
     1
 10
0.0
 20
0.0
 30
0.0
 70
   128
  0
VERTEX
  5
2B09
  8
3
 10
34.199607699656873
 20
62.937328507563308
 30
0.0
  0
VERTEX
  5
2B0A
  8
3
 10
34.163825051419373
 20
62.986686036785251
 30
0.0
  0
VERTEX
  5
2B0B
  8
3
 10
34.129995982736567
 20
63.035518166631078
 30
0.0
  0
VERTEX
  5
2B0C
  8
3
 10
34.124562224262242
 20
63.062021269814579
 30
0.0
  0
VERTEX
  5
2B0D
  8
3
 10
34.143847355271561
 20
63.072786583930387
 30
0.0
  0
VERTEX
  5
2B0E
  8
3
 10
34.199607699656873
 20
63.06031685594035
 30
0.0
  0
SEQEND
  5
2B0F
  8
3
  0
LINE
  5
2B10
  8
3
 10
34.199607699657719
 20
61.915571230076452
 30
0.0
 11
34.199607699656873
 21
62.937328507563286
 31
0.0
  0
POLYLINE
  5
2B11
  8
3
 66
     1
 10
0.0
 20
0.0
 30
0.0
 70
   128
  0
VERTEX
  5
2B12
  8
3
 10
34.199607699657719
 20
61.915571230076473
 30
0.0
  0
VERTEX
  5
2B13
  8
3
 10
34.17738501467133
 20
61.929734370255119
 30
0.0
  0
VERTEX
  5
2B14
  8
3
 10
34.07059422756172
 20
61.96027849123152
 30
0.0
  0
VERTEX
  5
2B15
  8
3
 10
33.983210887265081
 20
61.952170049894271
 30
0.0
  0
VERTEX
  5
2B16
  8
3
 10
33.901853621683557
 20
61.922347955663582
 30
0.0
  0
VERTEX
  5
2B17
  8
3
 10
33.779958138395301
 20
61.837506941586931
 30
0.0
  0
VERTEX
  5
2B18
  8
3
 10
33.677568294735948
 20
61.717315531854346
 30
0.0
  0
VERTEX
  5
2B19
  8
3
 10
33.660792332392731
 20
61.691584408972119
 30
0.0
  0
SEQEND
  5
2B1A
  8
3
  0
LINE
  5
2B1B
  8
3
 10
37.027539920306218
 20
63.91059098066917
 30
0.0
 11
37.027539920306218
 21
63.877720961941158
 31
0.0
  0
LINE
  5
2B1C
  8
3
 10
37.027539920306218
 20
63.877720961941158
 30
0.0
 11
34.007860111743327
 21
63.877720961941158
 31
0.0
  0
POLYLINE
  5
2B1D
  8
3
 66
     1
 10
0.0
 20
0.0
 30
0.0
 70
   128
  0
VERTEX
  5
2B1E
  8
3
 10
36.835792332392707
 20
63.06031685594035
 30
0.0
  0
VERTEX
  5
2B1F
  8
3
 10
36.891873224315219
 20
63.072751026076958
 30
0.0
  0
VERTEX
  5
2B20
  8
3
 10
36.911483730216453
 20
63.060138775850248
 30
0.0
  0
VERTEX
  5
2B21
  8
3
 10
36.901674984787263
 20
63.02904572167958
 30
0.0
  0
VERTEX
  5
2B22
  8
3
 10
36.852786872136143
 20
62.961320324400639
 30
0.0
  0
VERTEX
  5
2B23
  8
3
 10
36.835792332392707
 20
62.937328507563308
 30
0.0
  0
SEQEND
  5
2B24
  8
3
  0
LINE
  5
2B25
  8
3
 10
36.835792332392742
 20
63.060316855940343
 30
0.0
 11
36.835792332392742
 21
63.750845310531403
 31
0.0
  0
POLYLINE
  5
2B26
  8
3
 66
     1
 10
0.0
 20
0.0
 30
0.0
 70
   128
  0
VERTEX
  5
2B27
  8
3
 10
37.027539920306218
 20
63.877720961941179
 30
0.0
  0
VERTEX
  5
2B28
  8
3
 10
36.957306710864508
 20
63.850927833984599
 30
0.0
  0
VERTEX
  5
2B29
  8
3
 10
36.892586640633603
 20
63.808103821650548
 30
0.0
  0
VERTEX
  5
2B2A
  8
3
 10
36.835792332392707
 20
63.750845310531417
 30
0.0
  0
SEQEND
  5
2B2B
  8
3
  0
POLYLINE
  5
2B2C
  8
3
 66
     1
 10
0.0
 20
0.0
 30
0.0
 70
   128
  0
VERTEX
  5
2B2D
  8
3
 10
37.374607699656849
 20
63.750845310531417
 30
0.0
  0
VERTEX
  5
2B2E
  8
3
 10
37.317813391415939
 20
63.808103821650548
 30
0.0
  0
VERTEX
  5
2B2F
  8
3
 10
37.253093321185048
 20
63.850927833984599
 30
0.0
  0
VERTEX
  5
2B30
  8
3
 10
37.182860111743338
 20
63.877720961941179
 30
0.0
  0
SEQEND
  5
2B31
  8
3
  0
LINE
  5
2B32
  8
3
 10
37.374607699656877
 20
63.060316855940343
 30
0.0
 11
37.374607699656877
 21
63.750845310531403
 31
0.0
  0
POLYLINE
  5
2B33
  8
3
 66
     1
 10
0.0
 20
0.0
 30
0.0
 70
   128
  0
VERTEX
  5
2B34
  8
3
 10
37.374607699656849
 20
62.937328507563308
 30
0.0
  0
VERTEX
  5
2B35
  8
3
 10
37.338825051419377
 20
62.986686036785251
 30
0.0
  0
VERTEX
  5
2B36
  8
3
 10
37.304995982736557
 20
63.035518166631078
 30
0.0
  0
VERTEX
  5
2B37
  8
3
 10
37.299562224262253
 20
63.062021269814579
 30
0.0
  0
VERTEX
  5
2B38
  8
3
 10
37.318847355271551
 20
63.072786583930387
 30
0.0
  0
VERTEX
  5
2B39
  8
3
 10
37.374607699656849
 20
63.06031685594035
 30
0.0
  0
SEQEND
  5
2B3A
  8
3
  0
LINE
  5
2B3B
  8
3
 10
37.374607699656877
 20
62.12297080676403
 30
0.0
 11
37.374607699656877
 21
62.937328507563286
 31
0.0
  0
ARC
  5
2B3C
  8
3
 10
37.105200016024753
 20
61.866612450671767
 30
0.0
 40
0.3718872231447694
 50
43.57823087040898
 51
136.4217691295845
  0
LINE
  5
2B3D
  8
3
 10
36.835792332392742
 20
62.12297080676403
 30
0.0
 11
36.835792332392742
 21
62.937328507563286
 31
0.0
  0
LINE
  5
2B3E
  8
3
 10
41.994700016024801
 20
60.66568596083097
 30
0.0
 11
43.289385867971809
 21
61.581167106248969
 31
0.0
  0
LINE
  5
2B3F
  8
3
 10
41.994700016024801
 20
60.66568596083097
 30
0.0
 11
41.994700016024801
 21
60.731425998287101
 31
0.0
  0
LINE
  5
2B40
  8
3
 10
42.93017562312906
 20
61.877144950399938
 30
0.0
 11
41.994700016024801
 21
60.731425998287101
 31
0.0
  0
POLYLINE
  5
2B41
  8
3
 66
     1
 10
0.0
 20
0.0
 30
0.0
 70
   128
  0
VERTEX
  5
2B42
  8
3
 10
42.93017562312906
 20
61.877144950399952
 30
0.0
  0
VERTEX
  5
2B43
  8
3
 10
42.993351941335987
 20
61.958092624470787
 30
0.0
  0
VERTEX
  5
2B44
  8
3
 10
43.040296180801988
 20
62.026168447267899
 30
0.0
  0
VERTEX
  5
2B45
  8
3
 10
43.069204300731123
 20
62.078756303098537
 30
0.0
  0
VERTEX
  5
2B46
  8
3
 10
43.078965378286249
 20
62.113835270154823
 30
0.0
  0
VERTEX
  5
2B47
  8
3
 10
43.069204300731123
 20
62.130057283405158
 30
0.0
  0
VERTEX
  5
2B48
  8
3
 10
43.040296180801988
 20
62.126798939977839
 30
0.0
  0
VERTEX
  5
2B49
  8
3
 10
42.993351941335924
 20
62.104185456183473
 30
0.0
  0
VERTEX
  5
2B4A
  8
3
 10
42.930175623129003
 20
62.063085855522438
 30
0.0
  0
SEQEND
  5
2B4B
  8
3
  0
LINE
  5
2B4C
  8
3
 10
41.994700016024801
 20
61.401604710104422
 30
0.0
 11
42.930175623129003
 21
62.063085855522431
 31
0.0
  0
LINE
  5
2B4D
  8
3
 10
41.994700016024801
 20
61.401604710104422
 30
0.0
 11
41.994700016024801
 21
61.470310636505339
 31
0.0
  0
LINE
  5
2B4E
  8
3
 10
41.994700016024801
 20
61.470310636505339
 30
0.0
 11
43.095989771182012
 21
62.819109616050248
 31
0.0
  0
POLYLINE
  5
2B4F
  8
3
 66
     1
 10
0.0
 20
0.0
 30
0.0
 70
   128
  0
VERTEX
  5
2B50
  8
3
 10
43.095989771182047
 20
63.005050521172791
 30
0.0
  0
VERTEX
  5
2B51
  8
3
 10
43.15290876483806
 20
63.042473467409501
 30
0.0
  0
VERTEX
  5
2B52
  8
3
 10
43.197183882153887
 20
63.065391954580463
 30
0.0
  0
VERTEX
  5
2B53
  8
3
 10
43.227469846094117
 20
63.07310961605026
 30
0.0
  0
VERTEX
  5
2B54
  8
3
 10
43.242846432969877
 20
63.065391954580463
 30
0.0
  0
VERTEX
  5
2B55
  8
3
 10
43.242846432969877
 20
63.042473467409501
 30
0.0
  0
VERTEX
  5
2B56
  8
3
 10
43.227469846094117
 20
63.005050521172791
 30
0.0
  0
VERTEX
  5
2B57
  8
3
 10
43.197183882153887
 20
62.954260193154703
 30
0.0
  0
VERTEX
  5
2B58
  8
3
 10
43.15290876483806
 20
62.891645721771027
 30
0.0
  0
VERTEX
  5
2B59
  8
3
 10
43.095989771182012
 20
62.81910961605027
 30
0.0
  0
SEQEND
  5
2B5A
  8
3
  0
LINE
  5
2B5B
  8
3
 10
41.994700016024801
 20
62.226321067249792
 30
0.0
 11
43.095989771182012
 21
63.00505052117277
 31
0.0
  0
LINE
  5
2B5C
  8
3
 10
41.994700016024801
 20
62.226321067249792
 30
0.0
 11
41.994700016024801
 21
62.292061104705837
 31
0.0
  0
LINE
  5
2B5D
  8
3
 10
43.289385867971809
 20
63.877720961941158
 30
0.0
 11
41.994700016024801
 21
62.292061104705837
 31
0.0
  0
LINE
  5
2B5E
  8
3
 10
41.994700016024801
 20
62.292061104705837
 30
0.0
 11
41.740700016024789
 21
62.292061104705837
 31
0.0
  0
LINE
  5
2B5F
  8
3
 10
40.549607699656882
 20
63.750845310531368
 30
0.0
 11
41.740700016024789
 21
62.292061104705837
 31
0.0
  0
LINE
  5
2B60
  8
3
 10
40.01079233239269
 20
63.750845310531368
 30
0.0
 11
38.819700016024768
 21
62.292061104705837
 31
0.0
  0
LINE
  5
2B61
  8
3
 10
38.819700016024768
 20
62.292061104705837
 30
0.0
 11
38.565700016024813
 21
62.292061104705837
 31
0.0
  0
LINE
  5
2B62
  8
3
 10
37.374607699656877
 20
63.750845310531403
 30
0.0
 11
38.565700016024813
 21
62.292061104705837
 31
0.0
  0
LINE
  5
2B63
  8
3
 10
36.835792332392742
 20
63.750845310531403
 30
0.0
 11
35.644700016024821
 21
62.292061104705837
 31
0.0
  0
LINE
  5
2B64
  8
3
 10
35.644700016024821
 20
62.292061104705837
 30
0.0
 11
35.390700016024802
 21
62.292061104705837
 31
0.0
  0
LINE
  5
2B65
  8
3
 10
34.199607699656873
 20
63.750845310531368
 30
0.0
 11
35.390700016024802
 21
62.292061104705837
 31
0.0
  0
LINE
  5
2B66
  8
3
 10
33.660792332392731
 20
63.750845310531368
 30
0.0
 11
32.469700016024802
 21
62.292061104705837
 31
0.0
  0
LINE
  5
2B67
  8
3
 10
32.469700016024802
 20
62.292061104705837
 30
0.0
 11
32.215700016024783
 21
62.292061104705837
 31
0.0
  0
LINE
  5
2B68
  8
3
 10
30.921014164077832
 20
63.877720961941158
 30
0.0
 11
32.215700016024783
 21
62.292061104705837
 31
0.0
  0
LINE
  5
2B69
  8
3
 10
32.215700016024783
 20
60.665685960830999
 30
0.0
 11
30.921014164077832
 21
61.581167106248969
 31
0.0
  0
LINE
  5
2B6A
  8
3
 10
32.215700016024783
 20
62.226321067249792
 30
0.0
 11
32.215700016024783
 21
62.292061104705837
 31
0.0
  0
LINE
  5
2B6B
  8
3
 10
32.215700016024783
 20
62.226321067249792
 30
0.0
 11
31.114410260867569
 21
63.00505052117277
 31
0.0
  0
POLYLINE
  5
2B6C
  8
3
 66
     1
 10
0.0
 20
0.0
 30
0.0
 70
   128
  0
VERTEX
  5
2B6D
  8
3
 10
31.114410260867569
 20
63.005050521172791
 30
0.0
  0
VERTEX
  5
2B6E
  8
3
 10
31.05123394266068
 20
63.046150121833762
 30
0.0
  0
VERTEX
  5
2B6F
  8
3
 10
31.004289703194591
 20
63.068763605628163
 30
0.0
  0
VERTEX
  5
2B70
  8
3
 10
30.975381583265492
 20
63.072021949055461
 30
0.0
  0
VERTEX
  5
2B71
  8
3
 10
30.965620505710351
 20
63.055799935805112
 30
0.0
  0
VERTEX
  5
2B72
  8
3
 10
30.975381583265492
 20
63.02072096874889
 30
0.0
  0
VERTEX
  5
2B73
  8
3
 10
31.004289703194591
 20
62.968133112918217
 30
0.0
  0
VERTEX
  5
2B74
  8
3
 10
31.05123394266068
 20
62.900057290121083
 30
0.0
  0
VERTEX
  5
2B75
  8
3
 10
31.114410260867569
 20
62.81910961605027
 30
0.0
  0
SEQEND
  5
2B76
  8
3
  0
LINE
  5
2B77
  8
3
 10
32.215700016024783
 20
61.470310636505339
 30
0.0
 11
31.114410260867569
 21
62.819109616050248
 31
0.0
  0
LINE
  5
2B78
  8
3
 10
32.215700016024783
 20
61.401604710104422
 30
0.0
 11
32.215700016024783
 21
61.470310636505339
 31
0.0
  0
LINE
  5
2B79
  8
3
 10
32.215700016024783
 20
61.401604710104422
 30
0.0
 11
31.280224408920589
 21
62.063085855522431
 31
0.0
  0
POLYLINE
  5
2B7A
  8
3
 66
     1
 10
0.0
 20
0.0
 30
0.0
 70
   128
  0
VERTEX
  5
2B7B
  8
3
 10
31.280224408920589
 20
61.877144950399952
 30
0.0
  0
VERTEX
  5
2B7C
  8
3
 10
31.217048090713629
 20
61.958092624470787
 30
0.0
  0
VERTEX
  5
2B7D
  8
3
 10
31.17010385124761
 20
62.026168447267899
 30
0.0
  0
VERTEX
  5
2B7E
  8
3
 10
31.141195731318501
 20
62.078756303098537
 30
0.0
  0
VERTEX
  5
2B7F
  8
3
 10
31.131434653763371
 20
62.113835270154823
 30
0.0
  0
VERTEX
  5
2B80
  8
3
 10
31.141195731318501
 20
62.130057283405158
 30
0.0
  0
VERTEX
  5
2B81
  8
3
 10
31.17010385124761
 20
62.126798939977839
 30
0.0
  0
VERTEX
  5
2B82
  8
3
 10
31.217048090713629
 20
62.104185456183473
 30
0.0
  0
VERTEX
  5
2B83
  8
3
 10
31.280224408920589
 20
62.063085855522438
 30
0.0
  0
SEQEND
  5
2B84
  8
3
  0
LINE
  5
2B85
  8
3
 10
31.280224408920589
 20
61.877144950399938
 30
0.0
 11
32.215700016024783
 21
60.731425998287101
 31
0.0
  0
LINE
  5
2B86
  8
3
 10
32.215700016024783
 20
60.665685960830999
 30
0.0
 11
32.215700016024783
 21
60.731425998287101
 31
0.0
  0
LINE
  5
2B87
  8
3
 10
38.565700016024813
 20
62.226321067249792
 30
0.0
 11
38.565700016024813
 21
62.292061104705837
 31
0.0
  0
LINE
  5
2B88
  8
3
 10
38.565700016024813
 20
62.226321067249792
 30
0.0
 11
37.464410260867602
 21
63.00505052117277
 31
0.0
  0
POLYLINE
  5
2B89
  8
3
 66
     1
 10
0.0
 20
0.0
 30
0.0
 70
   128
  0
VERTEX
  5
2B8A
  8
3
 10
37.464410260867567
 20
63.005050521172791
 30
0.0
  0
VERTEX
  5
2B8B
  8
3
 10
37.430482662983451
 20
63.028120032555478
 30
0.0
  0
VERTEX
  5
2B8C
  8
3
 10
37.400449310321733
 20
63.046603172679959
 30
0.0
  0
VERTEX
  5
2B8D
  8
3
 10
37.374607699656849
 20
63.06031685594035
 30
0.0
  0
SEQEND
  5
2B8E
  8
3
  0
POLYLINE
  5
2B8F
  8
3
 66
     1
 10
0.0
 20
0.0
 30
0.0
 70
   128
  0
VERTEX
  5
2B90
  8
3
 10
36.745989771182003
 20
63.005050521172791
 30
0.0
  0
VERTEX
  5
2B91
  8
3
 10
36.779917369066112
 20
63.028120032555478
 30
0.0
  0
VERTEX
  5
2B92
  8
3
 10
36.80995072172783
 20
63.046603172679959
 30
0.0
  0
VERTEX
  5
2B93
  8
3
 10
36.835792332392707
 20
63.06031685594035
 30
0.0
  0
SEQEND
  5
2B94
  8
3
  0
LINE
  5
2B95
  8
3
 10
35.644700016024821
 20
62.226321067249792
 30
0.0
 11
36.745989771182032
 21
63.00505052117277
 31
0.0
  0
LINE
  5
2B96
  8
3
 10
35.644700016024821
 20
62.226321067249792
 30
0.0
 11
35.644700016024821
 21
62.292061104705837
 31
0.0
  0
LINE
  5
2B97
  8
3
 10
35.390700016024802
 20
62.226321067249792
 30
0.0
 11
35.390700016024802
 21
62.292061104705837
 31
0.0
  0
LINE
  5
2B98
  8
3
 10
35.390700016024802
 20
62.226321067249792
 30
0.0
 11
34.289410260867577
 21
63.00505052117277
 31
0.0
  0
POLYLINE
  5
2B99
  8
3
 66
     1
 10
0.0
 20
0.0
 30
0.0
 70
   128
  0
VERTEX
  5
2B9A
  8
3
 10
34.289410260867577
 20
63.005050521172791
 30
0.0
  0
VERTEX
  5
2B9B
  8
3
 10
34.255482662983439
 20
63.028120032555478
 30
0.0
  0
VERTEX
  5
2B9C
  8
3
 10
34.22544931032175
 20
63.046603172679959
 30
0.0
  0
VERTEX
  5
2B9D
  8
3
 10
34.199607699656873
 20
63.06031685594035
 30
0.0
  0
SEQEND
  5
2B9E
  8
3
  0
LINE
  5
2B9F
  8
3
 10
41.740700016024789
 20
62.226321067249792
 30
0.0
 11
41.740700016024789
 21
62.292061104705837
 31
0.0
  0
LINE
  5
2BA0
  8
3
 10
41.740700016024789
 20
62.226321067249792
 30
0.0
 11
40.639410260867542
 21
63.00505052117277
 31
0.0
  0
POLYLINE
  5
2BA1
  8
3
 66
     1
 10
0.0
 20
0.0
 30
0.0
 70
   128
  0
VERTEX
  5
2BA2
  8
3
 10
40.639410260867542
 20
63.005050521172791
 30
0.0
  0
VERTEX
  5
2BA3
  8
3
 10
40.605482662983427
 20
63.028120032555478
 30
0.0
  0
VERTEX
  5
2BA4
  8
3
 10
40.575449310321737
 20
63.046603172679959
 30
0.0
  0
VERTEX
  5
2BA5
  8
3
 10
40.54960769965686
 20
63.06031685594035
 30
0.0
  0
SEQEND
  5
2BA6
  8
3
  0
POLYLINE
  5
2BA7
  8
3
 66
     1
 10
0.0
 20
0.0
 30
0.0
 70
   128
  0
VERTEX
  5
2BA8
  8
3
 10
39.920989771182008
 20
63.005050521172791
 30
0.0
  0
VERTEX
  5
2BA9
  8
3
 10
39.954917369066152
 20
63.028120032555478
 30
0.0
  0
VERTEX
  5
2BAA
  8
3
 10
39.98495072172782
 20
63.046603172679959
 30
0.0
  0
VERTEX
  5
2BAB
  8
3
 10
40.01079233239269
 20
63.06031685594035
 30
0.0
  0
SEQEND
  5
2BAC
  8
3
  0
LINE
  5
2BAD
  8
3
 10
38.819700016024768
 20
62.226321067249792
 30
0.0
 11
39.920989771182029
 21
63.00505052117277
 31
0.0
  0
LINE
  5
2BAE
  8
3
 10
38.819700016024768
 20
62.226321067249792
 30
0.0
 11
38.819700016024768
 21
62.292061104705837
 31
0.0
  0
POLYLINE
  5
2BAF
  8
3
 66
     1
 10
0.0
 20
0.0
 30
0.0
 70
   128
  0
VERTEX
  5
2BB0
  8
3
 10
33.57098977118202
 20
63.005050521172791
 30
0.0
  0
VERTEX
  5
2BB1
  8
3
 10
33.604917369066158
 20
63.028120032555478
 30
0.0
  0
VERTEX
  5
2BB2
  8
3
 10
33.634950721727847
 20
63.046603172679959
 30
0.0
  0
VERTEX
  5
2BB3
  8
3
 10
33.660792332392731
 20
63.06031685594035
 30
0.0
  0
SEQEND
  5
2BB4
  8
3
  0
LINE
  5
2BB5
  8
3
 10
32.469700016024802
 20
62.226321067249792
 30
0.0
 11
33.57098977118202
 21
63.00505052117277
 31
0.0
  0
LINE
  5
2BB6
  8
3
 10
32.469700016024802
 20
62.226321067249792
 30
0.0
 11
32.469700016024802
 21
62.292061104705837
 31
0.0
  0
LINE
  5
2BB7
  8
3
 10
32.469700016024802
 20
62.226321067249792
 30
0.0
 11
32.215700016024783
 21
62.226321067249792
 31
0.0
  0
LINE
  5
2BB8
  8
3
 10
35.644700016024821
 20
62.226321067249792
 30
0.0
 11
35.390700016024802
 21
62.226321067249792
 31
0.0
  0
LINE
  5
2BB9
  8
3
 10
41.994700016024801
 20
62.226321067249792
 30
0.0
 11
41.740700016024789
 21
62.226321067249792
 31
0.0
  0
LINE
  5
2BBA
  8
3
 10
38.819700016024768
 20
62.226321067249792
 30
0.0
 11
38.565700016024813
 21
62.226321067249792
 31
0.0
  0
POLYLINE
  5
2BBB
  8
3
 66
     1
 10
0.0
 20
0.0
 30
0.0
 70
   128
  0
VERTEX
  5
2BBC
  8
3
 10
36.835792332392707
 20
62.937328507563308
 30
0.0
  0
VERTEX
  5
2BBD
  8
3
 10
36.80995072172783
 20
62.901120032555468
 30
0.0
  0
VERTEX
  5
2BBE
  8
3
 10
36.779917369066112
 20
62.861583190707989
 30
0.0
  0
VERTEX
  5
2BBF
  8
3
 10
36.745989771182003
 20
62.81910961605027
 30
0.0
  0
SEQEND
  5
2BC0
  8
3
  0
POLYLINE
  5
2BC1
  8
3
 66
     1
 10
0.0
 20
0.0
 30
0.0
 70
   128
  0
VERTEX
  5
2BC2
  8
3
 10
34.199607699656873
 20
62.937328507563308
 30
0.0
  0
VERTEX
  5
2BC3
  8
3
 10
34.22544931032175
 20
62.901120032555468
 30
0.0
  0
VERTEX
  5
2BC4
  8
3
 10
34.255482662983439
 20
62.861583190707989
 30
0.0
  0
VERTEX
  5
2BC5
  8
3
 10
34.289410260867577
 20
62.81910961605027
 30
0.0
  0
SEQEND
  5
2BC6
  8
3
  0
POLYLINE
  5
2BC7
  8
3
 66
     1
 10
0.0
 20
0.0
 30
0.0
 70
   128
  0
VERTEX
  5
2BC8
  8
3
 10
40.01079233239269
 20
62.937328507563308
 30
0.0
  0
VERTEX
  5
2BC9
  8
3
 10
39.98495072172782
 20
62.901120032555468
 30
0.0
  0
VERTEX
  5
2BCA
  8
3
 10
39.954917369066152
 20
62.861583190707989
 30
0.0
  0
VERTEX
  5
2BCB
  8
3
 10
39.920989771182008
 20
62.81910961605027
 30
0.0
  0
SEQEND
  5
2BCC
  8
3
  0
POLYLINE
  5
2BCD
  8
3
 66
     1
 10
0.0
 20
0.0
 30
0.0
 70
   128
  0
VERTEX
  5
2BCE
  8
3
 10
37.374607699656849
 20
62.937328507563308
 30
0.0
  0
VERTEX
  5
2BCF
  8
3
 10
37.400449310321733
 20
62.901120032555468
 30
0.0
  0
VERTEX
  5
2BD0
  8
3
 10
37.430482662983451
 20
62.861583190707989
 30
0.0
  0
VERTEX
  5
2BD1
  8
3
 10
37.464410260867567
 20
62.81910961605027
 30
0.0
  0
SEQEND
  5
2BD2
  8
3
  0
POLYLINE
  5
2BD3
  8
3
 66
     1
 10
0.0
 20
0.0
 30
0.0
 70
   128
  0
VERTEX
  5
2BD4
  8
3
 10
33.660792332392731
 20
62.937328507563308
 30
0.0
  0
VERTEX
  5
2BD5
  8
3
 10
33.634950721727847
 20
62.901120032555468
 30
0.0
  0
VERTEX
  5
2BD6
  8
3
 10
33.604917369066158
 20
62.861583190707989
 30
0.0
  0
VERTEX
  5
2BD7
  8
3
 10
33.57098977118202
 20
62.81910961605027
 30
0.0
  0
SEQEND
  5
2BD8
  8
3
  0
POLYLINE
  5
2BD9
  8
3
 66
     1
 10
0.0
 20
0.0
 30
0.0
 70
   128
  0
VERTEX
  5
2BDA
  8
3
 10
40.54960769965686
 20
62.937328507563308
 30
0.0
  0
VERTEX
  5
2BDB
  8
3
 10
40.575449310321737
 20
62.901120032555468
 30
0.0
  0
VERTEX
  5
2BDC
  8
3
 10
40.605482662983427
 20
62.861583190707989
 30
0.0
  0
VERTEX
  5
2BDD
  8
3
 10
40.639410260867542
 20
62.81910961605027
 30
0.0
  0
SEQEND
  5
2BDE
  8
3
  0
POLYLINE
  5
2BDF
  8
3
 66
     1
 10
0.0
 20
0.0
 30
0.0
 70
   128
  0
VERTEX
  5
2BE0
  8
3
 10
36.580175623129037
 20
61.877144950399952
 30
0.0
  0
VERTEX
  5
2BE1
  8
3
 10
36.643351941335943
 20
61.958092624470787
 30
0.0
  0
VERTEX
  5
2BE2
  8
3
 10
36.690296180801973
 20
62.026168447267899
 30
0.0
  0
VERTEX
  5
2BE3
  8
3
 10
36.7192043007311
 20
62.078756303098537
 30
0.0
  0
VERTEX
  5
2BE4
  8
3
 10
36.728965378286262
 20
62.113835270154823
 30
0.0
  0
VERTEX
  5
2BE5
  8
3
 10
36.719204300731057
 20
62.130057283405158
 30
0.0
  0
VERTEX
  5
2BE6
  8
3
 10
36.690296180801973
 20
62.126798939977839
 30
0.0
  0
VERTEX
  5
2BE7
  8
3
 10
36.643351941335943
 20
62.104185456183473
 30
0.0
  0
VERTEX
  5
2BE8
  8
3
 10
36.580175623129008
 20
62.063085855522438
 30
0.0
  0
SEQEND
  5
2BE9
  8
3
  0
LINE
  5
2BEA
  8
3
 10
35.644700016024821
 20
61.401604710104422
 30
0.0
 11
36.580175623129008
 21
62.063085855522431
 31
0.0
  0
LINE
  5
2BEB
  8
3
 10
35.644700016024821
 20
61.401604710104422
 30
0.0
 11
35.644700016024821
 21
61.470310636505339
 31
0.0
  0
LINE
  5
2BEC
  8
3
 10
35.644700016024821
 20
61.470310636505339
 30
0.0
 11
36.745989771182032
 21
62.819109616050248
 31
0.0
  0
LINE
  5
2BED
  8
3
 10
36.480908382963811
 20
61.755567907110382
 30
0.0
 11
36.835792332392742
 21
62.12297080676403
 31
0.0
  0
LINE
  5
2BEE
  8
3
 10
36.580175623129058
 20
61.877144950399938
 30
0.0
 11
36.480908382963811
 21
61.755567907110382
 31
0.0
  0
LINE
  5
2BEF
  8
3
 10
35.390700016024802
 20
61.470310636505339
 30
0.0
 11
34.289410260867577
 21
62.819109616050248
 31
0.0
  0
LINE
  5
2BF0
  8
3
 10
35.390700016024802
 20
61.401604710104422
 30
0.0
 11
35.390700016024802
 21
61.470310636505339
 31
0.0
  0
LINE
  5
2BF1
  8
3
 10
35.390700016024802
 20
61.401604710104422
 30
0.0
 11
34.4552244089206
 21
62.063085855522431
 31
0.0
  0
POLYLINE
  5
2BF2
  8
3
 66
     1
 10
0.0
 20
0.0
 30
0.0
 70
   128
  0
VERTEX
  5
2BF3
  8
3
 10
34.4552244089206
 20
61.877144950399952
 30
0.0
  0
VERTEX
  5
2BF4
  8
3
 10
34.392048090713651
 20
61.958092624470787
 30
0.0
  0
VERTEX
  5
2BF5
  8
3
 10
34.345103851247558
 20
62.026168447267899
 30
0.0
  0
VERTEX
  5
2BF6
  8
3
 10
34.316195731318523
 20
62.078756303098537
 30
0.0
  0
VERTEX
  5
2BF7
  8
3
 10
34.306434653763318
 20
62.113835270154823
 30
0.0
  0
VERTEX
  5
2BF8
  8
3
 10
34.316195731318523
 20
62.130057283405158
 30
0.0
  0
VERTEX
  5
2BF9
  8
3
 10
34.345103851247622
 20
62.126798939977839
 30
0.0
  0
VERTEX
  5
2BFA
  8
3
 10
34.392048090713651
 20
62.104185456183473
 30
0.0
  0
VERTEX
  5
2BFB
  8
3
 10
34.4552244089206
 20
62.063085855522438
 30
0.0
  0
SEQEND
  5
2BFC
  8
3
  0
LINE
  5
2BFD
  8
3
 10
34.4552244089206
 20
61.877144950399938
 30
0.0
 11
34.82148142193833
 21
61.428573552095251
 31
0.0
  0
POLYLINE
  5
2BFE
  8
3
 66
     1
 10
0.0
 20
0.0
 30
0.0
 70
   128
  0
VERTEX
  5
2BFF
  8
3
 10
34.199607699657548
 20
61.915571230072572
 30
0.0
  0
VERTEX
  5
2C00
  8
3
 10
34.39208613906235
 20
61.772687454362682
 30
0.0
  0
VERTEX
  5
2C01
  8
3
 10
34.599765231565947
 20
61.610051163118953
 30
0.0
  0
VERTEX
  5
2C02
  8
3
 10
34.82148142193833
 20
61.428573552095258
 30
0.0
  0
SEQEND
  5
2C03
  8
3
  0
LINE
  5
2C04
  8
3
 10
38.565700016024813
 20
61.470310636505339
 30
0.0
 11
37.464410260867602
 21
62.819109616050248
 31
0.0
  0
LINE
  5
2C05
  8
3
 10
38.565700016024813
 20
61.401604710104422
 30
0.0
 11
38.565700016024813
 21
61.470310636505339
 31
0.0
  0
LINE
  5
2C06
  8
3
 10
38.565700016024813
 20
61.401604710104422
 30
0.0
 11
37.630224408920562
 21
62.063085855522431
 31
0.0
  0
POLYLINE
  5
2C07
  8
3
 66
     1
 10
0.0
 20
0.0
 30
0.0
 70
   128
  0
VERTEX
  5
2C08
  8
3
 10
37.630224408920533
 20
61.877144950399952
 30
0.0
  0
VERTEX
  5
2C09
  8
3
 10
37.567048090713627
 20
61.958092624470787
 30
0.0
  0
VERTEX
  5
2C0A
  8
3
 10
37.520103851247598
 20
62.026168447267899
 30
0.0
  0
VERTEX
  5
2C0B
  8
3
 10
37.49119573131847
 20
62.078756303098537
 30
0.0
  0
VERTEX
  5
2C0C
  8
3
 10
37.481434653763301
 20
62.113835270154823
 30
0.0
  0
VERTEX
  5
2C0D
  8
3
 10
37.49119573131847
 20
62.130057283405158
 30
0.0
  0
VERTEX
  5
2C0E
  8
3
 10
37.520103851247598
 20
62.126798939977839
 30
0.0
  0
VERTEX
  5
2C0F
  8
3
 10
37.567048090713627
 20
62.104185456183473
 30
0.0
  0
VERTEX
  5
2C10
  8
3
 10
37.630224408920562
 20
62.063085855522438
 30
0.0
  0
SEQEND
  5
2C11
  8
3
  0
LINE
  5
2C12
  8
3
 10
37.630224408920562
 20
61.877144950399938
 30
0.0
 11
37.729491649085823
 21
61.755567907110382
 31
0.0
  0
LINE
  5
2C13
  8
3
 10
37.729491649085823
 20
61.755567907110382
 30
0.0
 11
37.374607699656877
 21
62.12297080676403
 31
0.0
  0
LINE
  5
2C14
  8
3
 10
39.75517562312902
 20
61.877144950399938
 30
0.0
 11
39.38891861011129
 21
61.428573552095251
 31
0.0
  0
POLYLINE
  5
2C15
  8
3
 66
     1
 10
0.0
 20
0.0
 30
0.0
 70
   128
  0
VERTEX
  5
2C16
  8
3
 10
39.755175623128991
 20
61.877144950399952
 30
0.0
  0
VERTEX
  5
2C17
  8
3
 10
39.818351941335948
 20
61.958092624470787
 30
0.0
  0
VERTEX
  5
2C18
  8
3
 10
39.865296180802012
 20
62.026168447267899
 30
0.0
  0
VERTEX
  5
2C19
  8
3
 10
39.894204300731083
 20
62.078756303098537
 30
0.0
  0
VERTEX
  5
2C1A
  8
3
 10
39.903965378286252
 20
62.113835270154823
 30
0.0
  0
VERTEX
  5
2C1B
  8
3
 10
39.894204300731083
 20
62.130057283405158
 30
0.0
  0
VERTEX
  5
2C1C
  8
3
 10
39.865296180801948
 20
62.126798939977839
 30
0.0
  0
VERTEX
  5
2C1D
  8
3
 10
39.818351941335948
 20
62.104185456183473
 30
0.0
  0
VERTEX
  5
2C1E
  8
3
 10
39.755175623128991
 20
62.063085855522438
 30
0.0
  0
SEQEND
  5
2C1F
  8
3
  0
LINE
  5
2C20
  8
3
 10
38.819700016024768
 20
61.401604710104422
 30
0.0
 11
39.75517562312902
 21
62.063085855522431
 31
0.0
  0
LINE
  5
2C21
  8
3
 10
38.819700016024768
 20
61.401604710104422
 30
0.0
 11
38.819700016024768
 21
61.470310636505339
 31
0.0
  0
LINE
  5
2C22
  8
3
 10
38.819700016024768
 20
61.470310636505339
 30
0.0
 11
39.920989771182029
 21
62.819109616050248
 31
0.0
  0
POLYLINE
  5
2C23
  8
3
 66
     1
 10
0.0
 20
0.0
 30
0.0
 70
   128
  0
VERTEX
  5
2C24
  8
3
 10
40.010792332392242
 20
61.915571230072679
 30
0.0
  0
VERTEX
  5
2C25
  8
3
 10
39.818313892987327
 20
61.77268745436276
 30
0.0
  0
VERTEX
  5
2C26
  8
3
 10
39.610634800483702
 20
61.61005116311901
 30
0.0
  0
VERTEX
  5
2C27
  8
3
 10
39.388918610111261
 20
61.428573552095258
 30
0.0
  0
SEQEND
  5
2C28
  8
3
  0
LINE
  5
2C29
  8
3
 10
41.740700016024789
 20
61.470310636505339
 30
0.0
 11
40.639410260867542
 21
62.819109616050248
 31
0.0
  0
LINE
  5
2C2A
  8
3
 10
41.740700016024789
 20
61.401604710104422
 30
0.0
 11
41.740700016024789
 21
61.470310636505339
 31
0.0
  0
LINE
  5
2C2B
  8
3
 10
41.740700016024789
 20
61.401604710104422
 30
0.0
 11
40.805224408920623
 21
62.063085855522431
 31
0.0
  0
POLYLINE
  5
2C2C
  8
3
 66
     1
 10
0.0
 20
0.0
 30
0.0
 70
   128
  0
VERTEX
  5
2C2D
  8
3
 10
40.80522440892053
 20
61.877144950399952
 30
0.0
  0
VERTEX
  5
2C2E
  8
3
 10
40.742048090713602
 20
61.958092624470787
 30
0.0
  0
VERTEX
  5
2C2F
  8
3
 10
40.69510385124758
 20
62.026168447267899
 30
0.0
  0
VERTEX
  5
2C30
  8
3
 10
40.666195731318467
 20
62.078756303098537
 30
0.0
  0
VERTEX
  5
2C31
  8
3
 10
40.656434653763341
 20
62.113835270154823
 30
0.0
  0
VERTEX
  5
2C32
  8
3
 10
40.666195731318467
 20
62.130057283405158
 30
0.0
  0
VERTEX
  5
2C33
  8
3
 10
40.69510385124758
 20
62.126798939977839
 30
0.0
  0
VERTEX
  5
2C34
  8
3
 10
40.742048090713631
 20
62.104185456183473
 30
0.0
  0
VERTEX
  5
2C35
  8
3
 10
40.805224408920587
 20
62.063085855522438
 30
0.0
  0
SEQEND
  5
2C36
  8
3
  0
LINE
  5
2C37
  8
3
 10
40.805224408920559
 20
61.877144950399938
 30
0.0
 11
41.740700016024789
 21
60.731425998287101
 31
0.0
  0
LINE
  5
2C38
  8
3
 10
41.740700016024789
 20
60.66568596083097
 30
0.0
 11
41.740700016024789
 21
60.731425998287101
 31
0.0
  0
LINE
  5
2C39
  8
3
 10
41.740700016024789
 20
60.66568596083097
 30
0.0
 11
40.732175922471271
 21
61.378820186372693
 31
0.0
  0
POLYLINE
  5
2C3A
  8
3
 66
     1
 10
0.0
 20
0.0
 30
0.0
 70
   128
  0
VERTEX
  5
2C3B
  8
3
 10
40.54960769965686
 20
61.691584408972119
 30
0.0
  0
VERTEX
  5
2C3C
  8
3
 10
40.617140797994857
 20
61.581139349932641
 30
0.0
  0
VERTEX
  5
2C3D
  8
3
 10
40.678035242044103
 20
61.476818876412722
 30
0.0
  0
VERTEX
  5
2C3E
  8
3
 10
40.732175922471242
 20
61.3788201863727
 30
0.0
  0
SEQEND
  5
2C3F
  8
3
  0
LINE
  5
2C40
  8
3
 10
32.469700016024802
 20
60.665685960830999
 30
0.0
 11
33.478224109578292
 21
61.378820186372693
 31
0.0
  0
LINE
  5
2C41
  8
3
 10
32.469700016024802
 20
60.665685960830999
 30
0.0
 11
32.469700016024802
 21
60.731425998287101
 31
0.0
  0
LINE
  5
2C42
  8
3
 10
33.405175623128997
 20
61.877144950399938
 30
0.0
 11
32.469700016024802
 21
60.731425998287101
 31
0.0
  0
POLYLINE
  5
2C43
  8
3
 66
     1
 10
0.0
 20
0.0
 30
0.0
 70
   128
  0
VERTEX
  5
2C44
  8
3
 10
33.405175623128997
 20
61.877144950399952
 30
0.0
  0
VERTEX
  5
2C45
  8
3
 10
33.468351941335953
 20
61.958092624470787
 30
0.0
  0
VERTEX
  5
2C46
  8
3
 10
33.515296180801982
 20
62.026168447267899
 30
0.0
  0
VERTEX
  5
2C47
  8
3
 10
33.544204300731082
 20
62.078756303098537
 30
0.0
  0
VERTEX
  5
2C48
  8
3
 10
33.553965378286279
 20
62.113835270154823
 30
0.0
  0
VERTEX
  5
2C49
  8
3
 10
33.544204300731082
 20
62.130057283405158
 30
0.0
  0
VERTEX
  5
2C4A
  8
3
 10
33.515296180801982
 20
62.126798939977839
 30
0.0
  0
VERTEX
  5
2C4B
  8
3
 10
33.468351941335953
 20
62.104185456183473
 30
0.0
  0
VERTEX
  5
2C4C
  8
3
 10
33.405175623128997
 20
62.063085855522438
 30
0.0
  0
SEQEND
  5
2C4D
  8
3
  0
LINE
  5
2C4E
  8
3
 10
32.469700016024802
 20
61.401604710104422
 30
0.0
 11
33.405175623128997
 21
62.063085855522431
 31
0.0
  0
LINE
  5
2C4F
  8
3
 10
32.469700016024802
 20
61.401604710104422
 30
0.0
 11
32.469700016024802
 21
61.470310636505339
 31
0.0
  0
LINE
  5
2C50
  8
3
 10
32.469700016024802
 20
61.470310636505339
 30
0.0
 11
33.57098977118202
 21
62.819109616050248
 31
0.0
  0
POLYLINE
  5
2C51
  8
3
 66
     1
 10
0.0
 20
0.0
 30
0.0
 70
   128
  0
VERTEX
  5
2C52
  8
3
 10
33.660792332392731
 20
61.691584408972119
 30
0.0
  0
VERTEX
  5
2C53
  8
3
 10
33.593259234054727
 20
61.581139349932641
 30
0.0
  0
VERTEX
  5
2C54
  8
3
 10
33.53236479000546
 20
61.476818876412722
 30
0.0
  0
VERTEX
  5
2C55
  8
3
 10
33.478224109578292
 20
61.3788201863727
 30
0.0
  0
SEQEND
  5
2C56
  8
3
  0
LINE
  5
2C57
  8
3
 10
32.469700016024802
 20
61.470310636505339
 30
0.0
 11
32.215700016024783
 21
61.470310636505339
 31
0.0
  0
LINE
  5
2C58
  8
3
 10
38.819700016024768
 20
61.470310636505339
 30
0.0
 11
38.565700016024813
 21
61.470310636505339
 31
0.0
  0
LINE
  5
2C59
  8
3
 10
41.994700016024801
 20
61.470310636505339
 30
0.0
 11
41.740700016024789
 21
61.470310636505339
 31
0.0
  0
LINE
  5
2C5A
  8
3
 10
35.644700016024821
 20
61.470310636505339
 30
0.0
 11
35.390700016024802
 21
61.470310636505339
 31
0.0
  0
LINE
  5
2C5B
  8
3
 10
32.469700016024802
 20
61.401604710104422
 30
0.0
 11
32.215700016024783
 21
61.401604710104422
 31
0.0
  0
LINE
  5
2C5C
  8
3
 10
38.819700016024768
 20
61.401604710104422
 30
0.0
 11
38.565700016024813
 21
61.401604710104422
 31
0.0
  0
LINE
  5
2C5D
  8
3
 10
35.644700016024821
 20
61.401604710104422
 30
0.0
 11
35.390700016024802
 21
61.401604710104422
 31
0.0
  0
LINE
  5
2C5E
  8
3
 10
41.994700016024801
 20
61.401604710104422
 30
0.0
 11
41.740700016024789
 21
61.401604710104422
 31
0.0
  0
POLYLINE
  5
2C5F
  8
3
 66
     1
 10
0.0
 20
0.0
 30
0.0
 70
   128
  0
VERTEX
  5
2C60
  8
3
 10
39.193466908349421
 20
61.665897814250201
 30
0.0
  0
VERTEX
  5
2C61
  8
3
 10
39.206299355478421
 20
61.651268659665448
 30
0.0
  0
VERTEX
  5
2C62
  8
3
 10
39.298551295874518
 20
61.542239313686309
 30
0.0
  0
VERTEX
  5
2C63
  8
3
 10
39.388918610111261
 20
61.428573552095258
 30
0.0
  0
SEQEND
  5
2C64
  8
3
  0
LINE
  5
2C65
  8
3
 10
38.065120462238013
 20
61.755567907110382
 30
0.0
 11
37.729491649085823
 21
61.755567907110382
 31
0.0
  0
LINE
  5
2C66
  8
3
 10
36.480908382963811
 20
61.755567907110382
 30
0.0
 11
36.145279569811613
 21
61.755567907110382
 31
0.0
  0
POLYLINE
  5
2C67
  8
3
 66
     1
 10
0.0
 20
0.0
 30
0.0
 70
   128
  0
VERTEX
  5
2C68
  8
3
 10
34.82148142193833
 20
61.428573552095258
 30
0.0
  0
VERTEX
  5
2C69
  8
3
 10
34.911848736175052
 20
61.542239313686309
 30
0.0
  0
VERTEX
  5
2C6A
  8
3
 10
35.004100676571142
 20
61.651268659665448
 30
0.0
  0
VERTEX
  5
2C6B
  8
3
 10
35.016933123700142
 20
61.665897814250201
 30
0.0
  0
SEQEND
  5
2C6C
  8
3
  0
LINE
  5
2C6D
  8
3
 10
32.469700016024802
 20
60.731425998287101
 30
0.0
 11
32.215700016024783
 21
60.731425998287101
 31
0.0
  0
LINE
  5
2C6E
  8
3
 10
41.994700016024801
 20
60.731425998287101
 30
0.0
 11
41.740700016024789
 21
60.731425998287101
 31
0.0
  0
LINE
  5
2C6F
  8
3
 10
35.098157976106371
 20
61.608463170312902
 30
0.0
 11
35.098157976106343
 21
61.4012467935516
 31
0.0
  0
LINE
  5
2C70
  8
3
 10
39.112242055943263
 20
61.608463170312902
 30
0.0
 11
39.112242055943227
 21
61.4012467935516
 31
0.0
  0
LINE
  5
2C71
  8
3
 10
41.994700016024801
 20
60.66568596083097
 30
0.0
 11
41.740700016024789
 21
60.66568596083097
 31
0.0
  0
LINE
  5
2C72
  8
3
 10
32.469700016024802
 20
60.665685960830999
 30
0.0
 11
32.215700016024783
 21
60.665685960830999
 31
0.0
  0
LINE
  5
2C73
  8
3
 10
36.836868576175142
 20
62.124080582889853
 30
0.0
 11
37.373531455874428
 21
62.124080582889853
 31
0.0
  0
LINE
  5
2C74
  8
0
 10
44.250200016024849
 20
61.401246793551628
 30
0.0
 11
43.034940121608848
 21
61.401246793551643
 31
0.0
  0
LINE
  5
2C75
  8
0
 10
31.175459910440878
 20
61.401246793551643
 30
0.0
 11
29.96020001602486
 21
61.401246793551643
 31
0.0
  0
LINE
  5
2C76
  8
0
 10
40.727138491019872
 20
61.401246793551643
 30
0.0
 11
33.490613987155683
 21
61.4012467935516
 31
0.0
  0
TEXT
  5
2D3E
  8
0
 62
     3
 10
0.0
 20
0.0
 30
0.0
 40
5.0
  1
MFSC-127-10
  7
STANDARD1
  0
ENDSEC
  0
EOF
