  0
SECTION
  2
HEADER
  9
$ACADVER
  1
AC1009
  9
$INSBASE
 10
0.0
 20
0.0
 30
0.0
  9
$EXTMIN
 10
0.0
 20
-2.960436562073669
 30
0.0
  9
$EXTMAX
 10
320.00000000000011
 20
315.5000002682209
 30
0.0
  9
$LIMMIN
 10
0.0
 20
0.0
  9
$LIMMAX
 10
187.5
 20
135.0
  9
$ORTHOMODE
 70
     1
  9
$REGENMODE
 70
     1
  9
$FILLMODE
 70
     1
  9
$QTEXTMODE
 70
     0
  9
$MIRRTEXT
 70
     0
  9
$DRAGMODE
 70
     2
  9
$LTSCALE
 40
10.0
  9
$OSMODE
 70
    37
  9
$ATTMODE
 70
     1
  9
$TEXTSIZE
 40
0.2
  9
$TRACEWID
 40
0.05
  9
$TEXTSTYLE
  7
STANDARD
  9
$CLAYER
  8
0
  9
$CELTYPE
  6
BYLAYER
  9
$CECOLOR
 62
   256
  9
$DIMSCALE
 40
2.0
  9
$DIMASZ
 40
3.0
  9
$DIMEXO
 40
1.0
  9
$DIMDLI
 40
0.38
  9
$DIMRND
 40
0.0
  9
$DIMDLE
 40
0.0
  9
$DIMEXE
 40
1.0
  9
$DIMTP
 40
0.0
  9
$DIMTM
 40
0.0
  9
$DIMTXT
 40
3.2000000000000002
  9
$DIMCEN
 40
0.0
  9
$DIMTSZ
 40
0.0
  9
$DIMTOL
 70
     0
  9
$DIMLIM
 70
     0
  9
$DIMTIH
 70
     0
  9
$DIMTOH
 70
     0
  9
$DIMSE1
 70
     0
  9
$DIMSE2
 70
     0
  9
$DIMTAD
 70
     1
  9
$DIMZIN
 70
     8
  9
$DIMBLK
  1

  9
$DIMASO
 70
     0
  9
$DIMSHO
 70
     0
  9
$DIMPOST
  1

  9
$DIMAPOST
  1

  9
$DIMALT
 70
     0
  9
$DIMALTD
 70
     2
  9
$DIMALTF
 40
25.399999999999999
  9
$DIMLFAC
 40
1.0
  9
$DIMTOFL
 70
     1
  9
$DIMTVP
 40
1.6000000000000001
  9
$DIMTIX
 70
     1
  9
$DIMSOXD
 70
     0
  9
$DIMSAH
 70
     0
  9
$DIMBLK1
  1

  9
$DIMBLK2
  1

  9
$DIMSTYLE
  2
STANDARD
  9
$DIMCLRD
 70
   256
  9
$DIMCLRE
 70
   256
  9
$DIMCLRT
 70
   256
  9
$DIMTFAC
 40
1.0
  9
$DIMGAP
 40
1.0
  9
$LUNITS
 70
     2
  9
$LUPREC
 70
     1
  9
$SKETCHINC
 40
0.1
  9
$FILLETRAD
 40
0.0
  9
$AUNITS
 70
     0
  9
$AUPREC
 70
     1
  9
$MENU
  1
E:\r13\win\SUPPORT\ACAD
  9
$ELEVATION
 40
0.0
  9
$PELEVATION
 40
0.0
  9
$THICKNESS
 40
0.0
  9
$LIMCHECK
 70
     0
  9
$BLIPMODE
 70
     0
  9
$CHAMFERA
 40
0.0
  9
$CHAMFERB
 40
0.0
  9
$SKPOLY
 70
     0
  9
$TDCREATE
 40
2449839.7732986109
  9
$TDUPDATE
 40
2458366.3861317481
  9
$TDINDWG
 40
0.2433833218
  9
$TDUSRTIMER
 40
0.2433833218
  9
$USRTIMER
 70
     1
  9
$ANGBASE
 50
0.0
  9
$ANGDIR
 70
     0
  9
$PDMODE
 70
     0
  9
$PDSIZE
 40
0.0
  9
$PLINEWID
 40
0.0
  9
$COORDS
 70
     1
  9
$SPLFRAME
 70
     0
  9
$SPLINETYPE
 70
     6
  9
$SPLINESEGS
 70
     8
  9
$ATTDIA
 70
     0
  9
$ATTREQ
 70
     1
  9
$HANDLING
 70
     1
  9
$HANDSEED
  5
3F2B
  9
$SURFTAB1
 70
     6
  9
$SURFTAB2
 70
     6
  9
$SURFTYPE
 70
     6
  9
$SURFU
 70
     6
  9
$SURFV
 70
     6
  9
$UCSNAME
  2

  9
$UCSORG
 10
0.0
 20
0.0
 30
0.0
  9
$UCSXDIR
 10
1.0
 20
0.0
 30
0.0
  9
$UCSYDIR
 10
0.0
 20
1.0
 30
0.0
  9
$PUCSNAME
  2

  9
$PUCSORG
 10
0.0
 20
0.0
 30
0.0
  9
$PUCSXDIR
 10
1.0
 20
0.0
 30
0.0
  9
$PUCSYDIR
 10
0.0
 20
1.0
 30
0.0
  9
$USERI1
 70
     0
  9
$USERI2
 70
     1
  9
$USERI3
 70
     0
  9
$USERI4
 70
     0
  9
$USERI5
 70
     0
  9
$USERR1
 40
0.0
  9
$USERR2
 40
0.0
  9
$USERR3
 40
0.0
  9
$USERR4
 40
0.0
  9
$USERR5
 40
0.0
  9
$WORLDVIEW
 70
     1
  9
$SHADEDGE
 70
     3
  9
$SHADEDIF
 70
    70
  9
$TILEMODE
 70
     1
  9
$MAXACTVP
 70
    16
  9
$PLIMCHECK
 70
     0
  9
$PEXTMIN
 10
1.0000000000000000E+020
 20
1.0000000000000000E+020
 30
1.0000000000000000E+020
  9
$PEXTMAX
 10
-1.0000000000000000E+020
 20
-1.0000000000000000E+020
 30
-1.0000000000000000E+020
  9
$PLIMMIN
 10
0.0
 20
0.0
  9
$PLIMMAX
 10
12.0
 20
9.0
  9
$UNITMODE
 70
     0
  9
$VISRETAIN
 70
     0
  9
$PLINEGEN
 70
     0
  9
$PSLTSCALE
 70
     0
  0
ENDSEC
  0
SECTION
  2
TABLES
  0
TABLE
  2
VPORT
 70
     1
  0
VPORT
  2
*ACTIVE
 70
     0
 10
0.0
 20
0.0
 11
1.0
 21
1.0
 12
363.24786324786322
 22
200.0
 13
0.0
 23
0.0
 14
5.0
 24
5.0
 15
5.0
 25
5.0
 16
0.0
 26
0.0
 36
1.0
 17
0.0
 27
0.0
 37
0.0
 40
400.0
 41
1.816239316239316
 42
50.0
 43
0.0
 44
0.0
 50
0.0
 51
0.0
 71
     0
 72
   500
 73
     1
 74
     0
 75
     0
 76
     0
 77
     0
 78
     2
  0
ENDTAB
  0
TABLE
  2
LTYPE
 70
     5
  0
LTYPE
  2
CONTINUOUS
 70
     0
  3
Solid Line
 72
    65
 73
     0
 40
0.0
  0
LTYPE
  2
CENTER
 70
     0
  3
____ _ ____ _ ____ _ ____ _ ____ _ ____ _ ____
 72
    65
 73
     4
 40
2.0
 49
1.25
 49
-0.25
 49
0.25
 49
-0.25
  0
LTYPE
  2
HIDDEN
 70
     0
  3
_ _ _ _ _ _ _ _ _ _ _ _ _ _ _ _ _ _ _ _ _ _ _
 72
    65
 73
     2
 40
0.375
 49
0.25
 49
-0.125
  0
LTYPE
  2
PHANTOM2
 70
     0
  3
___ _ _ ___ _ _ ___ _ _ ___ _ _
 72
    65
 73
     6
 40
1.25
 49
0.625
 49
-0.125
 49
0.125
 49
-0.125
 49
0.125
 49
-0.125
  0
LTYPE
  2
PHANTOM
 70
     0
  3
______  __  __  ______  __  __  ______  __  __ 
 72
    65
 73
     6
 40
2.5
 49
1.25
 49
-0.25
 49
0.25
 49
-0.25
 49
0.25
 49
-0.25
  0
ENDTAB
  0
TABLE
  2
LAYER
 70
     6
  0
LAYER
  2
0
 70
     0
 62
     7
  6
CONTINUOUS
  0
LAYER
  2
1
 70
     0
 62
     1
  6
CENTER
  0
LAYER
  2
2
 70
     0
 62
     2
  6
HIDDEN
  0
LAYER
  2
3
 70
     0
 62
     3
  6
CONTINUOUS
  0
LAYER
  2
5
 70
     0
 62
     3
  6
PHANTOM
  0
LAYER
  2
DEFPOINTS
 70
     0
 62
     7
  6
CONTINUOUS
  0
ENDTAB
  0
TABLE
  2
STYLE
 70
     2
  0
STYLE
  2
STANDARD
 70
     0
 40
0.0
 41
1.0
 50
0.0
 71
     0
 42
0.2
  3
TXT
  4
BIGFONT
  0
STYLE
  2
STANDARD1
 70
     0
 40
0.0
 41
1.0
 50
0.0
 71
     0
 42
3.0
  3
txt
  4

  0
ENDTAB
  0
TABLE
  2
VIEW
 70
     1
  0
VIEW
  2
ALL
 70
     0
 40
270.0
 10
220.99159663865549
 20
135.0
 41
0.0
 11
0.0
 21
0.0
 31
1.0
 12
0.0
 22
0.0
 32
0.0
 42
0.0
 43
0.0
 44
0.0
 50
0.0
 71
     0
  0
ENDTAB
  0
TABLE
  2
UCS
 70
     0
  0
ENDTAB
  0
TABLE
  2
APPID
 70
    42
  0
APPID
  2
ACAD
 70
     0
  0
APPID
  2
ACAD_MLEADERVER
 70
     0
  0
APPID
  2
ACAD_NAV_VCDISPLAY
 70
     0
  0
APPID
  2
ACAD_EXEMPT_FROM_CAD_STANDARDS
 70
     0
  0
APPID
  2
ACAD_DSTYLE_DIMJAG
 70
     0
  0
APPID
  2
ACAD_DSTYLE_DIMTALN
 70
     0
  0
APPID
  2
ACAD_DSTYLE_DIMRADIAL_EXTENSION
 70
     0
  0
APPID
  2
DCO15
 70
     0
  0
APPID
  2
GENIUS_GENOREF_13
 70
     0
  0
APPID
  2
GENIUS_GENOENT_13
 70
     0
  0
APPID
  2
GENIUS_GENBH_13
 70
     0
  0
APPID
  2
GENIUS_GENOBJ_13
 70
     0
  0
APPID
  2
GENIUS_GENODEF_13
 70
     0
  0
APPID
  2
GENIUS_GENOLIS_13
 70
     0
  0
APPID
  2
GENIUS_GENOBJ-NBEHI-BHF_13
 70
     0
  0
APPID
  2
GENIUS_GENOBJ-NBEHI-BHB_13
 70
     0
  0
APPID
  2
GENIUS_GENOBJ-F-PART_13
 70
     0
  0
APPID
  2
GENIUS_GEFSTDP_13
 70
     0
  0
APPID
  2
GENIUS_GENOBJ-N-RSSYM_13
 70
     0
  0
APPID
  2
GENIUS_GENSYMENT_13
 70
     0
  0
APPID
  2
GENIUS_GENOBJ-N-TIT_13
 70
     0
  0
APPID
  2
GENIUS_GENTITLE_13
 70
     0
  0
APPID
  2
GENIUS_GENZVEED_13
 70
     0
  0
APPID
  2
GENIUS_GENOBJ-N-LEADER_13
 70
     0
  0
APPID
  2
GENIUS_GENOBJ-N-FIL_13
 70
     0
  0
APPID
  2
GENIUS_GENOBJ-N-SEC_13
 70
     0
  0
APPID
  2
GENIUS_GENOBJ-N-CRS_13
 70
     0
  0
APPID
  2
GENIUS_GENOBJ-N-ZOO_13
 70
     0
  0
APPID
  2
GENIUS_GENZOO_13
 70
     0
  0
APPID
  2
GENIUS_GENOBJ-F-TOL_13
 70
     0
  0
APPID
  2
GENIUS_GENFIL_13
 70
     0
  0
APPID
  2
GENIUS_GENOBJ-N-CHA_13
 70
     0
  0
APPID
  2
_CALL_MAC$
 70
     0
  0
APPID
  2
ASM_BASE
 70
     0
  0
APPID
  2
ASM_EXPLO_VER_2_00
 70
     0
  0
APPID
  2
ASM_CADM_VER_12_00
 70
     0
  0
APPID
  2
ASM_BASEFORO
 70
     0
  0
APPID
  2
ASM_BASETRAVI
 70
     0
  0
APPID
  2
ASM_BASETRAVI1
 70
     0
  0
APPID
  2
ASM_GRUPPI
 70
     0
  0
APPID
  2
ASM_CADM_ALBERO
 70
     0
  0
APPID
  2
ASM_GOLE
 70
     0
  0
ENDTAB
  0
TABLE
  2
DIMSTYLE
 70
     1
  0
DIMSTYLE
  2
STANDARD
 70
     0
  3

  4

  5

  6

  7

 40
1.0
 41
0.18
 42
0.0625
 43
0.38
 44
0.18
 45
0.0
 46
0.0
 47
0.0
 48
0.0
140
0.18
141
0.09
142
0.0
143
25.399999999999999
144
1.0
145
0.0
146
1.0
147
0.09
 71
     0
 72
     0
 73
     1
 74
     1
 75
     0
 76
     0
 77
     0
 78
     0
170
     0
171
     2
172
     0
173
     0
174
     0
175
     0
176
     0
177
     0
178
     0
  0
ENDTAB
  0
ENDSEC
  0
SECTION
  2
BLOCKS
  0
BLOCK
  8
0
  2
$MODEL_SPACE
 70
     0
 10
0.0
 20
0.0
 30
0.0
  3
$MODEL_SPACE
  1

  0
ENDBLK
  5
1D4
  8
0
  0
BLOCK
 67
     1
  8
0
  2
$PAPER_SPACE
 70
     0
 10
0.0
 20
0.0
 30
0.0
  3
$PAPER_SPACE
  1

  0
ENDBLK
  5
1D2
 67
     1
  8
0
  0
ENDSEC
  0
SECTION
  2
ENTITIES
  0
CIRCLE
  5
59E
  8
3
 10
275.0
 20
155.50000026822079
 30
0.0
 40
4.0
  0
CIRCLE
  5
59F
  8
0
 10
275.0
 20
155.50000026822079
 30
0.0
 40
3.3235000000000001
  0
LINE
  5
5A0
  8
0
 10
264.0
 20
260.80940134497939
 30
0.0
 11
264.0
 21
256.1905991914623
 31
0.0
  0
LINE
  5
5A1
  8
0
 10
260.0
 20
263.11880242173788
 30
0.0
 11
264.0
 21
260.80940134497939
 31
0.0
  0
LINE
  5
5A2
  8
0
 10
256.00000000000011
 20
260.80940134497939
 30
0.0
 11
260.0
 21
263.11880242173788
 31
0.0
  0
LINE
  5
5A3
  8
0
 10
256.0
 20
256.19059919146252
 30
0.0
 11
256.00000000000011
 21
260.80940134497939
 31
0.0
  0
LINE
  5
5A4
  8
0
 10
260.0
 20
253.88119811470389
 30
0.0
 11
256.0
 21
256.19059919146252
 31
0.0
  0
LINE
  5
5A5
  8
0
 10
264.0
 20
256.1905991914623
 30
0.0
 11
260.0
 21
253.88119811470389
 31
0.0
  0
LINE
  5
5A6
  8
0
 10
294.0
 20
260.80940134497939
 30
0.0
 11
294.0
 21
256.1905991914623
 31
0.0
  0
LINE
  5
5A7
  8
0
 10
290.0
 20
263.11880242173788
 30
0.0
 11
294.0
 21
260.80940134497939
 31
0.0
  0
LINE
  5
5A8
  8
0
 10
286.00000000000011
 20
260.80940134497939
 30
0.0
 11
290.0
 21
263.11880242173788
 31
0.0
  0
LINE
  5
5A9
  8
0
 10
286.0
 20
256.19059919146252
 30
0.0
 11
286.00000000000011
 21
260.80940134497939
 31
0.0
  0
LINE
  5
5AA
  8
0
 10
289.99999999999989
 20
253.88119811470401
 30
0.0
 11
286.0
 21
256.19059919146252
 31
0.0
  0
LINE
  5
5AB
  8
0
 10
294.0
 20
256.1905991914623
 30
0.0
 11
289.99999999999989
 21
253.88119811470401
 31
0.0
  0
LINE
  5
5AC
  8
0
 10
294.0
 20
284.80940134497939
 30
0.0
 11
294.0
 21
280.1905991914623
 31
0.0
  0
LINE
  5
5AD
  8
0
 10
290.0
 20
287.11880242173788
 30
0.0
 11
294.0
 21
284.80940134497939
 31
0.0
  0
LINE
  5
5AE
  8
0
 10
286.00000000000011
 20
284.80940134497939
 30
0.0
 11
290.0
 21
287.11880242173788
 31
0.0
  0
LINE
  5
5AF
  8
0
 10
286.0
 20
280.19059919146252
 30
0.0
 11
286.00000000000011
 21
284.80940134497939
 31
0.0
  0
LINE
  5
5B0
  8
0
 10
289.99999999999989
 20
277.88119811470398
 30
0.0
 11
286.0
 21
280.19059919146252
 31
0.0
  0
LINE
  5
5B1
  8
0
 10
294.0
 20
280.1905991914623
 30
0.0
 11
289.99999999999989
 21
277.88119811470398
 31
0.0
  0
LINE
  5
5B2
  8
0
 10
264.0
 20
284.80940134497939
 30
0.0
 11
264.0
 21
280.1905991914623
 31
0.0
  0
LINE
  5
5B3
  8
0
 10
260.0
 20
287.11880242173788
 30
0.0
 11
264.0
 21
284.80940134497939
 31
0.0
  0
LINE
  5
5B4
  8
0
 10
256.00000000000011
 20
284.80940134497939
 30
0.0
 11
260.0
 21
287.11880242173788
 31
0.0
  0
LINE
  5
5B5
  8
0
 10
256.0
 20
280.19059919146252
 30
0.0
 11
256.00000000000011
 21
284.80940134497939
 31
0.0
  0
LINE
  5
5B6
  8
0
 10
260.0
 20
277.88119811470392
 30
0.0
 11
256.0
 21
280.19059919146252
 31
0.0
  0
LINE
  5
5B7
  8
0
 10
264.0
 20
280.1905991914623
 30
0.0
 11
260.0
 21
277.88119811470392
 31
0.0
  0
LINE
  5
5B8
  8
0
 10
302.5
 20
239.21651745505051
 30
0.0
 11
302.5
 21
231.7834830813913
 31
0.0
  0
LINE
  5
5B9
  8
0
 10
301.5
 20
239.21651745505051
 30
0.0
 11
301.5
 21
231.7834830813913
 31
0.0
  0
LINE
  5
5BA
  8
0
 10
302.5
 20
309.21651745505051
 30
0.0
 11
302.5
 21
301.7834830813913
 31
0.0
  0
LINE
  5
5BB
  8
0
 10
301.5
 20
309.21651745505051
 30
0.0
 11
301.5
 21
301.7834830813913
 31
0.0
  0
LINE
  5
5BC
  8
0
 10
247.5
 20
239.21651745505051
 30
0.0
 11
247.5
 21
231.7834830813913
 31
0.0
  0
LINE
  5
5BD
  8
0
 10
248.5
 20
239.21651745505051
 30
0.0
 11
248.5
 21
231.7834830813913
 31
0.0
  0
LINE
  5
5BE
  8
0
 10
247.5
 20
309.21651745505051
 30
0.0
 11
247.5
 21
301.7834830813913
 31
0.0
  0
LINE
  5
5BF
  8
0
 10
248.5
 20
309.21651745505051
 30
0.0
 11
248.5
 21
301.7834830813913
 31
0.0
  0
LINE
  5
5C0
  8
1
 10
290.0
 20
272.0000002682209
 30
0.0
 11
290.0
 21
271.5000002682209
 31
0.0
  0
LINE
  5
5C1
  8
1
 10
301.0
 20
258.5000002682209
 30
0.0
 11
279.0
 21
258.5000002682209
 31
0.0
  0
LINE
  5
5C2
  8
1
 10
260.0
 20
272.0000002682209
 30
0.0
 11
260.0
 21
271.5000002682209
 31
0.0
  0
LINE
  5
5C3
  8
1
 10
271.0
 20
258.5000002682209
 30
0.0
 11
249.0
 21
258.5000002682209
 31
0.0
  0
LINE
  5
5C4
  8
1
 10
260.0
 20
293.5000002682209
 30
0.0
 11
260.0
 21
271.5000002682209
 31
0.0
  0
LINE
  5
5C5
  8
1
 10
271.0
 20
282.5000002682209
 30
0.0
 11
249.0
 21
282.5000002682209
 31
0.0
  0
LINE
  5
5C6
  8
1
 10
290.0
 20
293.5000002682209
 30
0.0
 11
290.0
 21
271.5000002682209
 31
0.0
  0
LINE
  5
5C7
  8
1
 10
301.0
 20
282.5000002682209
 30
0.0
 11
279.0
 21
282.5000002682209
 31
0.0
  0
LINE
  5
5C8
  8
1
 10
320.00000000000011
 20
270.50000026822079
 30
0.0
 11
230.0
 21
270.5000002682209
 31
0.0
  0
LINE
  5
5D1
  8
0
 10
308.9500000000001
 20
225.5000002682209
 30
0.0
 11
310.0
 21
226.10621805087001
 31
0.0
  0
LINE
  5
5D2
  8
0
 10
308.9500000000001
 20
227.5000002682209
 30
0.0
 11
310.0
 21
228.10621805087001
 31
0.0
  0
LINE
  5
5D3
  8
0
 10
310.0
 20
226.89378248557179
 30
0.0
 11
308.9500000000001
 21
227.5000002682209
 31
0.0
  0
LINE
  5
5D4
  8
0
 10
310.0
 20
228.89378248557179
 30
0.0
 11
308.9500000000001
 21
229.5000002682209
 31
0.0
  0
LINE
  5
5D5
  8
0
 10
308.9500000000001
 20
229.5000002682209
 30
0.0
 11
310.0
 21
230.10621805087001
 31
0.0
  0
LINE
  5
5D6
  8
0
 10
310.0
 20
230.89378248557179
 30
0.0
 11
308.9500000000001
 21
231.5000002682209
 31
0.0
  0
LINE
  5
5D7
  8
0
 10
310.0
 20
232.89378248557179
 30
0.0
 11
308.9500000000001
 21
233.5000002682209
 31
0.0
  0
LINE
  5
5D8
  8
0
 10
308.9500000000001
 20
231.5000002682209
 30
0.0
 11
310.0
 21
232.10621805087001
 31
0.0
  0
LINE
  5
5D9
  8
0
 10
308.9500000000001
 20
233.5000002682209
 30
0.0
 11
310.0
 21
234.10621805087001
 31
0.0
  0
LINE
  5
5DA
  8
0
 10
310.0
 20
234.89378248557179
 30
0.0
 11
308.9500000000001
 21
235.5000002682209
 31
0.0
  0
LINE
  5
5DB
  8
0
 10
310.0
 20
236.89378248557179
 30
0.0
 11
308.9500000000001
 21
237.5000002682209
 31
0.0
  0
LINE
  5
5DC
  8
0
 10
308.9500000000001
 20
235.5000002682209
 30
0.0
 11
310.0
 21
236.10621805087001
 31
0.0
  0
LINE
  5
5DD
  8
0
 10
308.9500000000001
 20
237.5000002682209
 30
0.0
 11
310.0
 21
238.10621805087001
 31
0.0
  0
LINE
  5
5DE
  8
0
 10
310.0
 20
238.89378248557179
 30
0.0
 11
308.9500000000001
 21
239.5000002682209
 31
0.0
  0
LINE
  5
5DF
  8
0
 10
310.0
 20
240.89378248557179
 30
0.0
 11
308.9500000000001
 21
241.5000002682209
 31
0.0
  0
LINE
  5
5E0
  8
0
 10
308.9500000000001
 20
239.5000002682209
 30
0.0
 11
310.0
 21
240.10621805087001
 31
0.0
  0
LINE
  5
5E1
  8
0
 10
308.9500000000001
 20
241.5000002682209
 30
0.0
 11
310.0
 21
242.10621805087001
 31
0.0
  0
LINE
  5
5E2
  8
0
 10
310.0
 20
242.89378248557179
 30
0.0
 11
308.9500000000001
 21
243.5000002682209
 31
0.0
  0
LINE
  5
5E3
  8
0
 10
310.0
 20
244.89378248557179
 30
0.0
 11
308.9500000000001
 21
245.5000002682209
 31
0.0
  0
LINE
  5
5E4
  8
0
 10
308.9500000000001
 20
243.5000002682209
 30
0.0
 11
310.0
 21
244.10621805087001
 31
0.0
  0
LINE
  5
5E5
  8
0
 10
308.9500000000001
 20
245.5000002682209
 30
0.0
 11
310.0
 21
246.10621805087001
 31
0.0
  0
LINE
  5
5E6
  8
0
 10
310.0
 20
246.89378248557179
 30
0.0
 11
308.9500000000001
 21
247.5000002682209
 31
0.0
  0
LINE
  5
5E7
  8
0
 10
310.0
 20
248.89378248557179
 30
0.0
 11
308.9500000000001
 21
249.5000002682209
 31
0.0
  0
LINE
  5
5E8
  8
0
 10
308.9500000000001
 20
247.5000002682209
 30
0.0
 11
310.0
 21
248.10621805087001
 31
0.0
  0
LINE
  5
5E9
  8
0
 10
308.9500000000001
 20
249.5000002682209
 30
0.0
 11
310.0
 21
250.10621805087001
 31
0.0
  0
LINE
  5
5EA
  8
0
 10
310.0
 20
250.89378248557179
 30
0.0
 11
308.9500000000001
 21
251.5000002682209
 31
0.0
  0
LINE
  5
5EB
  8
0
 10
308.25
 20
266.20000026822072
 30
0.0
 11
308.25
 21
274.80000026822108
 31
0.0
  0
LINE
  5
5EC
  8
0
 10
308.9500000000001
 20
265.5000002682209
 30
0.0
 11
308.25
 21
266.20000026822072
 31
0.0
  0
LINE
  5
5ED
  8
0
 10
308.25
 20
274.80000026822108
 30
0.0
 11
308.9500000000001
 21
275.5000002682209
 31
0.0
  0
LINE
  5
5EE
  8
0
 10
308.9500000000001
 20
289.5000002682209
 30
0.0
 11
310.0
 21
290.10621805086998
 31
0.0
  0
LINE
  5
5EF
  8
0
 10
310.0
 20
290.89378248557182
 30
0.0
 11
308.9500000000001
 21
291.5000002682209
 31
0.0
  0
LINE
  5
5F0
  8
0
 10
310.0
 20
292.89378248557182
 30
0.0
 11
308.9500000000001
 21
293.5000002682209
 31
0.0
  0
LINE
  5
5F1
  8
0
 10
308.9500000000001
 20
291.5000002682209
 30
0.0
 11
310.0
 21
292.10621805086998
 31
0.0
  0
LINE
  5
5F2
  8
0
 10
308.9500000000001
 20
293.5000002682209
 30
0.0
 11
310.0
 21
294.10621805086998
 31
0.0
  0
LINE
  5
5F3
  8
0
 10
310.0
 20
294.89378248557182
 30
0.0
 11
308.9500000000001
 21
295.5000002682209
 31
0.0
  0
LINE
  5
5F4
  8
0
 10
310.0
 20
296.89378248557182
 30
0.0
 11
308.9500000000001
 21
297.5000002682209
 31
0.0
  0
LINE
  5
5F5
  8
0
 10
308.9500000000001
 20
295.5000002682209
 30
0.0
 11
310.0
 21
296.10621805086998
 31
0.0
  0
LINE
  5
5F6
  8
0
 10
308.9500000000001
 20
297.5000002682209
 30
0.0
 11
310.0
 21
298.10621805086998
 31
0.0
  0
LINE
  5
5F7
  8
0
 10
310.0
 20
298.89378248557182
 30
0.0
 11
308.9500000000001
 21
299.5000002682209
 31
0.0
  0
LINE
  5
5F8
  8
0
 10
310.0
 20
300.89378248557182
 30
0.0
 11
308.9500000000001
 21
301.5000002682209
 31
0.0
  0
LINE
  5
5F9
  8
0
 10
308.9500000000001
 20
299.5000002682209
 30
0.0
 11
310.0
 21
300.10621805086998
 31
0.0
  0
LINE
  5
5FA
  8
0
 10
308.9500000000001
 20
301.5000002682209
 30
0.0
 11
310.0
 21
302.10621805086998
 31
0.0
  0
LINE
  5
5FB
  8
0
 10
310.0
 20
302.89378248557182
 30
0.0
 11
308.9500000000001
 21
303.5000002682209
 31
0.0
  0
LINE
  5
5FC
  8
0
 10
310.0
 20
304.89378248557182
 30
0.0
 11
308.9500000000001
 21
305.5000002682209
 31
0.0
  0
LINE
  5
5FD
  8
0
 10
308.9500000000001
 20
303.5000002682209
 30
0.0
 11
310.0
 21
304.10621805086998
 31
0.0
  0
LINE
  5
5FE
  8
0
 10
308.9500000000001
 20
305.5000002682209
 30
0.0
 11
310.0
 21
306.10621805086998
 31
0.0
  0
LINE
  5
5FF
  8
0
 10
310.0
 20
306.89378248557182
 30
0.0
 11
308.9500000000001
 21
307.5000002682209
 31
0.0
  0
LINE
  5
600
  8
0
 10
310.0
 20
308.89378248557182
 30
0.0
 11
308.9500000000001
 21
309.5000002682209
 31
0.0
  0
LINE
  5
601
  8
0
 10
308.9500000000001
 20
307.5000002682209
 30
0.0
 11
310.0
 21
308.10621805086998
 31
0.0
  0
LINE
  5
602
  8
0
 10
308.9500000000001
 20
309.5000002682209
 30
0.0
 11
310.0
 21
310.10621805086998
 31
0.0
  0
LINE
  5
603
  8
0
 10
310.0
 20
310.89378248557182
 30
0.0
 11
308.9500000000001
 21
311.5000002682209
 31
0.0
  0
LINE
  5
604
  8
0
 10
308.9500000000001
 20
311.5000002682209
 30
0.0
 11
310.0
 21
312.10621805086998
 31
0.0
  0
LINE
  5
605
  8
0
 10
308.9500000000001
 20
313.5000002682209
 30
0.0
 11
310.0
 21
314.10621805086998
 31
0.0
  0
LINE
  5
606
  8
0
 10
310.0
 20
312.89378248557182
 30
0.0
 11
308.9500000000001
 21
313.5000002682209
 31
0.0
  0
LINE
  5
607
  8
0
 10
310.0
 20
314.89378248557182
 30
0.0
 11
308.9500000000001
 21
315.5000002682209
 31
0.0
  0
LINE
  5
608
  8
0
 10
310.0
 20
288.89378248557182
 30
0.0
 11
308.9500000000001
 21
289.5000002682209
 31
0.0
  0
LINE
  5
609
  8
0
 10
308.9500000000001
 20
287.5000002682209
 30
0.0
 11
310.0
 21
288.10621805086998
 31
0.0
  0
LINE
  5
60A
  8
0
 10
308.9500000000001
 20
285.5000002682209
 30
0.0
 11
310.0
 21
286.10621805086998
 31
0.0
  0
LINE
  5
60B
  8
0
 10
310.0
 20
286.89378248557182
 30
0.0
 11
308.9500000000001
 21
287.5000002682209
 31
0.0
  0
LINE
  5
60C
  8
0
 10
310.0
 20
284.89378248557182
 30
0.0
 11
308.9500000000001
 21
285.5000002682209
 31
0.0
  0
LINE
  5
60D
  8
0
 10
308.9500000000001
 20
283.5000002682209
 30
0.0
 11
310.0
 21
284.10621805086998
 31
0.0
  0
LINE
  5
60E
  8
0
 10
308.9500000000001
 20
281.5000002682209
 30
0.0
 11
310.0
 21
282.10621805086998
 31
0.0
  0
LINE
  5
60F
  8
0
 10
310.0
 20
282.89378248557182
 30
0.0
 11
308.9500000000001
 21
283.5000002682209
 31
0.0
  0
LINE
  5
610
  8
0
 10
310.0
 20
280.89378248557182
 30
0.0
 11
308.9500000000001
 21
281.5000002682209
 31
0.0
  0
LINE
  5
611
  8
0
 10
308.9500000000001
 20
279.5000002682209
 30
0.0
 11
310.0
 21
280.10621805086998
 31
0.0
  0
LINE
  5
612
  8
0
 10
308.9500000000001
 20
277.5000002682209
 30
0.0
 11
310.0
 21
278.10621805086998
 31
0.0
  0
LINE
  5
613
  8
0
 10
310.0
 20
278.89378248557182
 30
0.0
 11
308.9500000000001
 21
279.5000002682209
 31
0.0
  0
LINE
  5
614
  8
0
 10
310.0
 20
276.89378248557182
 30
0.0
 11
308.9500000000001
 21
277.5000002682209
 31
0.0
  0
LINE
  5
615
  8
0
 10
308.9500000000001
 20
275.5000002682209
 30
0.0
 11
310.0
 21
276.10621805086998
 31
0.0
  0
LINE
  5
616
  8
0
 10
310.0
 20
252.89378248557179
 30
0.0
 11
308.9500000000001
 21
253.5000002682209
 31
0.0
  0
LINE
  5
617
  8
0
 10
308.9500000000001
 20
251.5000002682209
 30
0.0
 11
310.0
 21
252.10621805087001
 31
0.0
  0
LINE
  5
618
  8
0
 10
308.9500000000001
 20
253.5000002682209
 30
0.0
 11
310.0
 21
254.10621805087001
 31
0.0
  0
LINE
  5
619
  8
0
 10
310.0
 20
254.89378248557179
 30
0.0
 11
308.9500000000001
 21
255.5000002682209
 31
0.0
  0
LINE
  5
61A
  8
0
 10
310.0
 20
256.89378248557182
 30
0.0
 11
308.9500000000001
 21
257.5000002682209
 31
0.0
  0
LINE
  5
61B
  8
0
 10
308.9500000000001
 20
255.5000002682209
 30
0.0
 11
310.0
 21
256.10621805086998
 31
0.0
  0
LINE
  5
61C
  8
0
 10
308.9500000000001
 20
257.5000002682209
 30
0.0
 11
310.0
 21
258.10621805086998
 31
0.0
  0
LINE
  5
61D
  8
0
 10
310.0
 20
258.89378248557182
 30
0.0
 11
308.9500000000001
 21
259.5000002682209
 31
0.0
  0
LINE
  5
61E
  8
0
 10
310.0
 20
260.89378248557182
 30
0.0
 11
308.9500000000001
 21
261.5000002682209
 31
0.0
  0
LINE
  5
61F
  8
0
 10
308.9500000000001
 20
259.5000002682209
 30
0.0
 11
310.0
 21
260.10621805086998
 31
0.0
  0
LINE
  5
620
  8
0
 10
308.9500000000001
 20
261.5000002682209
 30
0.0
 11
310.0
 21
262.10621805086998
 31
0.0
  0
LINE
  5
621
  8
0
 10
310.0
 20
262.89378248557182
 30
0.0
 11
308.9500000000001
 21
263.5000002682209
 31
0.0
  0
LINE
  5
622
  8
0
 10
310.0
 20
264.89378248557182
 30
0.0
 11
308.9500000000001
 21
265.5000002682209
 31
0.0
  0
LINE
  5
623
  8
0
 10
308.9500000000001
 20
263.5000002682209
 30
0.0
 11
310.0
 21
264.10621805086998
 31
0.0
  0
LINE
  5
624
  8
0
 10
240.0
 20
225.5000002682209
 30
0.0
 11
240.0
 21
315.5000002682209
 31
0.0
  0
LINE
  5
625
  8
1
 10
275.0
 20
162.50000026822079
 30
0.0
 11
275.0
 21
148.50000026822079
 31
0.0
  0
LINE
  5
626
  8
1
 10
282.0
 20
155.5000002682209
 30
0.0
 11
268.0
 21
155.5000002682209
 31
0.0
  0
LINE
  5
627
  8
0
 10
309.99999999999989
 20
146.89378248557171
 30
0.0
 11
309.99999999999989
 21
146.10621805087001
 31
0.0
  0
LINE
  5
628
  8
0
 10
309.99999999999989
 20
152.89378248557171
 30
0.0
 11
309.99999999999989
 21
152.10621805087001
 31
0.0
  0
LINE
  5
629
  8
0
 10
309.99999999999989
 20
154.89378248557171
 30
0.0
 11
309.99999999999989
 21
154.10621805087001
 31
0.0
  0
LINE
  5
62A
  8
0
 10
309.99999999999989
 20
158.89378248557171
 30
0.0
 11
309.99999999999989
 21
158.10621805087001
 31
0.0
  0
LINE
  5
62B
  8
0
 10
309.99999999999989
 20
156.89378248557171
 30
0.0
 11
309.99999999999989
 21
156.10621805087001
 31
0.0
  0
LINE
  5
62C
  8
0
 10
309.99999999999989
 20
160.89378248557171
 30
0.0
 11
309.99999999999989
 21
160.10621805087001
 31
0.0
  0
LINE
  5
62D
  8
0
 10
309.99999999999989
 20
162.89378248557171
 30
0.0
 11
309.99999999999989
 21
162.1062180508699
 31
0.0
  0
LINE
  5
62E
  8
0
 10
309.99999999999989
 20
164.89378248557171
 30
0.0
 11
309.99999999999989
 21
164.10621805087001
 31
0.0
  0
LINE
  5
62F
  8
0
 10
309.99999999999989
 20
166.89378248557171
 30
0.0
 11
309.99999999999989
 21
166.1062180508699
 31
0.0
  0
LINE
  5
630
  8
0
 10
309.99999999999989
 20
168.89378248557171
 30
0.0
 11
309.99999999999989
 21
168.10621805087001
 31
0.0
  0
LINE
  5
631
  8
0
 10
309.99999999999989
 20
170.89378248557171
 30
0.0
 11
309.99999999999989
 21
170.10621805087001
 31
0.0
  0
LINE
  5
632
  8
0
 10
309.99999999999989
 20
172.89378248557171
 30
0.0
 11
309.99999999999989
 21
172.10621805087001
 31
0.0
  0
LINE
  5
633
  8
0
 10
309.99999999999989
 20
174.89378248557171
 30
0.0
 11
309.99999999999989
 21
174.10621805087001
 31
0.0
  0
LINE
  5
634
  8
0
 10
309.99999999999989
 20
146.89378248557171
 30
0.0
 11
308.94999999999982
 21
147.5000002682209
 31
0.0
  0
LINE
  5
635
  8
0
 10
309.99999999999989
 20
152.89378248557171
 30
0.0
 11
308.94999999999982
 21
153.5000002682209
 31
0.0
  0
LINE
  5
636
  8
0
 10
308.94999999999982
 20
151.5000002682209
 30
0.0
 11
309.99999999999989
 21
152.10621805087001
 31
0.0
  0
LINE
  5
637
  8
0
 10
308.94999999999982
 20
153.5000002682209
 30
0.0
 11
309.99999999999989
 21
154.10621805087001
 31
0.0
  0
LINE
  5
638
  8
0
 10
309.99999999999989
 20
154.89378248557171
 30
0.0
 11
308.94999999999982
 21
155.5000002682209
 31
0.0
  0
LINE
  5
639
  8
0
 10
309.99999999999989
 20
156.89378248557171
 30
0.0
 11
308.94999999999982
 21
157.5000002682209
 31
0.0
  0
LINE
  5
63A
  8
0
 10
308.94999999999982
 20
155.5000002682209
 30
0.0
 11
309.99999999999989
 21
156.10621805087001
 31
0.0
  0
LINE
  5
63B
  8
0
 10
308.94999999999982
 20
157.5000002682209
 30
0.0
 11
309.99999999999989
 21
158.10621805087001
 31
0.0
  0
LINE
  5
63C
  8
0
 10
309.99999999999989
 20
158.89378248557171
 30
0.0
 11
308.94999999999982
 21
159.5000002682209
 31
0.0
  0
LINE
  5
63D
  8
0
 10
309.99999999999989
 20
160.89378248557171
 30
0.0
 11
308.94999999999982
 21
161.5000002682209
 31
0.0
  0
LINE
  5
63E
  8
0
 10
308.94999999999982
 20
159.5000002682209
 30
0.0
 11
309.99999999999989
 21
160.10621805087001
 31
0.0
  0
LINE
  5
63F
  8
0
 10
308.94999999999982
 20
161.5000002682209
 30
0.0
 11
309.99999999999989
 21
162.1062180508699
 31
0.0
  0
LINE
  5
640
  8
0
 10
309.99999999999989
 20
162.89378248557171
 30
0.0
 11
308.94999999999982
 21
163.5000002682209
 31
0.0
  0
LINE
  5
641
  8
0
 10
309.99999999999989
 20
164.89378248557171
 30
0.0
 11
308.94999999999982
 21
165.5000002682209
 31
0.0
  0
LINE
  5
642
  8
0
 10
308.94999999999982
 20
163.5000002682209
 30
0.0
 11
309.99999999999989
 21
164.10621805087001
 31
0.0
  0
LINE
  5
643
  8
0
 10
308.94999999999982
 20
165.5000002682209
 30
0.0
 11
309.99999999999989
 21
166.1062180508699
 31
0.0
  0
LINE
  5
644
  8
0
 10
309.99999999999989
 20
166.89378248557171
 30
0.0
 11
308.94999999999982
 21
167.5000002682209
 31
0.0
  0
LINE
  5
645
  8
0
 10
309.99999999999989
 20
168.89378248557171
 30
0.0
 11
308.94999999999982
 21
169.5000002682209
 31
0.0
  0
LINE
  5
646
  8
0
 10
308.94999999999982
 20
167.5000002682209
 30
0.0
 11
309.99999999999989
 21
168.10621805087001
 31
0.0
  0
LINE
  5
647
  8
0
 10
308.94999999999982
 20
169.5000002682209
 30
0.0
 11
309.99999999999989
 21
170.10621805087001
 31
0.0
  0
LINE
  5
648
  8
0
 10
309.99999999999989
 20
170.89378248557171
 30
0.0
 11
308.94999999999982
 21
171.5000002682209
 31
0.0
  0
LINE
  5
649
  8
0
 10
308.94999999999982
 20
171.5000002682209
 30
0.0
 11
309.99999999999989
 21
172.10621805087001
 31
0.0
  0
LINE
  5
64A
  8
0
 10
308.94999999999982
 20
173.5000002682209
 30
0.0
 11
309.99999999999989
 21
174.10621805087001
 31
0.0
  0
LINE
  5
64B
  8
0
 10
309.99999999999989
 20
172.89378248557171
 30
0.0
 11
308.94999999999982
 21
173.5000002682209
 31
0.0
  0
LINE
  5
64C
  8
0
 10
309.99999999999989
 20
174.89378248557171
 30
0.0
 11
308.94999999999982
 21
175.5000002682209
 31
0.0
  0
LINE
  5
64D
  8
0
 10
308.94999999999982
 20
151.5000002682209
 30
0.0
 11
309.99999999999989
 21
152.10621805087001
 31
0.0
  0
LINE
  5
64E
  8
0
 10
308.94999999999982
 20
149.5000002682209
 30
0.0
 11
309.99999999999989
 21
150.10621805087001
 31
0.0
  0
LINE
  5
64F
  8
0
 10
309.99999999999989
 20
150.89378248557171
 30
0.0
 11
308.94999999999982
 21
151.5000002682209
 31
0.0
  0
LINE
  5
650
  8
0
 10
309.99999999999989
 20
150.89378248557171
 30
0.0
 11
309.99999999999989
 21
150.10621805087001
 31
0.0
  0
LINE
  5
651
  8
0
 10
309.99999999999989
 20
148.89378248557171
 30
0.0
 11
309.99999999999989
 21
148.10621805087001
 31
0.0
  0
LINE
  5
652
  8
0
 10
309.99999999999989
 20
148.89378248557171
 30
0.0
 11
308.94999999999982
 21
149.5000002682209
 31
0.0
  0
LINE
  5
653
  8
0
 10
308.94999999999982
 20
147.5000002682209
 30
0.0
 11
309.99999999999989
 21
148.10621805087001
 31
0.0
  0
LINE
  5
654
  8
0
 10
308.94999999999982
 20
149.5000002682209
 30
0.0
 11
309.99999999999989
 21
150.10621805087001
 31
0.0
  0
LINE
  5
655
  8
0
 10
308.94999999999982
 20
149.5000002682209
 30
0.0
 11
309.99999999999989
 21
150.10621805087001
 31
0.0
  0
LINE
  5
656
  8
0
 10
308.2000000000001
 20
137.3000002682208
 30
0.0
 11
308.19999999999982
 21
144.8000002682208
 31
0.0
  0
LINE
  5
657
  8
0
 10
282.81
 20
129.5000002682209
 30
0.0
 11
282.5
 21
129.5000002682209
 31
0.0
  0
LINE
  5
658
  8
0
 10
285.30999999999989
 20
129.5000002682209
 30
0.0
 11
285.0
 21
129.5000002682209
 31
0.0
  0
LINE
  5
659
  8
0
 10
278.5767949192429
 20
130.82812802733559
 30
0.0
 11
278.34244049926792
 21
130.4222142649601
 31
0.0
  0
LINE
  5
65A
  8
0
 10
299.68999999999983
 20
129.5000002682209
 30
0.0
 11
298.92320508075682
 21
130.82812802733559
 31
0.0
  0
LINE
  5
65B
  8
0
 10
298.57679491924301
 20
130.82812802733559
 30
0.0
 11
297.80999999999989
 21
129.5000002682209
 31
0.0
  0
LINE
  5
65C
  8
0
 10
297.80999999999989
 20
129.5000002682209
 30
0.0
 11
297.18999999999983
 21
129.5000002682209
 31
0.0
  0
LINE
  5
65D
  8
0
 10
297.18999999999983
 20
129.5000002682209
 30
0.0
 11
296.42320508075682
 21
130.82812802733559
 31
0.0
  0
LINE
  5
65E
  8
0
 10
296.07679491924301
 20
130.82812802733559
 30
0.0
 11
295.31
 21
129.5000002682209
 31
0.0
  0
LINE
  5
65F
  8
0
 10
295.31
 20
129.5000002682209
 30
0.0
 11
294.68999999999988
 21
129.5000002682209
 31
0.0
  0
LINE
  5
660
  8
0
 10
294.68999999999988
 20
129.5000002682209
 30
0.0
 11
293.92967634921303
 21
130.8169194615802
 31
0.0
  0
LINE
  5
661
  8
0
 10
293.57679491924301
 20
130.82812802733559
 30
0.0
 11
292.81
 21
129.5000002682209
 31
0.0
  0
LINE
  5
662
  8
0
 10
292.81
 20
129.5000002682209
 30
0.0
 11
292.18999999999983
 21
129.5000002682209
 31
0.0
  0
LINE
  5
663
  8
0
 10
292.18999999999983
 20
129.5000002682209
 30
0.0
 11
291.42967634921303
 21
130.8169194615802
 31
0.0
  0
LINE
  5
664
  8
0
 10
291.0767949192429
 20
130.82812802733559
 30
0.0
 11
290.30999999999989
 21
129.5000002682209
 31
0.0
  0
LINE
  5
665
  8
0
 10
290.30999999999989
 20
129.5000002682209
 30
0.0
 11
289.68999999999983
 21
129.5000002682209
 31
0.0
  0
LINE
  5
666
  8
0
 10
289.68999999999983
 20
129.5000002682209
 30
0.0
 11
288.92967634921303
 21
130.8169194615802
 31
0.0
  0
LINE
  5
667
  8
0
 10
288.5767949192429
 20
130.82812802733559
 30
0.0
 11
287.80999999999989
 21
129.5000002682209
 31
0.0
  0
LINE
  5
668
  8
0
 10
287.80999999999989
 20
129.5000002682209
 30
0.0
 11
287.18999999999983
 21
129.5000002682209
 31
0.0
  0
LINE
  5
669
  8
0
 10
287.18999999999983
 20
129.5000002682209
 30
0.0
 11
286.42967634921303
 21
130.8169194615802
 31
0.0
  0
LINE
  5
66A
  8
0
 10
286.07679491924301
 20
130.82812802733559
 30
0.0
 11
285.30999999999989
 21
129.5000002682209
 31
0.0
  0
LINE
  5
66B
  8
0
 10
285.0
 20
129.5000002682209
 30
0.0
 11
284.68999999999983
 21
129.5000002682209
 31
0.0
  0
LINE
  5
66C
  8
0
 10
284.68999999999983
 20
129.5000002682209
 30
0.0
 11
283.92967634921303
 21
130.8169194615802
 31
0.0
  0
LINE
  5
66D
  8
0
 10
283.57679491924301
 20
130.82812802733559
 30
0.0
 11
282.81
 21
129.5000002682209
 31
0.0
  0
LINE
  5
66E
  8
0
 10
282.5
 20
129.5000002682209
 30
0.0
 11
282.18999999999988
 21
129.5000002682209
 31
0.0
  0
LINE
  5
66F
  8
0
 10
282.18999999999988
 20
129.5000002682209
 30
0.0
 11
281.42320508075682
 21
130.82812802733559
 31
0.0
  0
LINE
  5
670
  8
0
 10
281.07679491924301
 20
130.82812802733559
 30
0.0
 11
280.31
 21
129.5000002682209
 31
0.0
  0
LINE
  5
671
  8
0
 10
280.31
 20
129.5000002682209
 30
0.0
 11
279.68999999999983
 21
129.5000002682209
 31
0.0
  0
LINE
  5
672
  8
0
 10
279.68999999999983
 20
129.5000002682209
 30
0.0
 11
278.92320508075682
 21
130.82812802733559
 31
0.0
  0
LINE
  5
673
  8
0
 10
278.34244049926792
 20
130.4222142649601
 30
0.0
 11
277.80999999999989
 21
129.5000002682209
 31
0.0
  0
LINE
  5
674
  8
0
 10
277.80999999999989
 20
129.5000002682209
 30
0.0
 11
277.18999999999983
 21
129.5000002682209
 31
0.0
  0
LINE
  5
675
  8
0
 10
277.18999999999983
 20
129.5000002682209
 30
0.0
 11
276.42967634921303
 21
130.8169194615802
 31
0.0
  0
LINE
  5
676
  8
0
 10
276.0767949192429
 20
130.82812802733559
 30
0.0
 11
275.30999999999989
 21
129.5000002682209
 31
0.0
  0
LINE
  5
677
  8
0
 10
275.30999999999989
 20
129.5000002682209
 30
0.0
 11
274.68999999999983
 21
129.5000002682209
 31
0.0
  0
LINE
  5
678
  8
0
 10
274.68999999999983
 20
129.5000002682209
 30
0.0
 11
273.92967634921303
 21
130.8169194615802
 31
0.0
  0
LINE
  5
679
  8
0
 10
273.57679491924301
 20
130.82812802733559
 30
0.0
 11
272.80999999999989
 21
129.5000002682209
 31
0.0
  0
LINE
  5
67A
  8
0
 10
272.80999999999989
 20
129.5000002682209
 30
0.0
 11
272.18999999999983
 21
129.5000002682209
 31
0.0
  0
LINE
  5
67B
  8
0
 10
272.18999999999983
 20
129.5000002682209
 30
0.0
 11
271.42967634921303
 21
130.8169194615802
 31
0.0
  0
LINE
  5
67C
  8
0
 10
271.07679491924301
 20
130.82812802733559
 30
0.0
 11
270.31
 21
129.5000002682209
 31
0.0
  0
LINE
  5
67D
  8
0
 10
270.31
 20
129.5000002682209
 30
0.0
 11
269.68999999999983
 21
129.5000002682209
 31
0.0
  0
LINE
  5
67E
  8
0
 10
269.68999999999983
 20
129.5000002682209
 30
0.0
 11
268.92967634921303
 21
130.8169194615802
 31
0.0
  0
LINE
  5
67F
  8
0
 10
268.57679491924301
 20
130.82812802733559
 30
0.0
 11
267.81
 21
129.5000002682209
 31
0.0
  0
LINE
  5
680
  8
0
 10
267.81
 20
129.5000002682209
 30
0.0
 11
267.18999999999983
 21
129.5000002682209
 31
0.0
  0
LINE
  5
681
  8
0
 10
267.18999999999983
 20
129.5000002682209
 30
0.0
 11
266.42967634921303
 21
130.8169194615802
 31
0.0
  0
LINE
  5
682
  8
0
 10
266.0767949192429
 20
130.82812802733559
 30
0.0
 11
265.30999999999989
 21
129.5000002682209
 31
0.0
  0
LINE
  5
683
  8
0
 10
265.30999999999989
 20
129.5000002682209
 30
0.0
 11
264.68999999999983
 21
129.5000002682209
 31
0.0
  0
LINE
  5
684
  8
0
 10
264.68999999999983
 20
129.5000002682209
 30
0.0
 11
263.92967634921303
 21
130.8169194615802
 31
0.0
  0
LINE
  5
685
  8
0
 10
263.5767949192429
 20
130.82812802733559
 30
0.0
 11
262.80999999999989
 21
129.5000002682209
 31
0.0
  0
LINE
  5
686
  8
0
 10
262.80999999999989
 20
129.5000002682209
 30
0.0
 11
262.18999999999983
 21
129.5000002682209
 31
0.0
  0
LINE
  5
687
  8
0
 10
262.18999999999983
 20
129.5000002682209
 30
0.0
 11
261.42967634921303
 21
130.8169194615802
 31
0.0
  0
LINE
  5
688
  8
0
 10
261.07679491924301
 20
130.82812802733559
 30
0.0
 11
260.30999999999989
 21
129.5000002682209
 31
0.0
  0
LINE
  5
689
  8
0
 10
260.30999999999989
 20
129.5000002682209
 30
0.0
 11
259.68999999999983
 21
129.5000002682209
 31
0.0
  0
LINE
  5
68A
  8
0
 10
259.68999999999983
 20
129.5000002682209
 30
0.0
 11
258.92967634921303
 21
130.8169194615802
 31
0.0
  0
LINE
  5
68B
  8
0
 10
258.57679491924301
 20
130.82812802733559
 30
0.0
 11
257.81
 21
129.5000002682209
 31
0.0
  0
LINE
  5
68C
  8
0
 10
257.81
 20
129.5000002682209
 30
0.0
 11
257.18999999999983
 21
129.5000002682209
 31
0.0
  0
LINE
  5
68D
  8
0
 10
257.18999999999983
 20
129.5000002682209
 30
0.0
 11
256.42967634921303
 21
130.8169194615802
 31
0.0
  0
LINE
  5
68E
  8
0
 10
256.07679491924301
 20
130.82812802733559
 30
0.0
 11
255.31
 21
129.5000002682209
 31
0.0
  0
LINE
  5
68F
  8
0
 10
255.31
 20
129.5000002682209
 30
0.0
 11
254.6899999999998
 21
129.5000002682209
 31
0.0
  0
LINE
  5
690
  8
0
 10
254.6899999999998
 20
129.5000002682209
 30
0.0
 11
253.929676349213
 21
130.8169194615802
 31
0.0
  0
LINE
  5
691
  8
0
 10
253.5767949192429
 20
130.82812802733559
 30
0.0
 11
252.8100000000002
 21
129.5000002682209
 31
0.0
  0
LINE
  5
692
  8
0
 10
252.8100000000002
 20
129.5000002682209
 30
0.0
 11
252.19
 21
129.5000002682209
 31
0.0
  0
LINE
  5
693
  8
0
 10
252.19
 20
129.5000002682209
 30
0.0
 11
251.429676349213
 21
130.8169194615802
 31
0.0
  0
LINE
  5
694
  8
0
 10
251.0767949192429
 20
130.82812802733559
 30
0.0
 11
250.3100000000002
 21
129.5000002682209
 31
0.0
  0
LINE
  5
695
  8
0
 10
250.3100000000002
 20
129.5000002682209
 30
0.0
 11
249.6899999999998
 21
129.5000002682209
 31
0.0
  0
LINE
  5
696
  8
0
 10
249.6899999999998
 20
129.5000002682209
 30
0.0
 11
248.929676349213
 21
130.8169194615802
 31
0.0
  0
LINE
  5
697
  8
0
 10
248.57679491924301
 20
130.82812802733559
 30
0.0
 11
247.8100000000002
 21
129.5000002682209
 31
0.0
  0
LINE
  5
698
  8
0
 10
247.8100000000002
 20
129.5000002682209
 30
0.0
 11
247.19000000000011
 21
129.5000002682209
 31
0.0
  0
LINE
  5
699
  8
0
 10
247.19000000000011
 20
129.5000002682209
 30
0.0
 11
246.429676349213
 21
130.8169194615802
 31
0.0
  0
LINE
  5
69A
  8
0
 10
246.07679491924301
 20
130.82812802733559
 30
0.0
 11
245.31
 21
129.5000002682209
 31
0.0
  0
LINE
  5
69B
  8
0
 10
245.31
 20
129.5000002682209
 30
0.0
 11
244.69000000000011
 21
129.5000002682209
 31
0.0
  0
LINE
  5
69C
  8
0
 10
244.69000000000011
 20
129.5000002682209
 30
0.0
 11
243.929676349213
 21
130.8169194615802
 31
0.0
  0
LINE
  5
69D
  8
0
 10
243.57679491924301
 20
130.82812802733559
 30
0.0
 11
242.81
 21
129.5000002682209
 31
0.0
  0
LINE
  5
69E
  8
0
 10
242.81
 20
129.5000002682209
 30
0.0
 11
242.1899999999998
 21
129.5000002682209
 31
0.0
  0
LINE
  5
69F
  8
0
 10
242.1899999999998
 20
129.5000002682209
 30
0.0
 11
241.429676349213
 21
130.8169194615802
 31
0.0
  0
LINE
  5
6A0
  8
0
 10
241.0767949192429
 20
130.82812802733559
 30
0.0
 11
240.30999999999989
 21
129.5000002682209
 31
0.0
  0
LINE
  5
6A1
  8
0
 10
240.30999999999989
 20
129.5000002682209
 30
0.0
 11
240.0
 21
129.5000002682209
 31
0.0
  0
LINE
  5
6A2
  8
0
 10
300.30999999999989
 20
129.5000002682209
 30
0.0
 11
299.68999999999983
 21
129.5000002682209
 31
0.0
  0
LINE
  5
6A3
  8
0
 10
301.0767949192429
 20
130.82812802733559
 30
0.0
 11
300.30999999999989
 21
129.5000002682209
 31
0.0
  0
LINE
  5
6A4
  8
0
 10
302.18999999999983
 20
129.5000002682209
 30
0.0
 11
301.42320508075682
 21
130.82812802733559
 31
0.0
  0
LINE
  5
6A5
  8
0
 10
304.68999999999983
 20
129.5000002682209
 30
0.0
 11
303.92320508075682
 21
130.82812802733559
 31
0.0
  0
LINE
  5
6A6
  8
0
 10
303.5767949192429
 20
130.82812802733559
 30
0.0
 11
302.80999999999989
 21
129.5000002682209
 31
0.0
  0
LINE
  5
6A7
  8
0
 10
302.80999999999989
 20
129.5000002682209
 30
0.0
 11
302.18999999999983
 21
129.5000002682209
 31
0.0
  0
LINE
  5
6A8
  8
0
 10
305.31
 20
129.5000002682209
 30
0.0
 11
304.68999999999983
 21
129.5000002682209
 31
0.0
  0
LINE
  5
6A9
  8
0
 10
306.07679491924301
 20
130.82812802733559
 30
0.0
 11
305.31
 21
129.5000002682209
 31
0.0
  0
LINE
  5
6AA
  8
0
 10
307.18999999999983
 20
129.5000002682209
 30
0.0
 11
306.42320508075682
 21
130.82812802733559
 31
0.0
  0
LINE
  5
6AB
  8
0
 10
309.68999999999983
 20
129.5000002682209
 30
0.0
 11
308.92320508075682
 21
130.82812802733559
 31
0.0
  0
LINE
  5
6AC
  8
0
 10
308.57679491924301
 20
130.82812802733559
 30
0.0
 11
307.81
 21
129.5000002682209
 31
0.0
  0
LINE
  5
6AD
  8
0
 10
307.81
 20
129.5000002682209
 30
0.0
 11
307.18999999999983
 21
129.5000002682209
 31
0.0
  0
LINE
  5
6AE
  8
0
 10
310.0
 20
129.5000002682209
 30
0.0
 11
309.68999999999983
 21
129.5000002682209
 31
0.0
  0
LINE
  5
6AF
  8
0
 10
190.0
 20
175.5000002682209
 30
0.0
 11
100.0
 21
175.5000002682209
 31
0.0
  0
LINE
  5
6B1
  8
0
 10
310.0
 20
135.5000002682209
 30
0.0
 11
308.2000000000001
 21
137.3000002682208
 31
0.0
  0
LINE
  5
6B3
  8
0
 10
107.3
 20
132.8000002682208
 30
0.0
 11
107.3
 21
129.5000002682209
 31
0.0
  0
LINE
  5
6B4
  8
0
 10
112.7
 20
132.8000002682208
 30
0.0
 11
112.7
 21
129.5000002682209
 31
0.0
  0
LINE
  5
6B5
  8
0
 10
190.0
 20
129.5000002682209
 30
0.0
 11
190.0
 21
175.5000002682209
 31
0.0
  0
LINE
  5
6B8
  8
1
 10
144.99999999999989
 20
185.5000002682209
 30
0.0
 11
144.99999999999989
 21
90.0
 31
0.0
  0
LINE
  5
6B9
  8
0
 10
100.0
 20
175.5000002682209
 30
0.0
 11
100.0
 21
129.5000002682209
 31
0.0
  0
LINE
  5
6BA
  8
0
 10
100.0
 20
129.5000002682209
 30
0.0
 11
125.0000000000001
 21
129.5000002682209
 31
0.0
  0
LINE
  5
6BB
  8
0
 10
165.0
 20
129.5000002682209
 30
0.0
 11
190.0
 21
129.5000002682209
 31
0.0
  0
LINE
  5
6BE
  8
0
 10
310.0
 20
129.5000002682209
 30
0.0
 11
310.0
 21
135.5000002682209
 31
0.0
  0
LINE
  5
6BF
  8
0
 10
240.0
 20
175.5000002682209
 30
0.0
 11
240.0
 21
129.5000002682209
 31
0.0
  0
LINE
  5
6C0
  8
0
 10
240.0
 20
225.5000002682209
 30
0.0
 11
308.9500000000001
 21
225.5000002682209
 31
0.0
  0
LINE
  5
6C1
  8
0
 10
310.0
 20
226.10621805087001
 30
0.0
 11
310.0
 21
314.89378248557182
 31
0.0
  0
LINE
  5
6C2
  8
0
 10
308.9500000000001
 20
315.5000002682209
 30
0.0
 11
240.0
 21
315.5000002682209
 31
0.0
  0
LINE
  5
6C3
  8
0
 10
240.0
 20
175.5000002682209
 30
0.0
 11
308.94999999999982
 21
175.5000002682209
 31
0.0
  0
LINE
  5
6C4
  8
0
 10
308.19999999999982
 20
144.8000002682208
 30
0.0
 11
308.83169872981068
 21
145.43169899803169
 31
0.0
  0
LINE
  5
6C5
  8
0
 10
308.83169872981068
 20
145.43169899803169
 30
0.0
 11
309.99999999999989
 21
146.10621805087001
 31
0.0
  0
ARC
  5
6C8
  8
0
 10
110.0
 20
132.8000002682208
 30
0.0
 40
2.7000000000000228
 50
0.0
 51
180.0
  0
CIRCLE
  5
6C9
  8
0
 10
260.0
 20
258.5000002682209
 30
0.0
 40
8.0
  0
CIRCLE
  5
6CA
  8
0
 10
290.0
 20
258.5000002682209
 30
0.0
 40
8.0
  0
CIRCLE
  5
6CB
  8
0
 10
290.0
 20
282.5000002682209
 30
0.0
 40
8.0
  0
CIRCLE
  5
6CC
  8
0
 10
260.0
 20
282.5000002682209
 30
0.0
 40
8.0
  0
CIRCLE
  5
6CF
  8
0
 10
302.00000000000023
 20
235.5000002682209
 30
0.0
 40
3.75
  0
CIRCLE
  5
6D0
  8
0
 10
248.0
 20
235.5000002682209
 30
0.0
 40
3.75
  0
CIRCLE
  5
6D1
  8
0
 10
302.00000000000023
 20
305.5000002682209
 30
0.0
 40
3.75
  0
CIRCLE
  5
6D4
  8
0
 10
248.0
 20
305.5000002682209
 30
0.0
 40
3.75
  0
ARC
  5
6D5
  8
0
 10
298.74999999999977
 20
130.72812802733571
 30
0.0
 40
0.2000000000000398
 50
29.999999999962458
 51
150.0000000000112
  0
ARC
  5
6D6
  8
0
 10
296.24999999999977
 20
130.72812802733571
 30
0.0
 40
0.2000000000000398
 50
29.999999999962458
 51
150.0000000000112
  0
ARC
  5
6D7
  8
0
 10
293.74999999999977
 20
130.72812802733571
 30
0.0
 40
0.2000000000000398
 50
29.999999999962458
 51
150.0000000000112
  0
ARC
  5
6D8
  8
0
 10
291.24999999999977
 20
130.72812802733571
 30
0.0
 40
0.2000000000000398
 50
29.999999999962458
 51
150.0000000000112
  0
ARC
  5
6D9
  8
0
 10
288.74999999999977
 20
130.72812802733571
 30
0.0
 40
0.2000000000000398
 50
29.999999999962458
 51
150.0000000000112
  0
ARC
  5
6DA
  8
0
 10
286.24999999999977
 20
130.72812802733571
 30
0.0
 40
0.2000000000000398
 50
29.999999999962458
 51
89.99999999994138
  0
ARC
  5
6DB
  8
0
 10
283.74999999999977
 20
130.72812802733571
 30
0.0
 40
0.2000000000000398
 50
29.999999999962458
 51
150.0000000000112
  0
ARC
  5
6DC
  8
0
 10
276.24999999999977
 20
130.72812802733571
 30
0.0
 40
0.2000000000000398
 50
29.999999999962458
 51
150.0000000000112
  0
ARC
  5
6DD
  8
0
 10
273.74999999999977
 20
130.72812802733571
 30
0.0
 40
0.2000000000000398
 50
29.999999999962458
 51
150.0000000000112
  0
ARC
  5
6DE
  8
0
 10
271.24999999999977
 20
130.72812802733571
 30
0.0
 40
0.2000000000000398
 50
29.999999999962458
 51
150.0000000000112
  0
ARC
  5
6DF
  8
0
 10
268.74999999999977
 20
130.72812802733571
 30
0.0
 40
0.2000000000000398
 50
29.999999999962458
 51
150.0000000000112
  0
ARC
  5
6E0
  8
0
 10
266.24999999999977
 20
130.72812802733571
 30
0.0
 40
0.2000000000000398
 50
29.999999999962458
 51
150.0000000000112
  0
ARC
  5
6E1
  8
0
 10
263.74999999999977
 20
130.72812802733571
 30
0.0
 40
0.2000000000000398
 50
29.999999999962458
 51
150.0000000000112
  0
ARC
  5
6E2
  8
0
 10
261.24999999999977
 20
130.72812802733571
 30
0.0
 40
0.2000000000000398
 50
29.999999999962458
 51
150.0000000000112
  0
ARC
  5
6E3
  8
0
 10
258.74999999999977
 20
130.72812802733571
 30
0.0
 40
0.2000000000000398
 50
29.999999999962458
 51
150.0000000000112
  0
ARC
  5
6E4
  8
0
 10
256.24999999999977
 20
130.72812802733571
 30
0.0
 40
0.2000000000000398
 50
29.999999999962458
 51
150.0000000000112
  0
ARC
  5
6E5
  8
0
 10
253.7500000000002
 20
130.72812802733571
 30
0.0
 40
0.1999999999996953
 50
30.000000000017891
 51
150.00000000006671
  0
ARC
  5
6E6
  8
0
 10
251.2500000000002
 20
130.72812802733571
 30
0.0
 40
0.1999999999996953
 50
30.000000000017891
 51
150.00000000006671
  0
ARC
  5
6E7
  8
0
 10
248.7500000000002
 20
130.72812802733571
 30
0.0
 40
0.1999999999996953
 50
30.000000000017891
 51
150.00000000006671
  0
ARC
  5
6E8
  8
0
 10
246.2499999999998
 20
130.72812802733571
 30
0.0
 40
0.2000000000000398
 50
29.999999999962458
 51
150.0000000000112
  0
ARC
  5
6E9
  8
0
 10
243.7499999999998
 20
130.72812802733571
 30
0.0
 40
0.2000000000000398
 50
29.999999999962458
 51
150.0000000000112
  0
ARC
  5
6EA
  8
0
 10
241.2500000000002
 20
130.72812802733571
 30
0.0
 40
0.1999999999996953
 50
30.000000000017891
 51
150.00000000006671
  0
ARC
  5
6EB
  8
0
 10
286.24999999999977
 20
130.72812802733571
 30
0.0
 40
0.1999999999998749
 50
89.99999999994138
 51
150.0000000000112
  0
ARC
  5
6EC
  8
0
 10
278.74999999999977
 20
130.72812802733571
 30
0.0
 40
0.2000000000000398
 50
29.999999999962458
 51
150.0000000000112
  0
ARC
  5
6ED
  8
0
 10
281.24999999999977
 20
130.72812802733571
 30
0.0
 40
0.2000000000000398
 50
29.999999999962458
 51
150.0000000000112
  0
ARC
  5
6EE
  8
0
 10
301.24999999999977
 20
130.72812802733571
 30
0.0
 40
0.2000000000000398
 50
29.999999999962458
 51
150.0000000000112
  0
ARC
  5
6EF
  8
0
 10
303.74999999999977
 20
130.72812802733571
 30
0.0
 40
0.2000000000000398
 50
29.999999999962458
 51
150.0000000000112
  0
ARC
  5
6F0
  8
0
 10
306.24999999999977
 20
130.72812802733571
 30
0.0
 40
0.2000000000000398
 50
29.999999999962458
 51
150.0000000000112
  0
ARC
  5
6F1
  8
0
 10
308.74999999999977
 20
130.72812802733571
 30
0.0
 40
0.2000000000000398
 50
29.999999999962458
 51
150.0000000000112
  0
ARC
  5
6F7
  8
0
 10
179.9999999999998
 20
132.8000002682208
 30
0.0
 40
2.7000000000000228
 50
0.0
 51
180.0
  0
LINE
  5
6F8
  8
0
 10
177.2999999999997
 20
132.8000002682208
 30
0.0
 11
177.2999999999997
 21
129.5000002682209
 31
0.0
  0
LINE
  5
6F9
  8
0
 10
182.6999999999997
 20
132.8000002682208
 30
0.0
 11
182.6999999999997
 21
129.5000002682209
 31
0.0
  0
TEXT
  5
7B1
  8
0
 62
     3
 10
0.0
 20
0.0
 30
0.0
 40
10.0
  1
MCAC90FJ
  7
STANDARD1
  0
LINE
  5
3876
  8
0
 10
241.0000020265575
 20
115.00000059604641
 30
0.0
 11
310.0
 21
115.00000059604641
 31
0.0
  0
LINE
  5
3878
  8
0
 10
241.00000202655789
 20
115.00000059604641
 30
0.0
 11
240.0
 21
114.0000004321336
 31
0.0
  0
LINE
  5
3879
  8
0
 10
310.0
 20
101.0000001639128
 30
0.0
 11
308.99999797344202
 21
100.0
 31
0.0
  0
LINE
  5
387A
  8
0
 10
241.00000202655789
 20
100.0
 30
0.0
 11
308.99999797344202
 21
100.0
 31
0.0
  0
LINE
  5
387B
  8
0
 10
241.00000202655789
 20
100.0
 30
0.0
 11
240.0
 21
101.0000001639128
 31
0.0
  0
LINE
  5
387D
  8
0
 10
240.0
 20
123.0000000447035
 30
0.0
 11
310.0
 21
123.0000000447035
 31
0.0
  0
LINE
  5
387E
  8
0
 10
240.0
 20
129.5000002682209
 30
0.0
 11
240.0
 21
101.0000001639128
 31
0.0
  0
LINE
  5
3880
  8
0
 10
310.0
 20
129.5000002682209
 30
0.0
 11
310.0
 21
101.0000001639126
 31
0.0
  0
LINE
  5
3921
  8
0
 10
170.00000037252909
 20
102.0000003278255
 30
0.0
 11
170.00000037252909
 21
114.0000004321336
 31
0.0
  0
LINE
  5
3922
  8
0
 10
168.0000000447036
 20
100.0
 30
0.0
 11
170.00000037252909
 21
102.0000003278255
 31
0.0
  0
LINE
  5
3923
  8
0
 10
121.9999999552966
 20
100.0
 30
0.0
 11
168.0000000447036
 21
100.0
 31
0.0
  0
LINE
  5
3924
  8
0
 10
163.9999993890525
 20
123.0000000447034
 30
0.0
 11
164.99999955296519
 21
123.0000000447034
 31
0.0
  0
LINE
  5
3925
  8
0
 10
126.00000061094769
 20
123.0000000447034
 30
0.0
 11
126.00000061094769
 21
115.00000059604641
 31
0.0
  0
LINE
  5
3926
  8
0
 10
163.9999993890525
 20
115.00000059604641
 30
0.0
 11
163.9999993890525
 21
123.0000000447034
 31
0.0
  0
LINE
  5
3927
  8
0
 10
169.00000020861631
 20
115.00000059604641
 30
0.0
 11
163.9999993890525
 21
115.00000059604641
 31
0.0
  0
LINE
  5
3928
  8
0
 10
126.00000061094769
 20
115.00000059604641
 30
0.0
 11
120.9999997913838
 21
115.00000059604641
 31
0.0
  0
LINE
  5
3929
  8
0
 10
126.00000061094769
 20
133.50000036880371
 30
0.0
 11
125.00000044703491
 21
132.50000020489091
 31
0.0
  0
LINE
  5
392A
  8
0
 10
125.00000044703491
 20
123.0000000447034
 30
0.0
 11
126.00000061094769
 21
123.0000000447034
 31
0.0
  0
LINE
  5
392B
  8
0
 10
119.999999627471
 20
114.0000004321336
 30
0.0
 11
119.999999627471
 21
102.0000003278255
 31
0.0
  0
LINE
  5
392C
  8
0
 10
119.999999627471
 20
102.0000003278255
 30
0.0
 11
121.9999999552962
 21
100.0
 31
0.0
  0
LINE
  5
392D
  8
0
 10
120.9999997913838
 20
115.00000059604641
 30
0.0
 11
119.999999627471
 21
114.0000004321336
 31
0.0
  0
LINE
  5
392E
  8
0
 10
164.99999955296519
 20
132.50000020489091
 30
0.0
 11
163.9999993890525
 21
133.50000036880371
 31
0.0
  0
LINE
  5
392F
  8
0
 10
170.00000037252909
 20
114.0000004321336
 30
0.0
 11
169.00000020861631
 21
115.00000059604641
 31
0.0
  0
LINE
  5
3940
  8
0
 10
164.99999955296519
 20
123.0000000447034
 30
0.0
 11
164.99999955296519
 21
132.79289347119629
 31
0.0
  0
LINE
  5
3941
  8
0
 10
165.3535538166762
 20
133.14644680358469
 30
0.0
 11
164.99999955296519
 21
132.79289347119629
 31
0.0
  0
ARC
  5
3942
  8
0
 10
165.00000000000011
 20
133.50000017881391
 30
0.0
 40
0.500000000000004
 50
315.00000000000961
 51
134.99999999999349
  0
LINE
  5
3943
  8
0
 10
164.29289288818839
 20
133.50000036880371
 30
0.0
 11
164.64644715189939
 21
133.85355370119211
 31
0.0
  0
LINE
  5
3944
  8
0
 10
164.29289288818839
 20
133.50000036880371
 30
0.0
 11
125.70710711181169
 21
133.50000036880371
 31
0.0
  0
LINE
  5
3945
  8
0
 10
125.3535528481007
 20
133.85355370119211
 30
0.0
 11
125.70710711181169
 21
133.50000036880371
 31
0.0
  0
ARC
  5
3946
  8
0
 10
125.0000000000001
 20
133.50000017881391
 30
0.0
 40
0.5000000000000443
 50
45.000000000006452
 51
224.99999999999019
  0
LINE
  5
3947
  8
0
 10
125.00000044703491
 20
132.79289347119629
 30
0.0
 11
124.6464461833239
 21
133.14644680358469
 31
0.0
  0
LINE
  5
3948
  8
0
 10
125.00000044703491
 20
132.79289347119629
 30
0.0
 11
125.00000044703449
 21
123.0000000447034
 31
0.0
  0
LINE
  5
3DEF
  8
1
 10
260.0
 20
269.5000002682209
 30
0.0
 11
260.0
 21
269.0000002682209
 31
0.0
  0
LINE
  5
3DF0
  8
1
 10
260.0
 20
269.5000002682209
 30
0.0
 11
260.0
 21
247.5000002682209
 31
0.0
  0
LINE
  5
3DF1
  8
1
 10
290.0
 20
269.5000002682209
 30
0.0
 11
290.0
 21
247.5000002682209
 31
0.0
  0
LINE
  5
3DF5
  8
1
 10
110.0
 20
126.5000002682209
 30
0.0
 11
110.0
 21
138.50000026822079
 31
0.0
  0
LINE
  5
3DF6
  8
1
 10
179.9999999999998
 20
138.50000026822079
 30
0.0
 11
179.9999999999998
 21
126.5000002682209
 31
0.0
  0
LINE
  5
3DF7
  8
1
 10
104.3
 20
132.8000002682208
 30
0.0
 11
115.7
 21
132.8000002682208
 31
0.0
  0
LINE
  5
3E01
  8
1
 10
174.29999999999981
 20
132.8000002682208
 30
0.0
 11
185.69999999999979
 21
132.8000002682208
 31
0.0
  0
LINE
  5
3E02
  8
1
 10
313.0
 20
130.5000002682209
 30
0.0
 11
237.0
 21
130.5000002682209
 31
0.0
  0
LINE
  5
3E07
  8
1
 10
193.0
 20
130.5000002682209
 30
0.0
 11
97.0
 21
130.5000002682209
 31
0.0
  0
ENDSEC
  0
EOF
