  0
SECTION
  2
HEADER
  9
$ACADVER
  1
AC1009
  9
$INSBASE
 10
140.7604952744675
 20
-75.171157527736113
 30
0.0
  9
$EXTMIN
 10
0.0
 20
-1.4802182810368341
 30
0.0
  9
$EXTMAX
 10
139.2000004999999
 20
137.90000000000001
 30
0.0
  9
$LIMMIN
 10
0.0
 20
0.0
  9
$LIMMAX
 10
12.0
 20
9.0
  9
$ORTHOMODE
 70
     1
  9
$REGENMODE
 70
     1
  9
$FILLMODE
 70
     1
  9
$QTEXTMODE
 70
     0
  9
$MIRRTEXT
 70
     0
  9
$DRAGMODE
 70
     2
  9
$LTSCALE
 40
1.0
  9
$OSMODE
 70
  3071
  9
$ATTMODE
 70
     1
  9
$TEXTSIZE
 40
0.2
  9
$TRACEWID
 40
0.05
  9
$TEXTSTYLE
  7
STANDARD
  9
$CLAYER
  8
0
  9
$CELTYPE
  6
BYLAYER
  9
$CECOLOR
 62
   256
  9
$DIMSCALE
 40
1.0
  9
$DIMASZ
 40
1.0
  9
$DIMEXO
 40
2.54
  9
$DIMDLI
 40
0.38
  9
$DIMRND
 40
0.0
  9
$DIMDLE
 40
0.0
  9
$DIMEXE
 40
2.54
  9
$DIMTP
 40
0.0
  9
$DIMTM
 40
0.0
  9
$DIMTXT
 40
3.2000000000000002
  9
$DIMCEN
 40
0.09
  9
$DIMTSZ
 40
0.0
  9
$DIMTOL
 70
     0
  9
$DIMLIM
 70
     0
  9
$DIMTIH
 70
     0
  9
$DIMTOH
 70
     0
  9
$DIMSE1
 70
     0
  9
$DIMSE2
 70
     0
  9
$DIMTAD
 70
     1
  9
$DIMZIN
 70
     0
  9
$DIMBLK
  1

  9
$DIMASO
 70
     1
  9
$DIMSHO
 70
     0
  9
$DIMPOST
  1

  9
$DIMAPOST
  1

  9
$DIMALT
 70
     0
  9
$DIMALTD
 70
     2
  9
$DIMALTF
 40
25.399999999999999
  9
$DIMLFAC
 40
1.0
  9
$DIMTOFL
 70
     0
  9
$DIMTVP
 40
1.0
  9
$DIMTIX
 70
     0
  9
$DIMSOXD
 70
     0
  9
$DIMSAH
 70
     1
  9
$DIMBLK1
  1

  9
$DIMBLK2
  1

  9
$DIMSTYLE
  2
STANDARD
  9
$DIMCLRD
 70
     0
  9
$DIMCLRE
 70
     0
  9
$DIMCLRT
 70
     0
  9
$DIMTFAC
 40
1.0
  9
$DIMGAP
 40
1.6000000000000001
  9
$LUNITS
 70
     2
  9
$LUPREC
 70
     4
  9
$SKETCHINC
 40
0.1
  9
$FILLETRAD
 40
0.0
  9
$AUNITS
 70
     0
  9
$AUPREC
 70
     0
  9
$MENU
  1
.
  9
$ELEVATION
 40
0.0
  9
$PELEVATION
 40
0.0
  9
$THICKNESS
 40
0.0
  9
$LIMCHECK
 70
     0
  9
$BLIPMODE
 70
     0
  9
$CHAMFERA
 40
0.0
  9
$CHAMFERB
 40
0.0
  9
$SKPOLY
 70
     0
  9
$TDCREATE
 40
2453173.4709223039
  9
$TDUPDATE
 40
2456597.6351657868
  9
$TDINDWG
 40
0.3800786458
  9
$TDUSRTIMER
 40
0.3800786458
  9
$USRTIMER
 70
     1
  9
$ANGBASE
 50
0.0
  9
$ANGDIR
 70
     0
  9
$PDMODE
 70
     0
  9
$PDSIZE
 40
0.0
  9
$PLINEWID
 40
0.0
  9
$COORDS
 70
     1
  9
$SPLFRAME
 70
     0
  9
$SPLINETYPE
 70
     6
  9
$SPLINESEGS
 70
     8
  9
$ATTDIA
 70
     0
  9
$ATTREQ
 70
     1
  9
$HANDLING
 70
     1
  9
$HANDSEED
  5
1EA
  9
$SURFTAB1
 70
     6
  9
$SURFTAB2
 70
     6
  9
$SURFTYPE
 70
     6
  9
$SURFU
 70
     6
  9
$SURFV
 70
     6
  9
$UCSNAME
  2

  9
$UCSORG
 10
0.0
 20
0.0
 30
0.0
  9
$UCSXDIR
 10
1.0
 20
0.0
 30
0.0
  9
$UCSYDIR
 10
0.0
 20
1.0
 30
0.0
  9
$PUCSNAME
  2

  9
$PUCSORG
 10
0.0
 20
0.0
 30
0.0
  9
$PUCSXDIR
 10
1.0
 20
0.0
 30
0.0
  9
$PUCSYDIR
 10
0.0
 20
1.0
 30
0.0
  9
$USERI1
 70
     0
  9
$USERI2
 70
     0
  9
$USERI3
 70
     0
  9
$USERI4
 70
     0
  9
$USERI5
 70
     0
  9
$USERR1
 40
0.0
  9
$USERR2
 40
0.0
  9
$USERR3
 40
0.0
  9
$USERR4
 40
0.0
  9
$USERR5
 40
0.0
  9
$WORLDVIEW
 70
     1
  9
$SHADEDGE
 70
     3
  9
$SHADEDIF
 70
    70
  9
$TILEMODE
 70
     1
  9
$MAXACTVP
 70
    64
  9
$PLIMCHECK
 70
     0
  9
$PEXTMIN
 10
1.0000000000000000E+020
 20
1.0000000000000000E+020
 30
1.0000000000000000E+020
  9
$PEXTMAX
 10
-1.0000000000000000E+020
 20
-1.0000000000000000E+020
 30
-1.0000000000000000E+020
  9
$PLIMMIN
 10
0.0
 20
0.0
  9
$PLIMMAX
 10
12.0
 20
9.0
  9
$UNITMODE
 70
     0
  9
$VISRETAIN
 70
     1
  9
$PLINEGEN
 70
     0
  9
$PSLTSCALE
 70
     1
  0
ENDSEC
  0
SECTION
  2
TABLES
  0
TABLE
  2
VPORT
 70
     1
  0
VPORT
  2
*ACTIVE
 70
     0
 10
0.0
 20
0.0
 11
1.0
 21
1.0
 12
69.600000574100193
 22
68.510030679389402
 13
0.0
 23
0.0
 14
1.0
 24
1.0
 15
0.0
 25
0.0
 16
0.0
 26
0.0
 36
1.0
 17
0.0
 27
0.0
 37
0.0
 40
141.59758654079289
 41
2.304913294797688
 42
50.0
 43
0.0
 44
0.0
 50
0.0
 51
0.0
 71
     0
 72
   100
 73
     1
 74
     1
 75
     0
 76
     0
 77
     0
 78
     0
  0
ENDTAB
  0
TABLE
  2
LTYPE
 70
     4
  0
LTYPE
  2
CONTINUOUS
 70
     0
  3
Solid line
 72
    65
 73
     0
 40
0.0
  0
LTYPE
  2
CENTER
 70
     0
  3
Center ____ _ ____ _ ____ _ ____ _ ____ _ ____
 72
    65
 73
     4
 40
12.0
 49
7.5
 49
-1.5
 49
1.5
 49
-1.5
  0
LTYPE
  2
HIDDEN
 70
     0
  3
Hidden __ __ __ __ __ __ __ __ __ __ __ __ __ _
 72
    65
 73
     2
 40
4.5
 49
3.0
 49
-1.5
  0
LTYPE
  2
PHANTOM2
 70
     0
  3
___ _ _ ___ _ _ ___ _ _ ___ _ _
 72
    65
 73
     6
 40
1.25
 49
0.625
 49
-0.125
 49
0.125
 49
-0.125
 49
0.125
 49
-0.125
  0
ENDTAB
  0
TABLE
  2
LAYER
 70
     4
  0
LAYER
  2
0
 70
     0
 62
     7
  6
CONTINUOUS
  0
LAYER
  2
1
 70
     0
 62
     1
  6
CENTER
  0
LAYER
  2
2
 70
     0
 62
     2
  6
HIDDEN
  0
LAYER
  2
3
 70
     0
 62
     3
  6
CONTINUOUS
  0
ENDTAB
  0
TABLE
  2
STYLE
 70
     2
  0
STYLE
  2
STANDARD
 70
     0
 40
0.0
 41
1.0
 50
0.0
 71
     0
 42
0.2
  3
simplex.shx
  4
bigfont.shx
  0
STYLE
  2
STANDARD1
 70
     0
 40
0.0
 41
1.0
 50
0.0
 71
     0
 42
3.0
  3
txt
  4

  0
ENDTAB
  0
TABLE
  2
VIEW
 70
     0
  0
ENDTAB
  0
TABLE
  2
UCS
 70
     0
  0
ENDTAB
  0
TABLE
  2
APPID
 70
     3
  0
APPID
  2
ACAD
 70
     0
  0
APPID
  2
ACAD_MLEADERVER
 70
     0
  0
APPID
  2
ACAD_NAV_VCDISPLAY
 70
     0
  0
ENDTAB
  0
TABLE
  2
DIMSTYLE
 70
     1
  0
DIMSTYLE
  2
STANDARD
 70
     0
  3

  4

  5

  6

  7

 40
1.0
 41
0.18
 42
0.0625
 43
0.38
 44
0.18
 45
0.0
 46
0.0
 47
0.0
 48
0.0
140
0.18
141
0.09
142
0.0
143
25.399999999999999
144
1.0
145
0.0
146
1.0
147
0.09
 71
     0
 72
     0
 73
     1
 74
     1
 75
     0
 76
     0
 77
     0
 78
     0
170
     0
171
     2
172
     0
173
     0
174
     0
175
     0
176
     0
177
     0
178
     0
  0
ENDTAB
  0
ENDSEC
  0
SECTION
  2
BLOCKS
  0
BLOCK
  8
0
  2
$MODEL_SPACE
 70
     0
 10
0.0
 20
0.0
 30
0.0
  3
$MODEL_SPACE
  1

  0
ENDBLK
  5
9
  8
0
  0
BLOCK
 67
     1
  8
0
  2
$PAPER_SPACE
 70
     0
 10
0.0
 20
0.0
 30
0.0
  3
$PAPER_SPACE
  1

  0
ENDBLK
  5
E
 67
     1
  8
0
  0
ENDSEC
  0
SECTION
  2
ENTITIES
  0
LINE
  5
28
  8
2
 10
54.000000500394009
 20
68.0
 30
0.0
 11
54.000000500394009
 21
70.000000000000057
 31
0.0
  0
LINE
  5
29
  8
2
 10
66.000000500394037
 20
68.0
 30
0.0
 11
66.000000500394037
 21
70.000000000000057
 31
0.0
  0
LINE
  5
2A
  8
2
 10
111.2000004999999
 20
114.2
 30
0.0
 11
109.2000004999998
 21
114.2
 31
0.0
  0
LINE
  5
2B
  8
2
 10
111.2000004999999
 20
126.2
 30
0.0
 11
109.2000004999998
 21
126.2
 31
0.0
  0
LINE
  5
2C
  8
0
 10
71.699999999999875
 20
74.850000000000051
 30
0.0
 11
71.699999999999875
 21
74.650000000000063
 31
0.0
  0
LINE
  5
2D
  8
0
 10
70.499999999999915
 20
77.500000000000028
 30
0.0
 11
47.499999999999922
 21
77.499999999999943
 31
0.0
  0
LINE
  5
2E
  8
0
 10
70.499999999999943
 20
68.000000000000028
 30
0.0
 11
47.499999999999943
 21
67.999999999999972
 31
0.0
  0
LINE
  5
2F
  8
0
 10
70.499999999999915
 20
77.500000000000028
 30
0.0
 11
70.499999999999915
 21
75.5
 31
0.0
  0
LINE
  5
30
  8
0
 10
70.499999999999943
 20
75.5
 30
0.0
 11
47.499999999999922
 21
75.5
 31
0.0
  0
LINE
  5
31
  8
0
 10
71.699999999999903
 20
74.850000000000023
 30
0.0
 11
46.299999999999919
 21
74.849999999999994
 31
0.0
  0
LINE
  5
32
  8
0
 10
71.699999999999903
 20
74.650000000000034
 30
0.0
 11
46.299999999999919
 21
74.650000000000006
 31
0.0
  0
LINE
  5
33
  8
0
 10
70.499999999999858
 20
73.999999999999972
 30
0.0
 11
47.499999999999922
 21
74.000000000000028
 31
0.0
  0
LINE
  5
34
  8
0
 10
71.699999999999875
 20
74.850000000000023
 30
0.0
 11
70.499999999999915
 21
75.500000000000028
 31
0.0
  0
LINE
  5
35
  8
0
 10
71.699999999999903
 20
74.650000000000034
 30
0.0
 11
70.499999999999915
 21
74.000000000000028
 31
0.0
  0
LINE
  5
36
  8
0
 10
71.699999999999903
 20
70.850000000000023
 30
0.0
 11
70.499999999999915
 21
71.500000000000028
 31
0.0
  0
LINE
  5
37
  8
0
 10
71.699999999999875
 20
70.650000000000034
 30
0.0
 11
70.499999999999915
 21
70.000000000000028
 31
0.0
  0
LINE
  5
38
  8
0
 10
70.499999999999858
 20
71.500000000000085
 30
0.0
 11
47.499999999999922
 21
71.500000000000057
 31
0.0
  0
LINE
  5
39
  8
0
 10
71.699999999999903
 20
70.850000000000023
 30
0.0
 11
46.299999999999919
 21
70.850000000000051
 31
0.0
  0
LINE
  5
3A
  8
0
 10
71.699999999999903
 20
70.650000000000034
 30
0.0
 11
46.299999999999919
 21
70.650000000000063
 31
0.0
  0
LINE
  5
3B
  8
0
 10
70.499999999999943
 20
70.000000000000057
 30
0.0
 11
47.499999999999922
 21
70.000000000000057
 31
0.0
  0
LINE
  5
3C
  8
0
 10
71.699999999999875
 20
70.850000000000051
 30
0.0
 11
71.699999999999875
 21
70.650000000000063
 31
0.0
  0
LINE
  5
3D
  8
0
 10
70.499999999999915
 20
74.0
 30
0.0
 11
70.499999999999915
 21
71.500000000000057
 31
0.0
  0
LINE
  5
3E
  8
0
 10
70.499999999999915
 20
70.000000000000085
 30
0.0
 11
70.499999999999943
 21
68.000000000000057
 31
0.0
  0
LINE
  5
3F
  8
0
 10
47.499999999999922
 20
70.000000000000085
 30
0.0
 11
47.499999999999922
 21
68.000000000000057
 31
0.0
  0
LINE
  5
40
  8
0
 10
47.499999999999922
 20
74.0
 30
0.0
 11
47.499999999999922
 21
71.500000000000057
 31
0.0
  0
LINE
  5
41
  8
0
 10
46.299999999999947
 20
70.850000000000051
 30
0.0
 11
46.299999999999947
 21
70.650000000000063
 31
0.0
  0
LINE
  5
42
  8
0
 10
46.299999999999947
 20
70.650000000000034
 30
0.0
 11
47.499999999999922
 21
70.000000000000028
 31
0.0
  0
LINE
  5
43
  8
0
 10
46.299999999999947
 20
70.850000000000023
 30
0.0
 11
47.499999999999922
 21
71.500000000000028
 31
0.0
  0
LINE
  5
44
  8
0
 10
46.299999999999947
 20
74.650000000000034
 30
0.0
 11
47.499999999999922
 21
74.000000000000028
 31
0.0
  0
LINE
  5
45
  8
0
 10
46.299999999999947
 20
74.850000000000023
 30
0.0
 11
47.499999999999922
 21
75.500000000000028
 31
0.0
  0
LINE
  5
46
  8
0
 10
47.499999999999922
 20
77.500000000000028
 30
0.0
 11
47.499999999999922
 21
75.5
 31
0.0
  0
LINE
  5
47
  8
0
 10
46.299999999999947
 20
74.850000000000051
 30
0.0
 11
46.299999999999947
 21
74.650000000000063
 31
0.0
  0
LINE
  5
48
  8
2
 10
51.099999999999909
 20
70.0
 30
0.0
 11
51.099999999999909
 21
67.999999999999972
 31
0.0
  0
LINE
  5
49
  8
2
 10
66.89999999999992
 20
70.0
 30
0.0
 11
66.89999999999992
 21
68.000000000000028
 31
0.0
  0
LINE
  5
4A
  8
2
 10
67.299999999999386
 20
75.189353337525404
 30
0.0
 11
67.299999999999386
 21
77.500000000000057
 31
0.0
  0
LINE
  5
4B
  8
2
 10
50.699999999999541
 20
73.435926573443268
 30
0.0
 11
50.699999999999498
 21
77.499999999999972
 31
0.0
  0
LINE
  5
4C
  8
2
 10
104.0106471624745
 20
111.90000000000001
 30
0.0
 11
101.7000004999999
 21
111.90000000000001
 31
0.0
  0
LINE
  5
4D
  8
2
 10
104.0106471624745
 20
128.49999999999989
 30
0.0
 11
101.7000004999998
 21
128.49999999999989
 31
0.0
  0
LINE
  5
4E
  8
2
 10
109.2000004999999
 20
128.10000000000039
 30
0.0
 11
111.2000004999998
 21
128.10000000000039
 31
0.0
  0
LINE
  5
4F
  8
2
 10
109.2000004999999
 20
112.3000000000003
 30
0.0
 11
111.2000004999999
 21
112.3000000000003
 31
0.0
  0
LINE
  5
50
  8
0
 10
104.35000049999979
 20
107.5000000000004
 30
0.0
 11
104.5500004999998
 21
107.5000000000004
 31
0.0
  0
LINE
  5
51
  8
0
 10
101.7000004999998
 20
108.7000000000004
 30
0.0
 11
103.7000004999999
 21
108.7000000000004
 31
0.0
  0
LINE
  5
52
  8
0
 10
104.35000049999979
 20
107.5000000000004
 30
0.0
 11
103.7000004999999
 21
108.7000000000004
 31
0.0
  0
LINE
  5
53
  8
0
 10
104.5500004999998
 20
107.5000000000004
 30
0.0
 11
105.2000004999998
 21
108.7000000000004
 31
0.0
  0
LINE
  5
54
  8
0
 10
108.35000049999979
 20
107.5000000000004
 30
0.0
 11
107.7000004999999
 21
108.7000000000004
 31
0.0
  0
LINE
  5
55
  8
0
 10
108.5500004999998
 20
107.5000000000004
 30
0.0
 11
109.2000004999998
 21
108.7000000000004
 31
0.0
  0
LINE
  5
56
  8
0
 10
108.35000049999979
 20
107.5000000000004
 30
0.0
 11
108.5500004999998
 21
107.5000000000004
 31
0.0
  0
LINE
  5
57
  8
0
 10
105.2000004999999
 20
108.7000000000004
 30
0.0
 11
107.7000004999998
 21
108.7000000000004
 31
0.0
  0
LINE
  5
58
  8
0
 10
109.2000004999998
 20
108.7000000000004
 30
0.0
 11
111.2000004999998
 21
108.7000000000004
 31
0.0
  0
LINE
  5
59
  8
0
 10
109.2000004999998
 20
131.70000000000039
 30
0.0
 11
111.2000004999998
 21
131.70000000000039
 31
0.0
  0
LINE
  5
5A
  8
0
 10
105.2000004999999
 20
131.70000000000039
 30
0.0
 11
107.7000004999998
 21
131.70000000000039
 31
0.0
  0
LINE
  5
5B
  8
0
 10
108.35000049999979
 20
132.90000000000029
 30
0.0
 11
108.5500004999998
 21
132.90000000000029
 31
0.0
  0
LINE
  5
5C
  8
0
 10
109.2000004999998
 20
131.70000000000039
 30
0.0
 11
109.2000004999998
 21
108.7000000000004
 31
0.0
  0
LINE
  5
5D
  8
0
 10
108.5500004999998
 20
132.90000000000029
 30
0.0
 11
108.5500004999998
 21
107.5000000000004
 31
0.0
  0
LINE
  5
5E
  8
0
 10
108.35000049999979
 20
132.90000000000029
 30
0.0
 11
108.35000049999979
 21
107.5000000000004
 31
0.0
  0
LINE
  5
5F
  8
0
 10
107.7000004999998
 20
131.7000000000003
 30
0.0
 11
107.7000004999998
 21
108.7000000000004
 31
0.0
  0
LINE
  5
60
  8
0
 10
108.5500004999998
 20
132.90000000000029
 30
0.0
 11
109.2000004999998
 21
131.70000000000039
 31
0.0
  0
LINE
  5
61
  8
0
 10
108.35000049999979
 20
132.90000000000029
 30
0.0
 11
107.7000004999999
 21
131.70000000000039
 31
0.0
  0
LINE
  5
62
  8
0
 10
104.5500004999998
 20
132.90000000000029
 30
0.0
 11
105.2000004999998
 21
131.70000000000039
 31
0.0
  0
LINE
  5
63
  8
0
 10
104.35000049999979
 20
132.90000000000029
 30
0.0
 11
103.7000004999999
 21
131.70000000000039
 31
0.0
  0
LINE
  5
64
  8
0
 10
105.2000004999999
 20
131.7000000000003
 30
0.0
 11
105.2000004999998
 21
108.7000000000004
 31
0.0
  0
LINE
  5
65
  8
0
 10
104.5500004999998
 20
132.90000000000029
 30
0.0
 11
104.5500004999999
 21
107.5000000000004
 31
0.0
  0
LINE
  5
66
  8
0
 10
104.35000049999979
 20
132.90000000000029
 30
0.0
 11
104.35000049999989
 21
107.5000000000004
 31
0.0
  0
LINE
  5
67
  8
0
 10
103.7000004999999
 20
131.70000000000039
 30
0.0
 11
103.7000004999999
 21
108.7000000000004
 31
0.0
  0
LINE
  5
68
  8
0
 10
101.7000004999998
 20
131.70000000000039
 30
0.0
 11
103.7000004999999
 21
131.70000000000039
 31
0.0
  0
LINE
  5
69
  8
0
 10
111.2000004999998
 20
131.70000000000039
 30
0.0
 11
111.2000004999999
 21
108.7000000000004
 31
0.0
  0
LINE
  5
6A
  8
0
 10
101.7000004999998
 20
131.70000000000039
 30
0.0
 11
101.7000004999999
 21
108.7000000000004
 31
0.0
  0
LINE
  5
6B
  8
0
 10
104.35000049999979
 20
132.90000000000029
 30
0.0
 11
104.5500004999998
 21
132.90000000000029
 31
0.0
  0
CIRCLE
  5
6C
  8
0
 10
59.000000499999921
 20
120.2
 30
0.0
 40
12.699999999999999
  0
CIRCLE
  5
6D
  8
0
 10
58.999999999999879
 20
120.2
 30
0.0
 40
11.5
  0
LINE
  5
6E
  8
2
 10
50.700000500393962
 20
73.435927562560494
 30
0.0
 11
67.300000500393764
 21
75.189353337525404
 31
0.0
  0
ARC
  5
6F
  8
2
 10
56.946180186365673
 20
70.275984631026091
 30
0.0
 40
7.0
 50
106.1424100324994
 51
153.16514687457399
  0
ARC
  5
70
  8
2
 10
61.915773648282247
 20
70.716088176035271
 30
0.0
 40
7.0
 50
39.720114007328739
 51
63.85758996750058
  0
LINE
  5
71
  8
1
 10
58.99999999999995
 20
63.0
 30
0.0
 11
58.99999999999995
 21
82.5
 31
0.0
  0
LINE
  5
74
  8
2
 10
54.999999999999943
 20
77.000000000000014
 30
0.0
 11
65.000000000000909
 21
77.000000000000057
 31
0.0
  0
LINE
  5
75
  8
2
 10
50.700000500393962
 20
73.435927562560494
 30
0.0
 11
50.700000500393912
 21
70.0
 31
0.0
  0
LINE
  5
76
  8
2
 10
67.300000500393821
 20
75.189353337525333
 30
0.0
 11
67.300000500393878
 21
70.0
 31
0.0
  0
LINE
  5
77
  8
2
 10
50.700000500393912
 20
70.0
 30
0.0
 11
67.300000500393878
 21
70.000000000000057
 31
0.0
  0
LINE
  5
78
  8
0
 10
64.000000500393924
 20
44.999999999999943
 30
0.0
 11
56.000000500393917
 21
45.000000000000057
 31
0.0
  0
LINE
  5
79
  8
0
 10
54.000000500394009
 20
67.999999999999986
 30
0.0
 11
54.000000500393917
 21
47.00000000000005
 31
0.0
  0
LINE
  5
7A
  8
3
 10
54.947000500393919
 20
68.0
 30
0.0
 11
54.947000500393919
 21
46.053000000000111
 31
0.0
  0
LINE
  5
7C
  8
3
 10
65.053000500393978
 20
67.999999999999943
 30
0.0
 11
65.053000500393978
 21
46.05299999999999
 31
0.0
  0
LINE
  5
7D
  8
0
 10
66.000000500393924
 20
68.000000000000014
 30
0.0
 11
66.000000500393924
 21
46.999999999999943
 31
0.0
  0
LINE
  5
7E
  8
0
 10
64.000000500393924
 20
44.999999999999943
 30
0.0
 11
66.000000500393924
 21
46.999999999999943
 31
0.0
  0
LINE
  5
7F
  8
0
 10
56.000000500393917
 20
45.000000000000057
 30
0.0
 11
54.000000500393917
 21
47.00000000000005
 31
0.0
  0
LINE
  5
80
  8
0
 10
66.000000500393924
 20
47.0
 30
0.0
 11
54.000000500393917
 21
47.00000000000005
 31
0.0
  0
LINE
  5
81
  8
0
 10
54.00000050039398
 20
68.0
 30
0.0
 11
66.000000500394037
 21
68.0
 31
0.0
  0
LINE
  5
82
  8
2
 10
65.053000500393978
 20
68.0
 30
0.0
 11
66.00000050039398
 21
69.640252114767691
 31
0.0
  0
LINE
  5
83
  8
2
 10
54.947000500393919
 20
68.0
 30
0.0
 11
54.00000050039398
 21
69.640252114767691
 31
0.0
  0
LINE
  5
84
  8
1
 10
59.999999999999893
 20
111.2
 30
0.0
 11
59.999999999999922
 21
129.19999999999999
 31
0.0
  0
CIRCLE
  5
85
  8
0
 10
59.000000499999921
 20
120.2
 30
0.0
 40
8.3000000000000007
  0
LINE
  5
86
  8
1
 10
58.99999999999995
 20
102.5
 30
0.0
 11
58.999999999999829
 21
137.90000000000001
 31
0.0
  0
LINE
  5
87
  8
1
 10
41.300000499999918
 20
120.2
 30
0.0
 11
76.700000499999902
 21
120.2
 31
0.0
  0
LINE
  5
88
  8
1
 10
60.0
 20
40.0
 30
0.0
 11
59.999999999999893
 21
82.5
 31
0.0
  0
LINE
  5
89
  8
2
 10
102.2000004999999
 20
114.2000005003929
 30
0.0
 11
102.2000004999999
 21
126.199999499607
 31
0.0
  0
LINE
  5
8A
  8
2
 10
104.0106471624746
 20
111.90000000000001
 30
0.0
 11
109.2000004999999
 21
111.90000000000001
 31
0.0
  0
LINE
  5
8B
  8
2
 10
104.0106471624746
 20
128.49999999999989
 30
0.0
 11
109.2000004999999
 21
128.49999999999989
 31
0.0
  0
LINE
  5
8C
  8
2
 10
109.2000004999999
 20
111.90000000000001
 30
0.0
 11
109.2000004999998
 21
128.49999999999989
 31
0.0
  0
LINE
  5
8D
  8
0
 10
134.2000004999999
 20
124.2
 30
0.0
 11
134.20000049999979
 21
116.2
 31
0.0
  0
LINE
  5
8E
  8
0
 10
111.2000004999998
 20
114.2
 30
0.0
 11
132.20000049999979
 21
114.2
 31
0.0
  0
LINE
  5
8F
  8
3
 10
111.2000004999999
 20
115.14700000000001
 30
0.0
 11
133.14700049999979
 21
115.14700000000001
 31
0.0
  0
LINE
  5
90
  8
3
 10
111.2000004999999
 20
125.2530000000001
 30
0.0
 11
133.1470004999999
 21
125.253
 31
0.0
  0
LINE
  5
91
  8
0
 10
111.2000004999999
 20
126.2
 30
0.0
 11
132.2000004999999
 21
126.2
 31
0.0
  0
LINE
  5
92
  8
0
 10
134.2000004999999
 20
124.2
 30
0.0
 11
132.2000004999999
 21
126.2
 31
0.0
  0
LINE
  5
93
  8
0
 10
134.20000049999979
 20
116.2
 30
0.0
 11
132.20000049999979
 21
114.2
 31
0.0
  0
LINE
  5
94
  8
0
 10
132.2000004999999
 20
126.2
 30
0.0
 11
132.20000049999979
 21
114.2
 31
0.0
  0
LINE
  5
95
  8
0
 10
111.2000004999999
 20
114.2
 30
0.0
 11
111.2000004999999
 21
126.2
 31
0.0
  0
LINE
  5
96
  8
2
 10
111.2000004999999
 20
125.2530000000001
 30
0.0
 11
109.5597483852322
 21
126.2
 31
0.0
  0
LINE
  5
97
  8
2
 10
111.2000004999999
 20
115.14700000000001
 30
0.0
 11
109.5597483852322
 21
114.2
 31
0.0
  0
LINE
  5
98
  8
1
 10
139.2000004999999
 20
120.2
 30
0.0
 11
96.700000499999916
 21
120.2
 31
0.0
  0
ARC
  5
99
  8
2
 10
108.4839123239646
 20
123.11577314788831
 30
0.0
 40
7.0
 50
129.7201140073287
 51
153.8575899675005
  0
ARC
  5
9A
  8
2
 10
108.4839123239646
 20
117.2842268521116
 30
0.0
 40
7.0
 50
206.1424100324995
 51
230.2798859926713
  0
LINE
  5
9B
  8
2
 10
104.0106471624745
 20
128.49999999999989
 30
0.0
 11
104.0106471624745
 21
111.90000000000011
 31
0.0
  0
LINE
  5
9C
  8
0
 10
57.690594999999888
 20
124.2
 30
0.0
 11
55.381194999999899
 21
120.2
 31
0.0
  0
LINE
  5
9D
  8
0
 10
55.381194999999899
 20
120.2
 30
0.0
 11
57.690594999999888
 21
116.2
 31
0.0
  0
LINE
  5
9E
  8
0
 10
57.690594999999888
 20
116.2
 30
0.0
 11
62.309394999999903
 21
116.2
 31
0.0
  0
LINE
  5
9F
  8
0
 10
62.309394999999903
 20
116.2
 30
0.0
 11
64.618804999999924
 21
120.2
 31
0.0
  0
LINE
  5
A0
  8
0
 10
64.618804999999924
 20
120.2
 30
0.0
 11
62.309394999999903
 21
124.2
 31
0.0
  0
LINE
  5
A1
  8
0
 10
62.309394999999903
 20
124.2
 30
0.0
 11
57.690594999999888
 21
124.2
 31
0.0
  0
TEXT
  5
15C
  8
0
 62
     3
 10
0.0
 20
0.0
 30
0.0
 40
5.0
  1
MBRFC12
  7
STANDARD1
  0
ENDSEC
  0
EOF
