  0
SECTION
  2
HEADER
  9
$ACADVER
  1
AC1009
  9
$INSBASE
 10
398.79744446123732
 20
261.28368276089321
 30
0.0
  9
$EXTMIN
 10
0.0
 20
-2.960436562073669
 30
0.0
  9
$EXTMAX
 10
381.37828272375202
 20
264.66409272037919
 30
0.0
  9
$LIMMIN
 10
0.0
 20
0.0
  9
$LIMMAX
 10
12.0
 20
9.0
  9
$ORTHOMODE
 70
     1
  9
$REGENMODE
 70
     1
  9
$FILLMODE
 70
     1
  9
$QTEXTMODE
 70
     0
  9
$MIRRTEXT
 70
     0
  9
$DRAGMODE
 70
     2
  9
$LTSCALE
 40
2.0
  9
$OSMODE
 70
  3071
  9
$ATTMODE
 70
     1
  9
$TEXTSIZE
 40
0.2
  9
$TRACEWID
 40
0.05
  9
$TEXTSTYLE
  7
STANDARD
  9
$CLAYER
  8
0
  9
$CELTYPE
  6
BYLAYER
  9
$CECOLOR
 62
   256
  9
$DIMSCALE
 40
1.0
  9
$DIMASZ
 40
1.0
  9
$DIMEXO
 40
2.54
  9
$DIMDLI
 40
0.38
  9
$DIMRND
 40
0.0
  9
$DIMDLE
 40
0.0
  9
$DIMEXE
 40
2.54
  9
$DIMTP
 40
0.0
  9
$DIMTM
 40
0.0
  9
$DIMTXT
 40
3.2000000000000002
  9
$DIMCEN
 40
0.09
  9
$DIMTSZ
 40
0.0
  9
$DIMTOL
 70
     0
  9
$DIMLIM
 70
     0
  9
$DIMTIH
 70
     0
  9
$DIMTOH
 70
     0
  9
$DIMSE1
 70
     0
  9
$DIMSE2
 70
     0
  9
$DIMTAD
 70
     1
  9
$DIMZIN
 70
     0
  9
$DIMBLK
  1

  9
$DIMASO
 70
     1
  9
$DIMSHO
 70
     0
  9
$DIMPOST
  1

  9
$DIMAPOST
  1

  9
$DIMALT
 70
     0
  9
$DIMALTD
 70
     2
  9
$DIMALTF
 40
25.399999999999999
  9
$DIMLFAC
 40
1.0
  9
$DIMTOFL
 70
     0
  9
$DIMTVP
 40
1.0
  9
$DIMTIX
 70
     0
  9
$DIMSOXD
 70
     0
  9
$DIMSAH
 70
     1
  9
$DIMBLK1
  1

  9
$DIMBLK2
  1

  9
$DIMSTYLE
  2
STANDARD
  9
$DIMCLRD
 70
     0
  9
$DIMCLRE
 70
     0
  9
$DIMCLRT
 70
     0
  9
$DIMTFAC
 40
1.0
  9
$DIMGAP
 40
1.6000000000000001
  9
$LUNITS
 70
     2
  9
$LUPREC
 70
     4
  9
$SKETCHINC
 40
0.1
  9
$FILLETRAD
 40
0.5
  9
$AUNITS
 70
     0
  9
$AUPREC
 70
     0
  9
$MENU
  1
.
  9
$ELEVATION
 40
0.0
  9
$PELEVATION
 40
0.0
  9
$THICKNESS
 40
0.0
  9
$LIMCHECK
 70
     0
  9
$BLIPMODE
 70
     0
  9
$CHAMFERA
 40
0.2
  9
$CHAMFERB
 40
0.2
  9
$SKPOLY
 70
     0
  9
$TDCREATE
 40
2453173.4709223039
  9
$TDUPDATE
 40
2456597.6351379859
  9
$TDINDWG
 40
2.0576299652999999
  9
$TDUSRTIMER
 40
2.0576299652999999
  9
$USRTIMER
 70
     1
  9
$ANGBASE
 50
0.0
  9
$ANGDIR
 70
     0
  9
$PDMODE
 70
     0
  9
$PDSIZE
 40
0.0
  9
$PLINEWID
 40
0.0
  9
$COORDS
 70
     1
  9
$SPLFRAME
 70
     0
  9
$SPLINETYPE
 70
     6
  9
$SPLINESEGS
 70
     8
  9
$ATTDIA
 70
     0
  9
$ATTREQ
 70
     1
  9
$HANDLING
 70
     1
  9
$HANDSEED
  5
437
  9
$SURFTAB1
 70
     6
  9
$SURFTAB2
 70
     6
  9
$SURFTYPE
 70
     6
  9
$SURFU
 70
     6
  9
$SURFV
 70
     6
  9
$UCSNAME
  2

  9
$UCSORG
 10
0.0
 20
0.0
 30
0.0
  9
$UCSXDIR
 10
1.0
 20
0.0
 30
0.0
  9
$UCSYDIR
 10
0.0
 20
1.0
 30
0.0
  9
$PUCSNAME
  2

  9
$PUCSORG
 10
0.0
 20
0.0
 30
0.0
  9
$PUCSXDIR
 10
1.0
 20
0.0
 30
0.0
  9
$PUCSYDIR
 10
0.0
 20
1.0
 30
0.0
  9
$USERI1
 70
     0
  9
$USERI2
 70
     0
  9
$USERI3
 70
     0
  9
$USERI4
 70
     0
  9
$USERI5
 70
     0
  9
$USERR1
 40
0.0
  9
$USERR2
 40
0.0
  9
$USERR3
 40
0.0
  9
$USERR4
 40
0.0
  9
$USERR5
 40
0.0
  9
$WORLDVIEW
 70
     1
  9
$SHADEDGE
 70
     3
  9
$SHADEDIF
 70
    70
  9
$TILEMODE
 70
     1
  9
$MAXACTVP
 70
    64
  9
$PLIMCHECK
 70
     0
  9
$PEXTMIN
 10
1.0000000000000000E+020
 20
1.0000000000000000E+020
 30
1.0000000000000000E+020
  9
$PEXTMAX
 10
-1.0000000000000000E+020
 20
-1.0000000000000000E+020
 30
-1.0000000000000000E+020
  9
$PLIMMIN
 10
0.0
 20
0.0
  9
$PLIMMAX
 10
12.0
 20
9.0
  9
$UNITMODE
 70
     0
  9
$VISRETAIN
 70
     1
  9
$PLINEGEN
 70
     0
  9
$PSLTSCALE
 70
     1
  0
ENDSEC
  0
SECTION
  2
TABLES
  0
TABLE
  2
VPORT
 70
     1
  0
VPORT
  2
*ACTIVE
 70
     0
 10
0.0
 20
0.0
 11
1.0
 21
1.0
 12
190.68914224984141
 22
131.4273222507918
 13
0.0
 23
0.0
 14
1.0
 24
1.0
 15
0.0
 25
0.0
 16
0.0
 26
0.0
 36
1.0
 17
0.0
 27
0.0
 37
0.0
 40
271.8837434823929
 41
2.304913294797688
 42
50.0
 43
0.0
 44
0.0
 50
0.0
 51
0.0
 71
     0
 72
   100
 73
     1
 74
     1
 75
     0
 76
     0
 77
     0
 78
     0
  0
ENDTAB
  0
TABLE
  2
LTYPE
 70
     5
  0
LTYPE
  2
CONTINUOUS
 70
     0
  3
Solid line
 72
    65
 73
     0
 40
0.0
  0
LTYPE
  2
CENTER
 70
     0
  3
Center ____ _ ____ _ ____ _ ____ _ ____ _ ____
 72
    65
 73
     4
 40
12.0
 49
7.5
 49
-1.5
 49
1.5
 49
-1.5
  0
LTYPE
  2
HIDDEN
 70
     0
  3
Hidden __ __ __ __ __ __ __ __ __ __ __ __ __ _
 72
    65
 73
     2
 40
4.5
 49
3.0
 49
-1.5
  0
LTYPE
  2
PHANTOM
 70
     0
  3
Phantom ______  __  __  ______  __  __  ______
 72
    65
 73
     6
 40
15.0
 49
7.5
 49
-1.5
 49
1.5
 49
-1.5
 49
1.5
 49
-1.5
  0
LTYPE
  2
PHANTOM2
 70
     0
  3
___ _ _ ___ _ _ ___ _ _ ___ _ _
 72
    65
 73
     6
 40
1.25
 49
0.625
 49
-0.125
 49
0.125
 49
-0.125
 49
0.125
 49
-0.125
  0
ENDTAB
  0
TABLE
  2
LAYER
 70
     6
  0
LAYER
  2
0
 70
     0
 62
     7
  6
CONTINUOUS
  0
LAYER
  2
1
 70
     0
 62
     1
  6
CENTER
  0
LAYER
  2
2
 70
     0
 62
     2
  6
HIDDEN
  0
LAYER
  2
3
 70
     0
 62
     3
  6
CONTINUOUS
  0
LAYER
  2
5
 70
     0
 62
     3
  6
PHANTOM
  0
LAYER
  2
DEFPOINTS
 70
     0
 62
     7
  6
CONTINUOUS
  0
ENDTAB
  0
TABLE
  2
STYLE
 70
     2
  0
STYLE
  2
STANDARD
 70
     0
 40
0.0
 41
1.0
 50
0.0
 71
     0
 42
0.2
  3
simplex.shx
  4
bigfont.shx
  0
STYLE
  2
STANDARD1
 70
     0
 40
0.0
 41
1.0
 50
0.0
 71
     0
 42
3.0
  3
txt
  4

  0
ENDTAB
  0
TABLE
  2
VIEW
 70
     0
  0
ENDTAB
  0
TABLE
  2
UCS
 70
     0
  0
ENDTAB
  0
TABLE
  2
APPID
 70
     3
  0
APPID
  2
ACAD
 70
     0
  0
APPID
  2
ACAD_MLEADERVER
 70
     0
  0
APPID
  2
ACAD_NAV_VCDISPLAY
 70
     0
  0
ENDTAB
  0
TABLE
  2
DIMSTYLE
 70
     1
  0
DIMSTYLE
  2
STANDARD
 70
     0
  3

  4

  5

  6

  7

 40
1.0
 41
0.18
 42
0.0625
 43
0.38
 44
0.18
 45
0.0
 46
0.0
 47
0.0
 48
0.0
140
0.18
141
0.09
142
0.0
143
25.399999999999999
144
1.0
145
0.0
146
1.0
147
0.09
 71
     0
 72
     0
 73
     1
 74
     1
 75
     0
 76
     0
 77
     0
 78
     0
170
     0
171
     2
172
     0
173
     0
174
     0
175
     0
176
     0
177
     0
178
     0
  0
ENDTAB
  0
ENDSEC
  0
SECTION
  2
BLOCKS
  0
BLOCK
  8
0
  2
$MODEL_SPACE
 70
     0
 10
0.0
 20
0.0
 30
0.0
  3
$MODEL_SPACE
  1

  0
ENDBLK
  5
9
  8
0
  0
BLOCK
 67
     1
  8
0
  2
$PAPER_SPACE
 70
     0
 10
0.0
 20
0.0
 30
0.0
  3
$PAPER_SPACE
  1

  0
ENDBLK
  5
E
 67
     1
  8
0
  0
ENDSEC
  0
SECTION
  2
ENTITIES
  0
ARC
  5
26
  8
0
 10
159.65214764229461
 20
200.91409272037919
 30
0.0
 40
38.850000000000001
 50
271.2536756477777
 51
313.7463243522223
  0
ARC
  5
27
  8
0
 10
159.65214764229461
 20
200.91409272037919
 30
0.0
 40
38.850000000000001
 50
1.253675647778479
 51
43.746324352221571
  0
ARC
  5
28
  8
0
 10
159.65214764229461
 20
200.91409272037919
 30
0.0
 40
38.850000000000001
 50
316.25367564777821
 51
358.74632435222242
  0
ARC
  5
29
  8
0
 10
159.65214764229461
 20
200.91409272037919
 30
0.0
 40
38.850000000000001
 50
181.25367564777801
 51
223.74632435222171
  0
ARC
  5
2A
  8
0
 10
159.65214764229461
 20
200.91409272037919
 30
0.0
 40
38.850000000000001
 50
226.25367564777781
 51
268.74632435222162
  0
ARC
  5
2B
  8
0
 10
159.65214764229461
 20
200.91409272037919
 30
0.0
 40
38.850000000000001
 50
91.253675647777953
 51
133.7463243522221
  0
ARC
  5
2C
  8
0
 10
159.65214764229461
 20
200.91409272037919
 30
0.0
 40
38.850000000000001
 50
46.253675647777882
 51
88.746324352221876
  0
ARC
  5
2D
  8
0
 10
183.80214764229481
 20
62.214092720379199
 30
0.0
 40
2.6499999999999768
 50
90.0
 51
270.0
  0
ARC
  5
2E
  8
0
 10
135.5021476422946
 20
62.214092720379199
 30
0.0
 40
2.6499999999999768
 50
270.0
 51
90.0
  0
LINE
  5
2F
  8
0
 10
158.80214764229439
 20
97.164092720379188
 30
0.0
 11
160.5021476422946
 21
97.164092720379188
 31
0.0
  0
LINE
  5
30
  8
0
 10
158.80214764229439
 20
81.164092720379173
 30
0.0
 11
160.5021476422946
 21
81.164092720379173
 31
0.0
  0
LINE
  5
31
  8
0
 10
158.80214764229439
 20
79.289147721185941
 30
0.0
 11
160.5021476422946
 21
79.289147721185941
 31
0.0
  0
LINE
  5
32
  8
2
 10
158.8021476422945
 20
79.289147721185941
 30
0.0
 11
151.65214764229481
 21
79.289147721185941
 31
0.0
  0
LINE
  5
35
  8
2
 10
160.5021476422946
 20
81.164092720379173
 30
0.0
 11
168.40214764229469
 21
81.164092720379173
 31
0.0
  0
LINE
  5
36
  8
2
 10
160.50214764229469
 20
97.164092720379188
 30
0.0
 11
170.40214764229481
 21
97.164092720379188
 31
0.0
  0
LINE
  5
37
  8
3
 10
166.56964764229471
 20
51.664092720379202
 30
0.0
 11
166.5696476422948
 21
33.281592720379251
 31
0.0
  0
LINE
  5
39
  8
0
 10
167.65214764229469
 20
51.664092720379273
 30
0.0
 11
167.65214764229461
 21
34.364092720379183
 31
0.0
  0
LINE
  5
3A
  8
0
 10
151.65214764229489
 20
51.664092720379273
 30
0.0
 11
151.65214764229469
 21
34.364092720379347
 31
0.0
  0
LINE
  5
3B
  8
3
 10
152.7346476422945
 20
51.664092720379273
 30
0.0
 11
152.73464764229459
 21
33.281592720379408
 31
0.0
  0
LINE
  5
3C
  8
0
 10
158.80214764229439
 20
60.064092720379271
 30
0.0
 11
160.5021476422946
 21
60.064092720379222
 31
0.0
  0
LINE
  5
3D
  8
0
 10
131.58658430825031
 20
97.164092720379188
 30
0.0
 11
131.5865843082502
 21
64.864092720379119
 31
0.0
  0
LINE
  5
3E
  8
0
 10
132.78866583626751
 20
97.164092720379244
 30
0.0
 11
132.78866583626751
 21
64.864092720379176
 31
0.0
  0
LINE
  5
3F
  8
0
 10
158.80214764229439
 20
97.164092720379188
 30
0.0
 11
158.80214764229439
 21
60.064092720379222
 31
0.0
  0
LINE
  5
40
  8
0
 10
160.5021476422946
 20
97.164092720379188
 30
0.0
 11
160.50214764229449
 21
60.064092720379222
 31
0.0
  0
LINE
  5
41
  8
0
 10
186.51562944832199
 20
97.164092720379188
 30
0.0
 11
186.51562944832199
 21
64.864092720379119
 31
0.0
  0
LINE
  5
42
  8
0
 10
187.71771097633911
 20
97.164092720379188
 30
0.0
 11
187.71771097633911
 21
64.864092720379119
 31
0.0
  0
LINE
  5
43
  8
0
 10
120.8021476422947
 20
64.864092720379176
 30
0.0
 11
158.80214764229439
 21
64.864092720379176
 31
0.0
  0
LINE
  5
44
  8
2
 10
202.74912383751439
 20
54.464092720379199
 30
0.0
 11
196.74912383751439
 21
54.464092720379199
 31
0.0
  0
LINE
  5
45
  8
2
 10
205.7491238375145
 20
57.464092720379199
 30
0.0
 11
202.74912383751439
 21
54.464092720379199
 31
0.0
  0
LINE
  5
46
  8
2
 10
193.74912383751439
 20
57.464092720379199
 30
0.0
 11
196.74912383751439
 21
54.464092720379199
 31
0.0
  0
LINE
  5
47
  8
2
 10
193.74912383751439
 20
57.764092720379267
 30
0.0
 11
193.74912383751439
 21
57.464092720379199
 31
0.0
  0
LINE
  5
48
  8
2
 10
205.7491238375145
 20
57.764092720379267
 30
0.0
 11
193.74912383751439
 21
57.764092720379267
 31
0.0
  0
LINE
  5
49
  8
2
 10
205.7491238375145
 20
57.464092720379199
 30
0.0
 11
205.7491238375145
 21
57.764092720379267
 31
0.0
  0
LINE
  5
4A
  8
2
 10
193.74912383751439
 20
57.464092720379199
 30
0.0
 11
205.7491238375145
 21
57.464092720379199
 31
0.0
  0
LINE
  5
4B
  8
2
 10
193.74912383751439
 20
57.764092720379267
 30
0.0
 11
193.74912383751439
 21
57.464092720379199
 31
0.0
  0
LINE
  5
4C
  8
0
 10
197.74912383751439
 20
37.664092720379273
 30
0.0
 11
201.74912383751439
 21
37.664092720379273
 31
0.0
  0
LINE
  5
4D
  8
0
 10
202.7491238375145
 20
51.664092720379273
 30
0.0
 11
202.74912383751439
 21
38.664092720379152
 31
0.0
  0
LINE
  5
4E
  8
3
 10
202.20762383751449
 20
51.664092720379273
 30
0.0
 11
202.2076238375146
 21
38.122592720379338
 31
0.0
  0
LINE
  5
4F
  8
3
 10
197.2906238375144
 20
51.664092720379273
 30
0.0
 11
197.29062383751429
 21
38.122592720379338
 31
0.0
  0
LINE
  5
50
  8
0
 10
196.74912383751439
 20
51.664092720379273
 30
0.0
 11
196.74912383751439
 21
38.664092720379273
 31
0.0
  0
LINE
  5
51
  8
0
 10
196.74912383751439
 20
38.664092720379273
 30
0.0
 11
197.74912383751439
 21
37.664092720379273
 31
0.0
  0
LINE
  5
52
  8
0
 10
201.74912383751439
 20
37.664092720379273
 30
0.0
 11
202.74912383751439
 21
38.664092720379273
 31
0.0
  0
LINE
  5
53
  8
0
 10
202.74912383751439
 20
38.664092720379273
 30
0.0
 11
196.74912383751439
 21
38.664092720379273
 31
0.0
  0
LINE
  5
54
  8
2
 10
202.74912383751439
 20
53.526187208080842
 30
0.0
 11
196.74912383751439
 21
53.526187208080842
 31
0.0
  0
LINE
  5
55
  8
2
 10
197.2906238375144
 20
53.526187208080842
 30
0.0
 11
196.74912383751439
 21
54.464092720379199
 31
0.0
  0
LINE
  5
56
  8
2
 10
202.20762383751449
 20
53.526187208080842
 30
0.0
 11
202.74912383751439
 21
54.464092720379313
 31
0.0
  0
LINE
  5
57
  8
1
 10
199.74912383751439
 20
62.764092720379267
 30
0.0
 11
199.74912383751439
 21
32.664092720379273
 31
0.0
  0
LINE
  5
5A
  8
2
 10
202.20762383751449
 20
51.664092720379273
 30
0.0
 11
202.20762383751449
 21
53.526187208080842
 31
0.0
  0
LINE
  5
5B
  8
2
 10
202.74912383751439
 20
54.464092720379199
 30
0.0
 11
202.7491238375145
 21
51.664092720379273
 31
0.0
  0
LINE
  5
5C
  8
2
 10
196.7491238375145
 20
54.464092720379199
 30
0.0
 11
196.7491238375145
 21
51.664092720379273
 31
0.0
  0
LINE
  5
5D
  8
2
 10
197.2906238375144
 20
53.526187208080842
 30
0.0
 11
197.2906238375144
 21
51.664092720379273
 31
0.0
  0
LINE
  5
5E
  8
2
 10
122.0136714470753
 20
53.526187208080842
 30
0.0
 11
122.0136714470752
 21
51.664092720379273
 31
0.0
  0
LINE
  5
5F
  8
2
 10
122.5551714470751
 20
54.464092720379199
 30
0.0
 11
122.5551714470751
 21
51.664092720379273
 31
0.0
  0
LINE
  5
60
  8
2
 10
116.5551714470752
 20
54.464092720379199
 30
0.0
 11
116.5551714470751
 21
51.664092720379273
 31
0.0
  0
LINE
  5
61
  8
2
 10
117.0966714470751
 20
51.664092720379273
 30
0.0
 11
117.0966714470752
 21
53.526187208080842
 31
0.0
  0
LINE
  5
62
  8
1
 10
119.5551714470752
 20
62.764092720379267
 30
0.0
 11
119.5551714470752
 21
32.664092720379273
 31
0.0
  0
LINE
  5
63
  8
2
 10
117.0966714470752
 20
53.526187208080842
 30
0.0
 11
116.5551714470752
 21
54.464092720379313
 31
0.0
  0
LINE
  5
64
  8
2
 10
122.0136714470753
 20
53.526187208080842
 30
0.0
 11
122.5551714470752
 21
54.464092720379199
 31
0.0
  0
LINE
  5
65
  8
2
 10
116.5551714470752
 20
53.526187208080842
 30
0.0
 11
122.5551714470752
 21
53.526187208080842
 31
0.0
  0
LINE
  5
66
  8
0
 10
116.5551714470752
 20
38.664092720379273
 30
0.0
 11
122.5551714470752
 21
38.664092720379273
 31
0.0
  0
LINE
  5
67
  8
0
 10
117.5551714470752
 20
37.664092720379273
 30
0.0
 11
116.5551714470752
 21
38.664092720379273
 31
0.0
  0
LINE
  5
68
  8
0
 10
122.5551714470752
 20
38.664092720379273
 30
0.0
 11
121.5551714470752
 21
37.664092720379273
 31
0.0
  0
LINE
  5
69
  8
0
 10
122.5551714470752
 20
51.664092720379273
 30
0.0
 11
122.5551714470752
 21
38.664092720379273
 31
0.0
  0
LINE
  5
6A
  8
3
 10
122.0136714470753
 20
51.664092720379273
 30
0.0
 11
122.0136714470753
 21
38.122592720379338
 31
0.0
  0
LINE
  5
6B
  8
3
 10
117.0966714470751
 20
51.664092720379273
 30
0.0
 11
117.0966714470751
 21
38.122592720379338
 31
0.0
  0
LINE
  5
6C
  8
0
 10
116.5551714470751
 20
51.664092720379273
 30
0.0
 11
116.5551714470752
 21
38.664092720379152
 31
0.0
  0
LINE
  5
6D
  8
0
 10
121.5551714470752
 20
37.664092720379273
 30
0.0
 11
117.5551714470752
 21
37.664092720379273
 31
0.0
  0
LINE
  5
6E
  8
2
 10
125.5551714470752
 20
57.764092720379267
 30
0.0
 11
125.5551714470752
 21
57.464092720379199
 31
0.0
  0
LINE
  5
6F
  8
2
 10
125.5551714470752
 20
57.464092720379199
 30
0.0
 11
113.5551714470752
 21
57.464092720379199
 31
0.0
  0
LINE
  5
70
  8
2
 10
113.5551714470752
 20
57.464092720379199
 30
0.0
 11
113.5551714470752
 21
57.764092720379267
 31
0.0
  0
LINE
  5
71
  8
2
 10
113.5551714470752
 20
57.764092720379267
 30
0.0
 11
125.5551714470752
 21
57.764092720379267
 31
0.0
  0
LINE
  5
72
  8
2
 10
125.5551714470752
 20
57.764092720379267
 30
0.0
 11
125.5551714470752
 21
57.464092720379199
 31
0.0
  0
LINE
  5
73
  8
2
 10
125.5551714470752
 20
57.464092720379199
 30
0.0
 11
122.5551714470752
 21
54.464092720379199
 31
0.0
  0
LINE
  5
74
  8
2
 10
113.5551714470752
 20
57.464092720379199
 30
0.0
 11
116.5551714470752
 21
54.464092720379199
 31
0.0
  0
LINE
  5
75
  8
2
 10
116.5551714470752
 20
54.464092720379199
 30
0.0
 11
122.5551714470752
 21
54.464092720379199
 31
0.0
  0
LINE
  5
76
  8
0
 10
165.65214764229469
 20
32.364092720379183
 30
0.0
 11
153.65214764229469
 21
32.364092720379347
 31
0.0
  0
LINE
  5
77
  8
0
 10
167.65214764229469
 20
34.364092720379183
 30
0.0
 11
165.65214764229469
 21
32.364092720379183
 31
0.0
  0
LINE
  5
78
  8
0
 10
153.65214764229469
 20
32.364092720379347
 30
0.0
 11
151.65214764229469
 21
34.364092720379347
 31
0.0
  0
LINE
  5
79
  8
0
 10
151.65214764229469
 20
34.364092720379347
 30
0.0
 11
167.65214764229469
 21
34.364092720379183
 31
0.0
  0
LINE
  5
7A
  8
2
 10
152.7346476422947
 20
79.289147721185941
 30
0.0
 11
151.65214764229481
 21
81.164092720379131
 31
0.0
  0
LINE
  5
7B
  8
2
 10
166.5696476422948
 20
79.289147721185941
 30
0.0
 11
167.65214764229481
 21
81.164092720379131
 31
0.0
  0
LINE
  5
7C
  8
2
 10
167.65214764229481
 20
79.289147721185941
 30
0.0
 11
160.5021476422946
 21
79.289147721185941
 31
0.0
  0
LINE
  5
7D
  8
2
 10
167.65214764229481
 20
81.164092720379173
 30
0.0
 11
167.65214764229461
 21
51.664092720379273
 31
0.0
  0
LINE
  5
7E
  8
2
 10
166.5696476422948
 20
79.289147721185941
 30
0.0
 11
166.56964764229491
 21
51.664092720379273
 31
0.0
  0
LINE
  5
7F
  8
2
 10
152.7346476422947
 20
79.289147721185941
 30
0.0
 11
152.73464764229439
 21
51.664092720379273
 31
0.0
  0
LINE
  5
80
  8
2
 10
151.65214764229481
 20
81.164092720379244
 30
0.0
 11
151.65214764229489
 21
51.664092720379273
 31
0.0
  0
LINE
  5
81
  8
2
 10
170.8961536591703
 20
96.586904280242379
 30
0.0
 11
168.40214764229469
 21
81.164092720379173
 31
0.0
  0
ARC
  5
82
  8
2
 10
170.40214764229481
 20
96.664092720379188
 30
0.0
 40
0.5
 50
351.11934084947978
 51
90.0
  0
LINE
  5
83
  8
2
 10
148.4081416254192
 20
96.586904280242379
 30
0.0
 11
150.90214764229481
 21
81.164092720379173
 31
0.0
  0
ARC
  5
84
  8
2
 10
148.90214764229481
 20
96.664092720379188
 30
0.0
 40
0.5
 50
90.0
 51
188.88065915052019
  0
LINE
  5
85
  8
2
 10
150.90214764229481
 20
81.164092720379244
 30
0.0
 11
158.8021476422945
 21
81.164092720379173
 31
0.0
  0
LINE
  5
86
  8
2
 10
148.90214764229481
 20
97.164092720379188
 30
0.0
 11
158.8021476422945
 21
97.164092720379188
 31
0.0
  0
LINE
  5
87
  8
1
 10
159.65214764229461
 20
107.1640927203792
 30
0.0
 11
159.65214764229469
 21
22.364092720379229
 31
0.0
  0
LINE
  5
89
  8
0
 10
105.90214764229469
 20
59.564092720379222
 30
0.0
 11
213.40214764229469
 21
59.564092720379222
 31
0.0
  0
LINE
  5
8A
  8
0
 10
120.8021476422947
 20
97.164092720379188
 30
0.0
 11
198.50214764229469
 21
97.164092720379188
 31
0.0
  0
LINE
  5
8B
  8
0
 10
105.90214764229469
 20
59.564092720379222
 30
0.0
 11
105.90214764229469
 21
51.664092720379273
 31
0.0
  0
LINE
  5
8C
  8
0
 10
213.40214764229469
 20
59.564092720379222
 30
0.0
 11
213.40214764229489
 21
51.664092720379273
 31
0.0
  0
LINE
  5
8D
  8
0
 10
198.50214764229469
 20
97.164092720379188
 30
0.0
 11
198.5021476422948
 21
64.864092720379176
 31
0.0
  0
LINE
  5
8E
  8
0
 10
120.8021476422947
 20
97.164092720379188
 30
0.0
 11
120.8021476422947
 21
64.864092720379176
 31
0.0
  0
CIRCLE
  5
8F
  8
0
 10
199.74912383751411
 20
177.76409272037921
 30
0.0
 40
6.5
  0
CIRCLE
  5
90
  8
0
 10
199.74912383751411
 20
177.76409272037921
 30
0.0
 40
6.0
  0
LINE
  5
91
  8
0
 10
201.74912383751439
 20
178.91879325875831
 30
0.0
 11
201.74912383751391
 21
176.60939218200011
 31
0.0
  0
LINE
  5
92
  8
0
 10
199.74912383751411
 20
180.07349379713779
 30
0.0
 11
201.74912383751439
 21
178.91879325875831
 31
0.0
  0
LINE
  5
93
  8
0
 10
197.74912383751419
 20
178.91879325875891
 30
0.0
 11
199.74912383751411
 21
180.07349379713779
 31
0.0
  0
LINE
  5
94
  8
0
 10
197.74912383751419
 20
176.60939218200011
 30
0.0
 11
197.74912383751419
 21
178.91879325875891
 31
0.0
  0
LINE
  5
95
  8
0
 10
199.74912383751391
 20
175.45469164362081
 30
0.0
 11
197.74912383751419
 21
176.60939218200011
 31
0.0
  0
LINE
  5
96
  8
0
 10
201.74912383751391
 20
176.60939218200011
 30
0.0
 11
199.74912383751391
 21
175.45469164362081
 31
0.0
  0
LINE
  5
97
  8
0
 10
117.5551714470754
 20
176.60939218200011
 30
0.0
 11
119.5551714470754
 21
175.45469164362081
 31
0.0
  0
LINE
  5
98
  8
0
 10
119.5551714470754
 20
175.45469164362081
 30
0.0
 11
121.5551714470751
 21
176.60939218200011
 31
0.0
  0
LINE
  5
99
  8
0
 10
121.5551714470751
 20
176.60939218200011
 30
0.0
 11
121.5551714470751
 21
178.91879325875891
 31
0.0
  0
LINE
  5
9A
  8
0
 10
121.5551714470751
 20
178.91879325875891
 30
0.0
 11
119.5551714470751
 21
180.07349379713779
 31
0.0
  0
LINE
  5
9B
  8
0
 10
119.5551714470751
 20
180.07349379713779
 30
0.0
 11
117.5551714470749
 21
178.91879325875831
 31
0.0
  0
LINE
  5
9C
  8
0
 10
117.5551714470749
 20
178.91879325875831
 30
0.0
 11
117.5551714470754
 21
176.60939218200011
 31
0.0
  0
CIRCLE
  5
9D
  8
0
 10
119.5551714470751
 20
177.76409272037921
 30
0.0
 40
6.0
  0
CIRCLE
  5
9E
  8
0
 10
119.5551714470751
 20
177.76409272037921
 30
0.0
 40
6.5
  0
CIRCLE
  5
9F
  8
0
 10
159.65214764229461
 20
247.2140927203792
 30
0.0
 40
6.5
  0
CIRCLE
  5
A0
  8
0
 10
159.65214764229461
 20
247.2140927203792
 30
0.0
 40
6.0
  0
LINE
  5
A1
  8
0
 10
157.65214764229441
 20
248.3687932587583
 30
0.0
 11
157.65214764229489
 21
246.0593921820001
 31
0.0
  0
LINE
  5
A2
  8
0
 10
159.65214764229461
 20
249.5234937971378
 30
0.0
 11
157.65214764229441
 21
248.3687932587583
 31
0.0
  0
LINE
  5
A3
  8
0
 10
161.65214764229461
 20
248.36879325875901
 30
0.0
 11
159.65214764229461
 21
249.5234937971378
 31
0.0
  0
LINE
  5
A4
  8
0
 10
161.65214764229461
 20
246.0593921820001
 30
0.0
 11
161.65214764229461
 21
248.36879325875901
 31
0.0
  0
LINE
  5
A5
  8
0
 10
159.65214764229489
 20
244.90469164362079
 30
0.0
 11
161.65214764229461
 21
246.0593921820001
 31
0.0
  0
LINE
  5
A6
  8
0
 10
157.65214764229489
 20
246.0593921820001
 30
0.0
 11
159.65214764229489
 21
244.90469164362079
 31
0.0
  0
CIRCLE
  5
A7
  8
5
 10
159.65214764229461
 20
200.91409272037919
 30
0.0
 40
46.29999999999999
  0
LINE
  5
AA
  8
0
 10
160.50214764229469
 20
189.69624979047501
 30
0.0
 11
160.5021476422944
 21
162.07339241773269
 31
0.0
  0
LINE
  5
AB
  8
0
 10
158.80214764229461
 20
189.69624979047501
 30
0.0
 11
158.8021476422943
 21
162.07339241773269
 31
0.0
  0
LINE
  5
AC
  8
0
 10
160.50214764229469
 20
239.7547930230256
 30
0.0
 11
160.50214764229469
 21
212.13193565028331
 31
0.0
  0
LINE
  5
AD
  8
0
 10
158.8021476422947
 20
239.7547930230256
 30
0.0
 11
158.8021476422947
 21
212.13193565028331
 31
0.0
  0
LINE
  5
AE
  8
1
 10
159.65214764229461
 20
137.16409272037919
 30
0.0
 11
159.65214764229461
 21
264.66409272037919
 31
0.0
  0
LINE
  5
AF
  8
1
 10
95.902147642294665
 20
200.91409272037919
 30
0.0
 11
223.40214764229469
 21
200.91409272037919
 31
0.0
  0
LINE
  5
B0
  8
0
 10
151.56924388022091
 20
200.91409272038331
 30
0.0
 11
155.61069576454719
 21
207.91409272038331
 31
0.0
  0
LINE
  5
B1
  8
0
 10
155.61069576125479
 20
193.9140927260803
 30
0.0
 11
151.56924387692669
 21
200.91409272608041
 31
0.0
  0
LINE
  5
B2
  8
0
 10
163.69359952332991
 20
193.9140927260803
 30
0.0
 11
155.6106957546755
 21
193.9140927260803
 31
0.0
  0
LINE
  5
B3
  8
0
 10
167.73505140436751
 20
200.91409272038331
 30
0.0
 11
163.6935995200412
 21
193.91409272038331
 31
0.0
  0
LINE
  5
B4
  8
0
 10
163.6935995233336
 20
207.9140927146789
 30
0.0
 11
167.7350514076617
 21
200.91409271468621
 31
0.0
  0
LINE
  5
B5
  8
0
 10
155.61069576125391
 20
207.91409271468621
 30
0.0
 11
163.69359952990831
 21
207.91409271468621
 31
0.0
  0
CIRCLE
  5
B6
  8
0
 10
159.65214764229461
 20
200.91409272037919
 30
0.0
 40
11.25
  0
LINE
  5
B7
  8
0
 10
187.71771097633899
 20
227.77757452640611
 30
0.0
 11
168.185401212324
 21
208.24526476239129
 31
0.0
  0
LINE
  5
B8
  8
0
 10
186.51562944832179
 20
228.9796560544234
 30
0.0
 11
166.98331968430699
 21
209.4473462904084
 31
0.0
  0
LINE
  5
B9
  8
0
 10
132.78866583626751
 20
228.9796560544234
 30
0.0
 11
152.3209756002824
 21
209.4473462904084
 31
0.0
  0
LINE
  5
BA
  8
0
 10
131.58658430825039
 20
227.77757452640631
 30
0.0
 11
151.11889407226531
 21
208.24526476239129
 31
0.0
  0
LINE
  5
BB
  8
0
 10
120.8114473396482
 20
201.76409272037921
 30
0.0
 11
148.43430471239051
 21
201.76409272037921
 31
0.0
  0
LINE
  5
BC
  8
0
 10
120.8114473396482
 20
200.06409272037919
 30
0.0
 11
148.43430471239051
 21
200.06409272037919
 31
0.0
  0
LINE
  5
BD
  8
0
 10
152.3209756002824
 20
192.3808391503498
 30
0.0
 11
132.7886658362674
 21
172.84852938633489
 31
0.0
  0
LINE
  5
BE
  8
0
 10
151.11889407226539
 20
193.58292067836689
 30
0.0
 11
131.5865843082502
 21
174.05061091435209
 31
0.0
  0
LINE
  5
BF
  8
0
 10
168.18540121232391
 20
193.58292067836689
 30
0.0
 11
187.71771097633911
 21
174.05061091435209
 31
0.0
  0
LINE
  5
C0
  8
0
 10
166.98331968430679
 20
192.3808391503498
 30
0.0
 11
186.51562944832199
 21
172.84852938633509
 31
0.0
  0
LINE
  5
C1
  8
0
 10
170.86999057219879
 20
201.76409272037921
 30
0.0
 11
198.4928479449411
 21
201.76409272037949
 31
0.0
  0
LINE
  5
C2
  8
0
 10
170.86999057219879
 20
200.06409272037919
 30
0.0
 11
198.4928479449411
 21
200.06409272037939
 31
0.0
  0
ARC
  5
C3
  8
0
 10
159.65214764229461
 20
200.91409272037919
 30
0.0
 40
38.850000000000001
 50
136.25367564777821
 51
178.7463243522219
  0
CIRCLE
  5
C4
  8
0
 10
159.65214764229461
 20
200.91409272037919
 30
0.0
 40
53.75
  0
LINE
  5
E2
  8
0
 10
160.50214764229449
 20
64.864092720379176
 30
0.0
 11
198.50214764229469
 21
64.864092720379176
 31
0.0
  0
CIRCLE
  5
FB
  8
0
 10
348.528282723752
 20
128.545152640032
 30
0.0
 40
19.75
  0
CIRCLE
  5
FC
  8
0
 10
348.528282723752
 20
128.545152640032
 30
0.0
 40
22.850000000000001
  0
LINE
  5
FD
  8
0
 10
325.67828272375198
 20
64.464092720379256
 30
0.0
 11
325.67828272375198
 21
51.764092720379288
 31
0.0
  0
LINE
  5
FE
  8
0
 10
371.37828272375202
 20
64.464092720379256
 30
0.0
 11
371.37828272375202
 21
51.76409272037926
 31
0.0
  0
LINE
  5
FF
  8
2
 10
328.77828272375211
 20
64.464092720379284
 30
0.0
 11
328.77828272375211
 21
51.76409272037926
 31
0.0
  0
LINE
  5
100
  8
2
 10
368.278282723752
 20
64.464092720379256
 30
0.0
 11
368.278282723752
 21
51.76409272037926
 31
0.0
  0
LINE
  5
101
  8
0
 10
325.67828272375198
 20
51.76409272037926
 30
0.0
 11
371.37828272375202
 21
51.76409272037926
 31
0.0
  0
LINE
  5
102
  8
0
 10
325.67828272375198
 20
64.464092720379256
 30
0.0
 11
371.37828272375202
 21
64.464092720379256
 31
0.0
  0
LINE
  5
103
  8
1
 10
315.67828272375198
 20
128.545152640032
 30
0.0
 11
381.37828272375202
 21
128.545152640032
 31
0.0
  0
LINE
  5
104
  8
1
 10
348.528282723752
 20
161.39515264003199
 30
0.0
 11
348.528282723752
 21
95.695152640032035
 31
0.0
  0
LINE
  5
108
  8
1
 10
348.528282723752
 20
74.464092720379256
 30
0.0
 11
348.528282723752
 21
41.76409272037926
 31
0.0
  0
ARC
  5
130
  8
0
 10
159.65214764229461
 20
200.91409272037919
 30
0.0
 40
19.649999999999999
 50
137.47921697074881
 51
177.52078302925111
  0
ARC
  5
131
  8
0
 10
159.65214764229461
 20
200.91409272037919
 30
0.0
 40
23.0
 50
137.11793501496439
 51
177.8820649850355
  0
ARC
  5
132
  8
0
 10
159.65214764229461
 20
200.91409272037919
 30
0.0
 40
23.0
 50
92.117935014964317
 51
132.88206498503581
  0
ARC
  5
133
  8
0
 10
159.65214764229461
 20
200.91409272037919
 30
0.0
 40
19.649999999999999
 50
92.479216970748681
 51
132.5207830292515
  0
ARC
  5
134
  8
0
 10
159.65214764229461
 20
200.91409272037919
 30
0.0
 40
23.0
 50
47.117935014964083
 51
87.882064985035385
  0
ARC
  5
135
  8
0
 10
159.65214764229461
 20
200.91409272037919
 30
0.0
 40
19.649999999999999
 50
47.479216970748404
 51
87.520783029250993
  0
ARC
  5
136
  8
0
 10
159.65214764229461
 20
200.91409272037919
 30
0.0
 40
23.0
 50
2.1179350149648131
 51
42.882064985035221
  0
ARC
  5
137
  8
0
 10
159.65214764229461
 20
200.91409272037919
 30
0.0
 40
19.649999999999999
 50
2.4792169707491749
 51
42.520783029250772
  0
ARC
  5
138
  8
0
 10
159.65214764229461
 20
200.91409272037919
 30
0.0
 40
23.0
 50
317.11793501496442
 51
357.8820649850357
  0
ARC
  5
139
  8
0
 10
159.65214764229461
 20
200.91409272037919
 30
0.0
 40
19.649999999999999
 50
317.47921697074872
 51
357.52078302925128
  0
ARC
  5
13A
  8
0
 10
159.65214764229461
 20
200.91409272037919
 30
0.0
 40
19.649999999999999
 50
272.47921697074861
 51
312.52078302925122
  0
ARC
  5
13B
  8
0
 10
159.65214764229461
 20
200.91409272037919
 30
0.0
 40
23.0
 50
272.11793501496408
 51
312.88206498503558
  0
ARC
  5
13C
  8
0
 10
159.65214764229461
 20
200.91409272037919
 30
0.0
 40
23.0
 50
227.1179350149643
 51
267.8820649850353
  0
ARC
  5
13D
  8
0
 10
159.65214764229461
 20
200.91409272037919
 30
0.0
 40
19.649999999999999
 50
227.47921697074881
 51
267.52078302925088
  0
ARC
  5
13E
  8
0
 10
159.65214764229461
 20
200.91409272037919
 30
0.0
 40
19.649999999999999
 50
182.47921697074889
 51
222.52078302925131
  0
ARC
  5
13F
  8
0
 10
159.65214764229461
 20
200.91409272037919
 30
0.0
 40
23.0
 50
182.11793501496439
 51
222.8820649850355
  0
LINE
  5
144
  8
2
 10
136.65214764229449
 20
97.164092720379188
 30
0.0
 11
136.65214764229449
 21
93.96409272037917
 31
0.0
  0
LINE
  5
145
  8
2
 10
140.00214764229469
 20
97.164092720379188
 30
0.0
 11
140.00214764229469
 21
93.96409272037917
 31
0.0
  0
LINE
  5
146
  8
2
 10
179.3021476422947
 20
97.164092720379188
 30
0.0
 11
179.3021476422947
 21
93.964092720379185
 31
0.0
  0
LINE
  5
147
  8
2
 10
182.65214764229449
 20
97.164092720379188
 30
0.0
 11
182.65214764229449
 21
93.96409272037917
 31
0.0
  0
LINE
  5
148
  8
2
 10
136.65214764229449
 20
93.964092720379185
 30
0.0
 11
182.65214764229449
 21
93.964092720379185
 31
0.0
  0
LINE
  5
2E8
  8
0
 10
105.90214764229469
 20
51.664092720379273
 30
0.0
 11
213.40214764229469
 21
51.664092720379273
 31
0.0
  0
TEXT
  5
3A9
  8
0
 62
     3
 10
0.0
 20
0.0
 30
0.0
 40
10.0
  1
MBID16C
  7
STANDARD1
  0
ENDSEC
  0
EOF
