  0
SECTION
  2
HEADER
  9
$ACADVER
  1
AC1009
  9
$INSBASE
 10
27.786456469150838
 20
277.36473517676501
 30
0.0
  9
$EXTMIN
 10
0.0
 20
-2.960436562073669
 30
0.0
  9
$EXTMAX
 10
175.49751713512569
 20
211.1531561160115
 30
0.0
  9
$LIMMIN
 10
0.0
 20
0.0
  9
$LIMMAX
 10
12.0
 20
9.0
  9
$ORTHOMODE
 70
     1
  9
$REGENMODE
 70
     1
  9
$FILLMODE
 70
     1
  9
$QTEXTMODE
 70
     0
  9
$MIRRTEXT
 70
     0
  9
$DRAGMODE
 70
     2
  9
$LTSCALE
 40
1.0
  9
$OSMODE
 70
  3071
  9
$ATTMODE
 70
     1
  9
$TEXTSIZE
 40
0.2
  9
$TRACEWID
 40
0.05
  9
$TEXTSTYLE
  7
STANDARD
  9
$CLAYER
  8
0
  9
$CELTYPE
  6
BYLAYER
  9
$CECOLOR
 62
   256
  9
$DIMSCALE
 40
1.0
  9
$DIMASZ
 40
1.0
  9
$DIMEXO
 40
2.54
  9
$DIMDLI
 40
0.38
  9
$DIMRND
 40
0.0
  9
$DIMDLE
 40
0.0
  9
$DIMEXE
 40
2.54
  9
$DIMTP
 40
0.0
  9
$DIMTM
 40
0.0
  9
$DIMTXT
 40
3.2000000000000002
  9
$DIMCEN
 40
0.09
  9
$DIMTSZ
 40
0.0
  9
$DIMTOL
 70
     0
  9
$DIMLIM
 70
     0
  9
$DIMTIH
 70
     0
  9
$DIMTOH
 70
     0
  9
$DIMSE1
 70
     0
  9
$DIMSE2
 70
     0
  9
$DIMTAD
 70
     1
  9
$DIMZIN
 70
     0
  9
$DIMBLK
  1

  9
$DIMASO
 70
     1
  9
$DIMSHO
 70
     0
  9
$DIMPOST
  1

  9
$DIMAPOST
  1

  9
$DIMALT
 70
     0
  9
$DIMALTD
 70
     2
  9
$DIMALTF
 40
25.399999999999999
  9
$DIMLFAC
 40
1.0
  9
$DIMTOFL
 70
     0
  9
$DIMTVP
 40
1.0
  9
$DIMTIX
 70
     0
  9
$DIMSOXD
 70
     0
  9
$DIMSAH
 70
     1
  9
$DIMBLK1
  1

  9
$DIMBLK2
  1

  9
$DIMSTYLE
  2
STANDARD
  9
$DIMCLRD
 70
     0
  9
$DIMCLRE
 70
     0
  9
$DIMCLRT
 70
     0
  9
$DIMTFAC
 40
1.0
  9
$DIMGAP
 40
1.6000000000000001
  9
$LUNITS
 70
     2
  9
$LUPREC
 70
     4
  9
$SKETCHINC
 40
0.1
  9
$FILLETRAD
 40
0.5
  9
$AUNITS
 70
     0
  9
$AUPREC
 70
     0
  9
$MENU
  1
.
  9
$ELEVATION
 40
0.0
  9
$PELEVATION
 40
0.0
  9
$THICKNESS
 40
0.0
  9
$LIMCHECK
 70
     0
  9
$BLIPMODE
 70
     0
  9
$CHAMFERA
 40
0.2
  9
$CHAMFERB
 40
0.2
  9
$SKPOLY
 70
     0
  9
$TDCREATE
 40
2453173.4709223039
  9
$TDUPDATE
 40
2456597.6351204752
  9
$TDINDWG
 40
1.9493755208000001
  9
$TDUSRTIMER
 40
1.9493755208000001
  9
$USRTIMER
 70
     1
  9
$ANGBASE
 50
0.0
  9
$ANGDIR
 70
     0
  9
$PDMODE
 70
     0
  9
$PDSIZE
 40
0.0
  9
$PLINEWID
 40
0.0
  9
$COORDS
 70
     1
  9
$SPLFRAME
 70
     0
  9
$SPLINETYPE
 70
     6
  9
$SPLINESEGS
 70
     8
  9
$ATTDIA
 70
     0
  9
$ATTREQ
 70
     1
  9
$HANDLING
 70
     1
  9
$HANDSEED
  5
20D
  9
$SURFTAB1
 70
     6
  9
$SURFTAB2
 70
     6
  9
$SURFTYPE
 70
     6
  9
$SURFU
 70
     6
  9
$SURFV
 70
     6
  9
$UCSNAME
  2

  9
$UCSORG
 10
0.0
 20
0.0
 30
0.0
  9
$UCSXDIR
 10
1.0
 20
0.0
 30
0.0
  9
$UCSYDIR
 10
0.0
 20
1.0
 30
0.0
  9
$PUCSNAME
  2

  9
$PUCSORG
 10
0.0
 20
0.0
 30
0.0
  9
$PUCSXDIR
 10
1.0
 20
0.0
 30
0.0
  9
$PUCSYDIR
 10
0.0
 20
1.0
 30
0.0
  9
$USERI1
 70
     0
  9
$USERI2
 70
     0
  9
$USERI3
 70
     0
  9
$USERI4
 70
     0
  9
$USERI5
 70
     0
  9
$USERR1
 40
0.0
  9
$USERR2
 40
0.0
  9
$USERR3
 40
0.0
  9
$USERR4
 40
0.0
  9
$USERR5
 40
0.0
  9
$WORLDVIEW
 70
     1
  9
$SHADEDGE
 70
     3
  9
$SHADEDIF
 70
    70
  9
$TILEMODE
 70
     1
  9
$MAXACTVP
 70
    64
  9
$PLIMCHECK
 70
     0
  9
$PEXTMIN
 10
1.0000000000000000E+020
 20
1.0000000000000000E+020
 30
1.0000000000000000E+020
  9
$PEXTMAX
 10
-1.0000000000000000E+020
 20
-1.0000000000000000E+020
 30
-1.0000000000000000E+020
  9
$PLIMMIN
 10
0.0
 20
0.0
  9
$PLIMMAX
 10
12.0
 20
9.0
  9
$UNITMODE
 70
     0
  9
$VISRETAIN
 70
     1
  9
$PLINEGEN
 70
     0
  9
$PSLTSCALE
 70
     1
  0
ENDSEC
  0
SECTION
  2
TABLES
  0
TABLE
  2
VPORT
 70
     1
  0
VPORT
  2
*ACTIVE
 70
     0
 10
0.0
 20
0.0
 11
1.0
 21
1.0
 12
87.748758976174855
 22
104.55803576727379
 13
0.0
 23
0.0
 14
1.0
 24
1.0
 15
0.0
 25
0.0
 16
0.0
 26
0.0
 36
1.0
 17
0.0
 27
0.0
 37
0.0
 40
217.51859763906191
 41
2.304913294797688
 42
50.0
 43
0.0
 44
0.0
 50
0.0
 51
0.0
 71
     0
 72
   100
 73
     1
 74
     1
 75
     0
 76
     0
 77
     0
 78
     0
  0
ENDTAB
  0
TABLE
  2
LTYPE
 70
     5
  0
LTYPE
  2
CONTINUOUS
 70
     0
  3
Solid line
 72
    65
 73
     0
 40
0.0
  0
LTYPE
  2
CENTER
 70
     0
  3
Center ____ _ ____ _ ____ _ ____ _ ____ _ ____
 72
    65
 73
     4
 40
12.0
 49
7.5
 49
-1.5
 49
1.5
 49
-1.5
  0
LTYPE
  2
HIDDEN
 70
     0
  3
Hidden __ __ __ __ __ __ __ __ __ __ __ __ __ _
 72
    65
 73
     2
 40
4.5
 49
3.0
 49
-1.5
  0
LTYPE
  2
PHANTOM
 70
     0
  3
Phantom ______  __  __  ______  __  __  ______
 72
    65
 73
     6
 40
15.0
 49
7.5
 49
-1.5
 49
1.5
 49
-1.5
 49
1.5
 49
-1.5
  0
LTYPE
  2
PHANTOM2
 70
     0
  3
___ _ _ ___ _ _ ___ _ _ ___ _ _
 72
    65
 73
     6
 40
1.25
 49
0.625
 49
-0.125
 49
0.125
 49
-0.125
 49
0.125
 49
-0.125
  0
ENDTAB
  0
TABLE
  2
LAYER
 70
     5
  0
LAYER
  2
0
 70
     0
 62
     7
  6
CONTINUOUS
  0
LAYER
  2
1
 70
     0
 62
     1
  6
CENTER
  0
LAYER
  2
2
 70
     0
 62
     2
  6
HIDDEN
  0
LAYER
  2
3
 70
     0
 62
     3
  6
CONTINUOUS
  0
LAYER
  2
5
 70
     0
 62
     3
  6
PHANTOM
  0
ENDTAB
  0
TABLE
  2
STYLE
 70
     2
  0
STYLE
  2
STANDARD
 70
     0
 40
0.0
 41
1.0
 50
0.0
 71
     0
 42
0.2
  3
simplex.shx
  4
bigfont.shx
  0
STYLE
  2
STANDARD1
 70
     0
 40
0.0
 41
1.0
 50
0.0
 71
     0
 42
3.0
  3
txt
  4

  0
ENDTAB
  0
TABLE
  2
VIEW
 70
     0
  0
ENDTAB
  0
TABLE
  2
UCS
 70
     0
  0
ENDTAB
  0
TABLE
  2
APPID
 70
     3
  0
APPID
  2
ACAD
 70
     0
  0
APPID
  2
ACAD_MLEADERVER
 70
     0
  0
APPID
  2
ACAD_NAV_VCDISPLAY
 70
     0
  0
ENDTAB
  0
TABLE
  2
DIMSTYLE
 70
     1
  0
DIMSTYLE
  2
STANDARD
 70
     0
  3

  4

  5

  6

  7

 40
1.0
 41
0.18
 42
0.0625
 43
0.38
 44
0.18
 45
0.0
 46
0.0
 47
0.0
 48
0.0
140
0.18
141
0.09
142
0.0
143
25.399999999999999
144
1.0
145
0.0
146
1.0
147
0.09
 71
     0
 72
     0
 73
     1
 74
     1
 75
     0
 76
     0
 77
     0
 78
     0
170
     0
171
     2
172
     0
173
     0
174
     0
175
     0
176
     0
177
     0
178
     0
  0
ENDTAB
  0
ENDSEC
  0
SECTION
  2
BLOCKS
  0
BLOCK
  8
0
  2
$MODEL_SPACE
 70
     0
 10
0.0
 20
0.0
 30
0.0
  3
$MODEL_SPACE
  1

  0
ENDBLK
  5
9
  8
0
  0
BLOCK
 67
     1
  8
0
  2
$PAPER_SPACE
 70
     0
 10
0.0
 20
0.0
 30
0.0
  3
$PAPER_SPACE
  1

  0
ENDBLK
  5
E
 67
     1
  8
0
  0
ENDSEC
  0
SECTION
  2
ENTITIES
  0
LINE
  5
26
  8
2
 10
126.9975171351257
 20
80.65315611601153
 30
0.0
 11
125.9922434445873
 21
86.869719584725544
 31
0.0
  0
LINE
  5
29
  8
2
 10
145.50279082566411
 20
86.869719584725544
 30
0.0
 11
144.49751713512569
 21
80.653156116011473
 31
0.0
  0
LINE
  5
2A
  8
0
 10
143.74751713512549
 20
57.053156116011451
 30
0.0
 11
143.74751713512549
 21
37.65315611601136
 31
0.0
  0
LINE
  5
2B
  8
3
 10
142.66501713512571
 20
57.053156116011451
 30
0.0
 11
142.66501713512571
 21
36.570656116011492
 31
0.0
  0
LINE
  5
2D
  8
3
 10
128.83001713512559
 20
57.0531561160115
 30
0.0
 11
128.83001713512559
 21
36.570656116011612
 31
0.0
  0
LINE
  5
2E
  8
0
 10
127.7475171351257
 20
57.053156116011451
 30
0.0
 11
127.7475171351257
 21
37.653156116011587
 31
0.0
  0
ARC
  5
2F
  8
0
 10
117.8475171351257
 20
67.253156116011496
 30
0.0
 40
2.4000000000000341
 50
270.0
 51
90.0
  0
ARC
  5
30
  8
0
 10
153.64751713512561
 20
67.253156116011496
 30
0.0
 40
2.4000000000000341
 50
90.0
 51
270.0
  0
LINE
  5
31
  8
1
 10
159.95292717090089
 20
69.053156116011451
 30
0.0
 11
159.95292717090089
 21
39.053156116011451
 31
0.0
  0
LINE
  5
34
  8
2
 10
157.45292717090081
 20
61.253156116011382
 30
0.0
 11
162.45292717090081
 21
61.253156116011382
 31
0.0
  0
LINE
  5
35
  8
2
 10
164.95292717090081
 20
63.753156116011489
 30
0.0
 11
162.45292717090081
 21
61.253156116011382
 31
0.0
  0
LINE
  5
36
  8
2
 10
154.95292717090081
 20
63.753156116011489
 30
0.0
 11
157.45292717090089
 21
61.253156116011382
 31
0.0
  0
LINE
  5
37
  8
2
 10
164.95292717090081
 20
64.053156116011451
 30
0.0
 11
154.95292717090081
 21
64.053156116011451
 31
0.0
  0
LINE
  5
38
  8
2
 10
164.95292717090081
 20
63.753156116011489
 30
0.0
 11
164.95292717090081
 21
64.053156116011451
 31
0.0
  0
LINE
  5
39
  8
2
 10
154.95292717090081
 20
63.753156116011489
 30
0.0
 11
164.95292717090081
 21
63.753156116011489
 31
0.0
  0
LINE
  5
3A
  8
2
 10
154.95292717090081
 20
64.053156116011451
 30
0.0
 11
154.95292717090081
 21
63.753156116011489
 31
0.0
  0
LINE
  5
3B
  8
0
 10
162.45292717090081
 20
57.0531561160115
 30
0.0
 11
162.45292717090089
 21
44.953156116011421
 31
0.0
  0
LINE
  5
3C
  8
3
 10
162.0199271709011
 20
57.053156116011451
 30
0.0
 11
162.01992717090121
 21
44.520156116011769
 31
0.0
  0
LINE
  5
3D
  8
3
 10
157.88592717090069
 20
57.053156116011451
 30
0.0
 11
157.88592717090069
 21
44.520156116011542
 31
0.0
  0
LINE
  5
3E
  8
0
 10
157.45292717090081
 20
57.0531561160115
 30
0.0
 11
157.45292717090081
 21
44.953156116011421
 31
0.0
  0
LINE
  5
3F
  8
0
 10
158.3529271709009
 20
44.053156116011451
 30
0.0
 11
161.55292717090089
 21
44.053156116011451
 31
0.0
  0
LINE
  5
40
  8
2
 10
157.45292717090081
 20
60.503178116334418
 30
0.0
 11
162.45292717090081
 21
60.503178116334418
 31
0.0
  0
LINE
  5
41
  8
2
 10
157.88592717090069
 20
60.503178116334418
 30
0.0
 11
157.45292717090081
 21
61.253156116011382
 31
0.0
  0
LINE
  5
42
  8
0
 10
157.45292717090081
 20
44.953156116011421
 30
0.0
 11
158.3529271709009
 21
44.053156116011451
 31
0.0
  0
LINE
  5
43
  8
0
 10
161.55292717090089
 20
44.053156116011451
 30
0.0
 11
162.45292717090089
 21
44.953156116011421
 31
0.0
  0
LINE
  5
44
  8
0
 10
157.45292717090089
 20
44.953156116011492
 30
0.0
 11
162.45292717090089
 21
44.953156116011492
 31
0.0
  0
LINE
  5
45
  8
2
 10
162.01992717090101
 20
60.503178116334418
 30
0.0
 11
162.45292717090081
 21
61.253156116011382
 31
0.0
  0
LINE
  5
46
  8
2
 10
162.45292717090081
 20
57.0531561160115
 30
0.0
 11
162.45292717090081
 21
61.253156116011382
 31
0.0
  0
LINE
  5
47
  8
2
 10
162.01992717090101
 20
60.503178116334418
 30
0.0
 11
162.01992717090101
 21
57.053156116011451
 31
0.0
  0
LINE
  5
48
  8
2
 10
157.45292717090089
 20
61.253156116011382
 30
0.0
 11
157.45292717090089
 21
57.053156116011451
 31
0.0
  0
LINE
  5
49
  8
2
 10
157.88592717090069
 20
60.503178116334418
 30
0.0
 11
157.88592717090069
 21
57.053156116011451
 31
0.0
  0
LINE
  5
4A
  8
0
 10
124.9975171351257
 20
96.653156116011473
 30
0.0
 11
146.49751713512569
 21
96.653156116011473
 31
0.0
  0
LINE
  5
4B
  8
2
 10
126.9975171351257
 20
80.65315611601153
 30
0.0
 11
144.49751713512569
 21
80.653156116011473
 31
0.0
  0
ARC
  5
4C
  8
0
 10
124.9975171351257
 20
96.153156116011473
 30
0.0
 40
0.5
 50
90.0
 51
188.88065915052019
  0
LINE
  5
4D
  8
0
 10
124.5035111182501
 20
96.075967675874665
 30
0.0
 11
125.9922434445873
 21
86.869719584725544
 31
0.0
  0
ARC
  5
4E
  8
0
 10
146.49751713512569
 20
96.153156116011473
 30
0.0
 40
0.5
 50
351.11934084947978
 51
90.0
  0
LINE
  5
4F
  8
0
 10
146.99152315200121
 20
96.075967675874665
 30
0.0
 11
145.50279082566411
 21
86.869719584725544
 31
0.0
  0
LINE
  5
50
  8
2
 10
127.7475171351257
 20
80.65315611601153
 30
0.0
 11
127.7475171351257
 21
57.053156116011451
 31
0.0
  0
LINE
  5
51
  8
2
 10
128.83001713512559
 20
78.778211116818227
 30
0.0
 11
128.83001713512559
 21
57.053156116011451
 31
0.0
  0
LINE
  5
52
  8
2
 10
142.66501713512571
 20
78.778211116818227
 30
0.0
 11
142.66501713512571
 21
57.053156116011451
 31
0.0
  0
LINE
  5
53
  8
2
 10
143.74751713512569
 20
80.653156116011473
 30
0.0
 11
143.74751713512549
 21
57.0531561160115
 31
0.0
  0
LINE
  5
54
  8
2
 10
143.74751713512569
 20
78.778211116818227
 30
0.0
 11
127.7475171351257
 21
78.778211116818227
 31
0.0
  0
LINE
  5
55
  8
2
 10
142.66501713512571
 20
78.778211116818227
 30
0.0
 11
143.74751713512569
 21
80.653156116011417
 31
0.0
  0
LINE
  5
56
  8
2
 10
128.83001713512559
 20
78.778211116818227
 30
0.0
 11
127.7475171351257
 21
80.653156116011417
 31
0.0
  0
LINE
  5
57
  8
0
 10
127.7475171351257
 20
37.653156116011587
 30
0.0
 11
143.74751713512569
 21
37.653156116011417
 31
0.0
  0
LINE
  5
58
  8
0
 10
129.74751713512569
 20
35.653156116011587
 30
0.0
 11
127.7475171351257
 21
37.653156116011587
 31
0.0
  0
LINE
  5
59
  8
0
 10
143.74751713512561
 20
37.653156116011417
 30
0.0
 11
141.74751713512561
 21
35.653156116011417
 31
0.0
  0
LINE
  5
5A
  8
0
 10
141.74751713512561
 20
35.653156116011417
 30
0.0
 11
129.74751713512569
 21
35.653156116011587
 31
0.0
  0
LINE
  5
5B
  8
1
 10
135.74751713512569
 20
101.6531561160114
 30
0.0
 11
135.7475171351258
 21
25.65315611601147
 31
0.0
  0
LINE
  5
5C
  8
0
 10
145.50279082566411
 20
65.353156116011462
 30
0.0
 11
146.97503401209761
 21
65.353156116011462
 31
0.0
  0
LINE
  5
5D
  8
0
 10
124.5200002581538
 20
65.353156116011462
 30
0.0
 11
125.9922434445873
 21
65.353156116011462
 31
0.0
  0
LINE
  5
5E
  8
0
 10
124.5200002581538
 20
96.65315611601153
 30
0.0
 11
124.5200002581538
 21
65.353156116011519
 31
0.0
  0
LINE
  5
5F
  8
0
 10
125.9922434445873
 20
96.65315611601153
 30
0.0
 11
125.9922434445873
 21
65.353156116011462
 31
0.0
  0
LINE
  5
60
  8
0
 10
145.50279082566411
 20
96.653156116011473
 30
0.0
 11
145.50279082566411
 21
65.353156116011462
 31
0.0
  0
LINE
  5
61
  8
0
 10
146.97503401209761
 20
96.653156116011473
 30
0.0
 11
146.97503401209761
 21
65.353156116011462
 31
0.0
  0
CIRCLE
  5
62
  8
0
 10
159.95292717090081
 20
157.42815611601151
 30
0.0
 40
5.25
  0
CIRCLE
  5
63
  8
0
 10
159.95292717090081
 20
157.42815611601151
 30
0.0
 40
5.0
  0
LINE
  5
64
  8
0
 10
161.45292717090089
 20
158.29418151979581
 30
0.0
 11
161.45292717090061
 21
156.5621307122272
 31
0.0
  0
LINE
  5
65
  8
0
 10
159.95292717090081
 20
159.1602069235804
 30
0.0
 11
161.45292717090089
 21
158.29418151979581
 31
0.0
  0
LINE
  5
66
  8
0
 10
158.45292717090081
 20
158.2941815197963
 30
0.0
 11
159.95292717090081
 21
159.1602069235804
 31
0.0
  0
LINE
  5
67
  8
0
 10
158.45292717090081
 20
156.5621307122272
 30
0.0
 11
158.45292717090081
 21
158.2941815197963
 31
0.0
  0
LINE
  5
68
  8
0
 10
159.95292717090061
 20
155.6961053084427
 30
0.0
 11
158.45292717090081
 21
156.5621307122272
 31
0.0
  0
LINE
  5
69
  8
0
 10
161.45292717090061
 20
156.5621307122272
 30
0.0
 11
159.95292717090061
 21
155.6961053084427
 31
0.0
  0
LINE
  5
6A
  8
0
 10
110.0421070993508
 20
156.5621307122272
 30
0.0
 11
111.5421070993508
 21
155.6961053084427
 31
0.0
  0
LINE
  5
6B
  8
0
 10
111.5421070993508
 20
155.6961053084427
 30
0.0
 11
113.0421070993506
 21
156.5621307122272
 31
0.0
  0
LINE
  5
6C
  8
0
 10
113.0421070993506
 20
156.5621307122272
 30
0.0
 11
113.0421070993506
 21
158.2941815197963
 31
0.0
  0
LINE
  5
6D
  8
0
 10
113.0421070993506
 20
158.2941815197963
 30
0.0
 11
111.5421070993506
 21
159.1602069235804
 31
0.0
  0
LINE
  5
6E
  8
0
 10
111.5421070993506
 20
159.1602069235804
 30
0.0
 11
110.0421070993504
 21
158.29418151979581
 31
0.0
  0
LINE
  5
6F
  8
0
 10
110.0421070993504
 20
158.29418151979581
 30
0.0
 11
110.0421070993508
 21
156.5621307122272
 31
0.0
  0
CIRCLE
  5
70
  8
0
 10
111.5421070993506
 20
157.42815611601151
 30
0.0
 40
5.0
  0
CIRCLE
  5
71
  8
0
 10
111.5421070993506
 20
157.42815611601151
 30
0.0
 40
5.25
  0
CIRCLE
  5
72
  8
0
 10
135.74751713512569
 20
199.35315611601141
 30
0.0
 40
5.25
  0
CIRCLE
  5
73
  8
0
 10
135.74751713512569
 20
199.35315611601141
 30
0.0
 40
5.0
  0
LINE
  5
74
  8
0
 10
134.24751713512549
 20
200.2191815197958
 30
0.0
 11
134.2475171351258
 21
198.4871307122271
 31
0.0
  0
LINE
  5
75
  8
0
 10
135.74751713512569
 20
201.08520692358039
 30
0.0
 11
134.24751713512549
 21
200.2191815197958
 31
0.0
  0
LINE
  5
76
  8
0
 10
137.24751713512569
 20
200.21918151979631
 30
0.0
 11
135.74751713512569
 21
201.08520692358039
 31
0.0
  0
LINE
  5
77
  8
0
 10
137.24751713512569
 20
198.4871307122271
 30
0.0
 11
137.24751713512569
 21
200.21918151979631
 31
0.0
  0
LINE
  5
78
  8
0
 10
135.7475171351258
 20
197.62110530844259
 30
0.0
 11
137.24751713512569
 21
198.4871307122271
 31
0.0
  0
LINE
  5
79
  8
0
 10
134.2475171351258
 20
198.4871307122271
 30
0.0
 11
135.7475171351258
 21
197.62110530844259
 31
0.0
  0
ARC
  5
7A
  8
0
 10
135.74751713512569
 20
171.40315611601139
 30
0.0
 40
21.0
 50
182.31974859518519
 51
237.68025140481481
  0
ARC
  5
7B
  8
0
 10
135.74751713512569
 20
171.40315611601139
 30
0.0
 40
21.0
 50
2.319748595185402
 51
57.680251404814612
  0
ARC
  5
7C
  8
0
 10
135.74751713512569
 20
171.40315611601139
 30
0.0
 40
21.0
 50
302.31974859518522
 51
357.6802514048149
  0
ARC
  5
7D
  8
0
 10
135.74751713512569
 20
171.40315611601139
 30
0.0
 40
21.0
 50
242.31974859518519
 51
297.68025140481478
  0
ARC
  5
7E
  8
0
 10
135.74751713512569
 20
171.40315611601139
 30
0.0
 40
21.0
 50
62.319748595185047
 51
117.6802514048149
  0
LINE
  5
7F
  8
0
 10
124.5200002581537
 20
189.14978578976391
 30
0.0
 11
129.40247407695671
 21
180.6930930689721
 31
0.0
  0
LINE
  5
80
  8
0
 10
125.9922434445872
 20
189.99978578976391
 30
0.0
 11
130.87471726339029
 21
181.5430930689721
 31
0.0
  0
LINE
  5
81
  8
0
 10
142.09256019329439
 20
162.1132191630509
 30
0.0
 11
146.97503401209761
 21
153.65652644225909
 31
0.0
  0
LINE
  5
82
  8
0
 10
140.62031700686089
 20
161.26321916305079
 30
0.0
 11
145.50279082566411
 21
152.8065264422591
 31
0.0
  0
LINE
  5
83
  8
0
 10
145.50279082566411
 20
189.99978578976391
 30
0.0
 11
140.620317006861
 21
181.5430930689721
 31
0.0
  0
LINE
  5
84
  8
0
 10
146.97503401209769
 20
189.14978578976391
 30
0.0
 11
142.09256019329459
 21
180.6930930689721
 31
0.0
  0
LINE
  5
85
  8
0
 10
130.87471726339049
 20
161.26321916305079
 30
0.0
 11
125.9922434445873
 21
152.8065264422591
 31
0.0
  0
LINE
  5
86
  8
0
 10
129.40247407695691
 20
162.1132191630509
 30
0.0
 11
124.5200002581538
 21
153.65652644225909
 31
0.0
  0
LINE
  5
87
  8
0
 10
146.96536006502981
 20
172.2531561160115
 30
0.0
 11
156.73030770263591
 21
172.2531561160115
 31
0.0
  0
LINE
  5
88
  8
0
 10
146.96536006502981
 20
170.55315611601139
 30
0.0
 11
156.73030770263591
 21
170.55315611601151
 31
0.0
  0
LINE
  5
89
  8
0
 10
114.7647265676154
 20
170.55315611601139
 30
0.0
 11
124.5296742052215
 21
170.55315611601139
 31
0.0
  0
LINE
  5
8A
  8
0
 10
114.7647265676154
 20
172.2531561160115
 30
0.0
 11
124.5296742052215
 21
172.2531561160115
 31
0.0
  0
LINE
  5
8B
  8
0
 10
100.9975171351257
 20
57.053156116011451
 30
0.0
 11
170.49751713512569
 21
57.053156116011451
 31
0.0
  0
LINE
  5
8C
  8
0
 10
100.9975171351257
 20
64.853156116011462
 30
0.0
 11
170.49751713512569
 21
64.853156116011462
 31
0.0
  0
LINE
  5
8D
  8
0
 10
114.7475171351257
 20
69.65315611601153
 30
0.0
 11
124.5200002581538
 21
69.653156116011544
 31
0.0
  0
LINE
  5
8E
  8
0
 10
114.7475171351257
 20
96.65315611601153
 30
0.0
 11
156.74751713512569
 21
96.653156116011473
 31
0.0
  0
LINE
  5
8F
  8
0
 10
170.49751713512569
 20
64.853156116011462
 30
0.0
 11
170.49751713512569
 21
57.053156116011451
 31
0.0
  0
LINE
  5
90
  8
0
 10
100.9975171351257
 20
64.853156116011462
 30
0.0
 11
100.9975171351257
 21
57.053156116011451
 31
0.0
  0
LINE
  5
91
  8
0
 10
114.7475171351257
 20
96.653156116011473
 30
0.0
 11
114.7475171351257
 21
69.65315611601153
 31
0.0
  0
LINE
  5
92
  8
0
 10
156.74751713512569
 20
96.653156116011473
 30
0.0
 11
156.74751713512561
 21
69.65315611601153
 31
0.0
  0
LINE
  5
93
  8
0
 10
127.66461337305191
 20
171.40315611601551
 30
0.0
 11
131.70606525737821
 21
178.40315611601551
 31
0.0
  0
LINE
  5
94
  8
0
 10
131.70606525408579
 20
164.40315612171261
 30
0.0
 11
127.6646133697577
 21
171.40315612171261
 31
0.0
  0
LINE
  5
95
  8
0
 10
139.78896901616099
 20
164.40315612171261
 30
0.0
 11
131.7060652475065
 21
164.40315612171261
 31
0.0
  0
LINE
  5
96
  8
0
 10
143.83042089719851
 20
171.40315611601551
 30
0.0
 11
139.7889690128722
 21
164.40315611601551
 31
0.0
  0
LINE
  5
97
  8
0
 10
139.7889690161646
 20
178.40315611031119
 30
0.0
 11
143.8304209004927
 21
171.40315611031849
 31
0.0
  0
LINE
  5
98
  8
0
 10
131.7060652540849
 20
178.40315611031849
 30
0.0
 11
139.78896902273931
 21
178.40315611031849
 31
0.0
  0
CIRCLE
  5
99
  8
0
 10
135.74751713512569
 20
171.40315611601139
 30
0.0
 40
11.25
  0
LINE
  5
9A
  8
1
 10
95.99751713512569
 20
171.40315611601139
 30
0.0
 11
175.49751713512569
 21
171.40315611601139
 31
0.0
  0
LINE
  5
9B
  8
1
 10
135.74751713512569
 20
211.1531561160115
 30
0.0
 11
135.74751713512569
 21
131.65315611601139
 31
0.0
  0
CIRCLE
  5
9C
  8
5
 10
135.74751713512569
 20
171.40315611601139
 30
0.0
 40
27.949999999999999
  0
ARC
  5
9F
  8
0
 10
135.74751713512569
 20
171.40315611601139
 30
0.0
 40
21.0
 50
122.3197485951853
 51
177.6802514048147
  0
CIRCLE
  5
A0
  8
0
 10
135.74751713512569
 20
171.40315611601139
 30
0.0
 40
34.75
  0
LINE
  5
A5
  8
2
 10
113.60910709935069
 20
60.503178116334418
 30
0.0
 11
113.60910709935069
 21
57.053156116011451
 31
0.0
  0
LINE
  5
A6
  8
2
 10
114.0421070993504
 20
61.253156116011382
 30
0.0
 11
114.0421070993504
 21
57.053156116011451
 31
0.0
  0
LINE
  5
A7
  8
2
 10
109.4751070993503
 20
60.503178116334418
 30
0.0
 11
109.4751070993503
 21
57.053156116011451
 31
0.0
  0
LINE
  5
A8
  8
2
 10
109.0421070993505
 20
57.0531561160115
 30
0.0
 11
109.0421070993506
 21
61.253156116011382
 31
0.0
  0
LINE
  5
A9
  8
2
 10
109.4751070993503
 20
60.503178116334418
 30
0.0
 11
109.0421070993506
 21
61.253156116011382
 31
0.0
  0
LINE
  5
AA
  8
0
 10
114.0421070993504
 20
44.953156116011492
 30
0.0
 11
109.0421070993504
 21
44.953156116011492
 31
0.0
  0
LINE
  5
AB
  8
0
 10
109.94210709935049
 20
44.053156116011451
 30
0.0
 11
109.0421070993504
 21
44.953156116011421
 31
0.0
  0
LINE
  5
AC
  8
0
 10
114.0421070993505
 20
44.953156116011421
 30
0.0
 11
113.1421070993505
 21
44.053156116011451
 31
0.0
  0
LINE
  5
AD
  8
2
 10
113.60910709935069
 20
60.503178116334418
 30
0.0
 11
114.0421070993505
 21
61.253156116011382
 31
0.0
  0
LINE
  5
AE
  8
2
 10
114.0421070993505
 20
60.503178116334418
 30
0.0
 11
109.0421070993505
 21
60.503178116334418
 31
0.0
  0
LINE
  5
AF
  8
0
 10
113.1421070993505
 20
44.053156116011451
 30
0.0
 11
109.94210709935049
 21
44.053156116011451
 31
0.0
  0
LINE
  5
B0
  8
0
 10
114.0421070993505
 20
57.0531561160115
 30
0.0
 11
114.0421070993505
 21
44.953156116011421
 31
0.0
  0
LINE
  5
B1
  8
3
 10
113.60910709935069
 20
57.053156116011451
 30
0.0
 11
113.6091070993506
 21
44.520156116011542
 31
0.0
  0
LINE
  5
B2
  8
3
 10
109.4751070993503
 20
57.053156116011451
 30
0.0
 11
109.4751070993502
 21
44.520156116011769
 31
0.0
  0
LINE
  5
B3
  8
0
 10
109.0421070993505
 20
57.0531561160115
 30
0.0
 11
109.0421070993504
 21
44.953156116011421
 31
0.0
  0
LINE
  5
B4
  8
2
 10
116.5421070993505
 20
64.053156116011451
 30
0.0
 11
116.5421070993505
 21
63.753156116011489
 31
0.0
  0
LINE
  5
B5
  8
2
 10
116.5421070993505
 20
63.753156116011489
 30
0.0
 11
106.5421070993505
 21
63.753156116011489
 31
0.0
  0
LINE
  5
B6
  8
2
 10
106.5421070993505
 20
63.753156116011489
 30
0.0
 11
106.5421070993505
 21
64.053156116011451
 31
0.0
  0
LINE
  5
B7
  8
2
 10
106.5421070993505
 20
64.053156116011451
 30
0.0
 11
116.5421070993505
 21
64.053156116011451
 31
0.0
  0
LINE
  5
B8
  8
2
 10
116.5421070993505
 20
63.753156116011489
 30
0.0
 11
114.0421070993504
 21
61.253156116011382
 31
0.0
  0
LINE
  5
B9
  8
2
 10
106.5421070993505
 20
63.753156116011489
 30
0.0
 11
109.0421070993506
 21
61.253156116011382
 31
0.0
  0
LINE
  5
BA
  8
2
 10
114.0421070993505
 20
61.253156116011382
 30
0.0
 11
109.0421070993505
 21
61.253156116011382
 31
0.0
  0
LINE
  5
BB
  8
1
 10
111.5421070993504
 20
69.053156116011451
 30
0.0
 11
111.5421070993504
 21
39.053156116011451
 31
0.0
  0
LINE
  5
D0
  8
0
 10
146.97503401209761
 20
69.65315611601153
 30
0.0
 11
156.74751713512569
 21
69.65315611601153
 31
0.0
  0
LINE
  5
D1
  8
0
 10
125.9922434445873
 20
69.65315611601153
 30
0.0
 11
145.50279082566411
 21
69.65315611601153
 31
0.0
  0
TEXT
  5
17F
  8
0
 62
     3
 10
0.0
 20
0.0
 30
0.0
 40
10.0
  1
MBID16A
  7
STANDARD1
  0
ENDSEC
  0
EOF
