  0
SECTION
  2
HEADER
  9
$ACADVER
  1
AC1009
  9
$INSBASE
 10
38.616621731141777
 20
631.6723385830511
 30
0.0
  9
$EXTMIN
 10
0.0
 20
-2.960436562073669
 30
0.0
  9
$EXTMAX
 10
88.238513136221172
 20
128.96961102542741
 30
0.0
  9
$LIMMIN
 10
0.0
 20
0.0
  9
$LIMMAX
 10
12.0
 20
9.0
  9
$ORTHOMODE
 70
     0
  9
$REGENMODE
 70
     1
  9
$FILLMODE
 70
     1
  9
$QTEXTMODE
 70
     0
  9
$MIRRTEXT
 70
     0
  9
$DRAGMODE
 70
     2
  9
$LTSCALE
 40
1.0
  9
$OSMODE
 70
  3071
  9
$ATTMODE
 70
     1
  9
$TEXTSIZE
 40
0.2
  9
$TRACEWID
 40
0.05
  9
$TEXTSTYLE
  7
STANDARD
  9
$CLAYER
  8
0
  9
$CELTYPE
  6
BYLAYER
  9
$CECOLOR
 62
   256
  9
$DIMSCALE
 40
1.0
  9
$DIMASZ
 40
1.0
  9
$DIMEXO
 40
2.54
  9
$DIMDLI
 40
0.38
  9
$DIMRND
 40
0.0
  9
$DIMDLE
 40
0.0
  9
$DIMEXE
 40
2.54
  9
$DIMTP
 40
0.0
  9
$DIMTM
 40
0.0
  9
$DIMTXT
 40
3.2000000000000002
  9
$DIMCEN
 40
0.09
  9
$DIMTSZ
 40
0.0
  9
$DIMTOL
 70
     0
  9
$DIMLIM
 70
     0
  9
$DIMTIH
 70
     0
  9
$DIMTOH
 70
     0
  9
$DIMSE1
 70
     0
  9
$DIMSE2
 70
     0
  9
$DIMTAD
 70
     1
  9
$DIMZIN
 70
     0
  9
$DIMBLK
  1

  9
$DIMASO
 70
     1
  9
$DIMSHO
 70
     0
  9
$DIMPOST
  1

  9
$DIMAPOST
  1

  9
$DIMALT
 70
     0
  9
$DIMALTD
 70
     2
  9
$DIMALTF
 40
25.399999999999999
  9
$DIMLFAC
 40
1.0
  9
$DIMTOFL
 70
     0
  9
$DIMTVP
 40
1.0
  9
$DIMTIX
 70
     0
  9
$DIMSOXD
 70
     0
  9
$DIMSAH
 70
     1
  9
$DIMBLK1
  1

  9
$DIMBLK2
  1

  9
$DIMSTYLE
  2
STANDARD
  9
$DIMCLRD
 70
     0
  9
$DIMCLRE
 70
     0
  9
$DIMCLRT
 70
     0
  9
$DIMTFAC
 40
1.0
  9
$DIMGAP
 40
1.6000000000000001
  9
$LUNITS
 70
     2
  9
$LUPREC
 70
     4
  9
$SKETCHINC
 40
0.1
  9
$FILLETRAD
 40
0.5
  9
$AUNITS
 70
     0
  9
$AUPREC
 70
     0
  9
$MENU
  1
.
  9
$ELEVATION
 40
0.0
  9
$PELEVATION
 40
0.0
  9
$THICKNESS
 40
0.0
  9
$LIMCHECK
 70
     0
  9
$BLIPMODE
 70
     0
  9
$CHAMFERA
 40
0.2
  9
$CHAMFERB
 40
0.2
  9
$SKPOLY
 70
     0
  9
$TDCREATE
 40
2453173.4709223039
  9
$TDUPDATE
 40
2456597.6350950119
  9
$TDINDWG
 40
1.9440787384
  9
$TDUSRTIMER
 40
1.9440787384
  9
$USRTIMER
 70
     1
  9
$ANGBASE
 50
0.0
  9
$ANGDIR
 70
     0
  9
$PDMODE
 70
     0
  9
$PDSIZE
 40
0.0
  9
$PLINEWID
 40
0.0
  9
$COORDS
 70
     1
  9
$SPLFRAME
 70
     0
  9
$SPLINETYPE
 70
     6
  9
$SPLINESEGS
 70
     8
  9
$ATTDIA
 70
     0
  9
$ATTREQ
 70
     1
  9
$HANDLING
 70
     1
  9
$HANDSEED
  5
213
  9
$SURFTAB1
 70
     6
  9
$SURFTAB2
 70
     6
  9
$SURFTYPE
 70
     6
  9
$SURFU
 70
     6
  9
$SURFV
 70
     6
  9
$UCSNAME
  2

  9
$UCSORG
 10
0.0
 20
0.0
 30
0.0
  9
$UCSXDIR
 10
1.0
 20
0.0
 30
0.0
  9
$UCSYDIR
 10
0.0
 20
1.0
 30
0.0
  9
$PUCSNAME
  2

  9
$PUCSORG
 10
0.0
 20
0.0
 30
0.0
  9
$PUCSXDIR
 10
1.0
 20
0.0
 30
0.0
  9
$PUCSYDIR
 10
0.0
 20
1.0
 30
0.0
  9
$USERI1
 70
     0
  9
$USERI2
 70
     0
  9
$USERI3
 70
     0
  9
$USERI4
 70
     0
  9
$USERI5
 70
     0
  9
$USERR1
 40
0.0
  9
$USERR2
 40
0.0
  9
$USERR3
 40
0.0
  9
$USERR4
 40
0.0
  9
$USERR5
 40
0.0
  9
$WORLDVIEW
 70
     1
  9
$SHADEDGE
 70
     3
  9
$SHADEDIF
 70
    70
  9
$TILEMODE
 70
     1
  9
$MAXACTVP
 70
    64
  9
$PLIMCHECK
 70
     0
  9
$PEXTMIN
 10
1.0000000000000000E+020
 20
1.0000000000000000E+020
 30
1.0000000000000000E+020
  9
$PEXTMAX
 10
-1.0000000000000000E+020
 20
-1.0000000000000000E+020
 30
-1.0000000000000000E+020
  9
$PLIMMIN
 10
0.0
 20
0.0
  9
$PLIMMAX
 10
12.0
 20
9.0
  9
$UNITMODE
 70
     0
  9
$VISRETAIN
 70
     1
  9
$PLINEGEN
 70
     0
  9
$PSLTSCALE
 70
     1
  0
ENDSEC
  0
SECTION
  2
TABLES
  0
TABLE
  2
VPORT
 70
     1
  0
VPORT
  2
*ACTIVE
 70
     0
 10
0.0
 20
0.0
 11
1.0
 21
1.0
 12
44.119256773556913
 22
63.289568651765151
 13
0.0
 23
0.0
 14
1.0
 24
1.0
 15
0.0
 25
0.0
 16
0.0
 26
0.0
 36
1.0
 17
0.0
 27
0.0
 37
0.0
 40
134.02699041830161
 41
2.304913294797688
 42
50.0
 43
0.0
 44
0.0
 50
0.0
 51
0.0
 71
     0
 72
   100
 73
     1
 74
     1
 75
     0
 76
     0
 77
     0
 78
     0
  0
ENDTAB
  0
TABLE
  2
LTYPE
 70
     5
  0
LTYPE
  2
CONTINUOUS
 70
     0
  3
Solid line
 72
    65
 73
     0
 40
0.0
  0
LTYPE
  2
CENTER
 70
     0
  3
Center ____ _ ____ _ ____ _ ____ _ ____ _ ____
 72
    65
 73
     4
 40
12.0
 49
7.5
 49
-1.5
 49
1.5
 49
-1.5
  0
LTYPE
  2
HIDDEN
 70
     0
  3
Hidden __ __ __ __ __ __ __ __ __ __ __ __ __ _
 72
    65
 73
     2
 40
4.5
 49
3.0
 49
-1.5
  0
LTYPE
  2
PHANTOM
 70
     0
  3
Phantom ______  __  __  ______  __  __  ______
 72
    65
 73
     6
 40
15.0
 49
7.5
 49
-1.5
 49
1.5
 49
-1.5
 49
1.5
 49
-1.5
  0
LTYPE
  2
PHANTOM2
 70
     0
  3
___ _ _ ___ _ _ ___ _ _ ___ _ _
 72
    65
 73
     6
 40
1.25
 49
0.625
 49
-0.125
 49
0.125
 49
-0.125
 49
0.125
 49
-0.125
  0
ENDTAB
  0
TABLE
  2
LAYER
 70
     5
  0
LAYER
  2
0
 70
     0
 62
     7
  6
CONTINUOUS
  0
LAYER
  2
1
 70
     0
 62
     1
  6
CENTER
  0
LAYER
  2
2
 70
     0
 62
     2
  6
HIDDEN
  0
LAYER
  2
3
 70
     0
 62
     3
  6
CONTINUOUS
  0
LAYER
  2
5
 70
     0
 62
     3
  6
PHANTOM
  0
ENDTAB
  0
TABLE
  2
STYLE
 70
     2
  0
STYLE
  2
STANDARD
 70
     0
 40
0.0
 41
1.0
 50
0.0
 71
     0
 42
0.2
  3
simplex.shx
  4
bigfont.shx
  0
STYLE
  2
STANDARD1
 70
     0
 40
0.0
 41
1.0
 50
0.0
 71
     0
 42
3.0
  3
txt
  4

  0
ENDTAB
  0
TABLE
  2
VIEW
 70
     0
  0
ENDTAB
  0
TABLE
  2
UCS
 70
     0
  0
ENDTAB
  0
TABLE
  2
APPID
 70
     3
  0
APPID
  2
ACAD
 70
     0
  0
APPID
  2
ACAD_MLEADERVER
 70
     0
  0
APPID
  2
ACAD_NAV_VCDISPLAY
 70
     0
  0
ENDTAB
  0
TABLE
  2
DIMSTYLE
 70
     1
  0
DIMSTYLE
  2
STANDARD
 70
     0
  3

  4

  5

  6

  7

 40
1.0
 41
0.18
 42
0.0625
 43
0.38
 44
0.18
 45
0.0
 46
0.0
 47
0.0
 48
0.0
140
0.18
141
0.09
142
0.0
143
25.399999999999999
144
1.0
145
0.0
146
1.0
147
0.09
 71
     0
 72
     0
 73
     1
 74
     1
 75
     0
 76
     0
 77
     0
 78
     0
170
     0
171
     2
172
     0
173
     0
174
     0
175
     0
176
     0
177
     0
178
     0
  0
ENDTAB
  0
ENDSEC
  0
SECTION
  2
BLOCKS
  0
BLOCK
  8
0
  2
$MODEL_SPACE
 70
     0
 10
0.0
 20
0.0
 30
0.0
  3
$MODEL_SPACE
  1

  0
ENDBLK
  5
9
  8
0
  0
BLOCK
 67
     1
  8
0
  2
$PAPER_SPACE
 70
     0
 10
0.0
 20
0.0
 30
0.0
  3
$PAPER_SPACE
  1

  0
ENDBLK
  5
E
 67
     1
  8
0
  0
ENDSEC
  0
SECTION
  2
ENTITIES
  0
LINE
  5
26
  8
2
 10
75.545881491095656
 20
36.123403523065008
 30
0.0
 11
75.545881491095656
 21
33.82340352306494
 31
0.0
  0
LINE
  5
29
  8
2
 10
75.816381491094944
 20
35.654883779618899
 30
0.0
 11
75.816381491094944
 21
33.823403523065053
 31
0.0
  0
LINE
  5
2A
  8
2
 10
78.275381491096368
 20
35.654883779618899
 30
0.0
 11
78.275381491096368
 21
33.823403523065053
 31
0.0
  0
LINE
  5
2B
  8
2
 10
78.545881491095656
 20
36.123403523065008
 30
0.0
 11
78.545881491095585
 21
33.823403523064833
 31
0.0
  0
LINE
  5
2C
  8
1
 10
77.045881491095543
 20
39.32340352306506
 30
0.0
 11
77.045881491095656
 21
26.323403523065171
 31
0.0
  0
LINE
  5
2F
  8
2
 10
75.545881491095656
 20
36.123403523065008
 30
0.0
 11
78.545881491095656
 21
36.123403523065008
 31
0.0
  0
LINE
  5
30
  8
2
 10
74.045881491095656
 20
37.623403523065008
 30
0.0
 11
75.545881491095656
 21
36.123403523065008
 31
0.0
  0
LINE
  5
31
  8
2
 10
74.045881491095656
 20
37.823403523065053
 30
0.0
 11
80.045881491095656
 21
37.823403523065053
 31
0.0
  0
LINE
  5
32
  8
2
 10
74.045881491095656
 20
37.623403523065008
 30
0.0
 11
74.045881491095656
 21
37.823403523065053
 31
0.0
  0
LINE
  5
33
  8
2
 10
80.045881491095656
 20
37.623403523065008
 30
0.0
 11
74.045881491095656
 21
37.623403523065008
 31
0.0
  0
LINE
  5
34
  8
2
 10
80.045881491095656
 20
37.623403523065008
 30
0.0
 11
78.545881491095656
 21
36.123403523065008
 31
0.0
  0
LINE
  5
35
  8
2
 10
80.045881491095656
 20
37.823403523065053
 30
0.0
 11
80.045881491095656
 21
37.623403523065008
 31
0.0
  0
LINE
  5
36
  8
0
 10
78.545881491095656
 20
33.82340352306494
 30
0.0
 11
78.545881491095656
 21
28.423403523064959
 31
0.0
  0
LINE
  5
37
  8
0
 10
77.945881491095633
 20
27.82340352306505
 30
0.0
 11
76.145881491095679
 21
27.82340352306505
 31
0.0
  0
LINE
  5
38
  8
0
 10
75.545881491095656
 20
28.423403523064959
 30
0.0
 11
75.545881491095656
 21
33.82340352306494
 31
0.0
  0
LINE
  5
39
  8
0
 10
78.545881491095656
 20
28.423403523064959
 30
0.0
 11
77.945881491095633
 21
27.82340352306505
 31
0.0
  0
LINE
  5
3A
  8
0
 10
76.145881491095679
 20
27.82340352306505
 30
0.0
 11
75.545881491095656
 21
28.423403523064959
 31
0.0
  0
LINE
  5
3B
  8
0
 10
75.545881491095656
 20
28.423403523064959
 30
0.0
 11
78.545881491095656
 21
28.423403523065069
 31
0.0
  0
LINE
  5
3C
  8
2
 10
78.545881491095656
 20
35.654883779618899
 30
0.0
 11
75.545881491095656
 21
35.654883779618899
 31
0.0
  0
LINE
  5
3D
  8
3
 10
78.275381491096368
 20
33.823403523065053
 30
0.0
 11
78.275381491096368
 21
28.152903523065788
 31
0.0
  0
LINE
  5
3F
  8
2
 10
78.275381491096368
 20
35.654883779618899
 30
0.0
 11
78.545881491095656
 21
36.123403523065008
 31
0.0
  0
LINE
  5
40
  8
2
 10
75.816381491094944
 20
35.654883779618899
 30
0.0
 11
75.545881491095656
 21
36.123403523065008
 31
0.0
  0
LINE
  5
41
  8
3
 10
75.816381491094944
 20
33.823403523065053
 30
0.0
 11
75.816381491094944
 21
28.152903523065788
 31
0.0
  0
LINE
  5
42
  8
3
 10
53.160644781347401
 20
33.823403523065053
 30
0.0
 11
53.160644781347401
 21
28.152903523065788
 31
0.0
  0
LINE
  5
43
  8
2
 10
53.160644781347401
 20
35.654883779618899
 30
0.0
 11
53.431144781346688
 21
36.123403523065008
 31
0.0
  0
LINE
  5
44
  8
2
 10
50.701644781345969
 20
35.654883779618899
 30
0.0
 11
50.431144781346681
 21
36.123403523065008
 31
0.0
  0
LINE
  5
45
  8
3
 10
50.701644781345969
 20
33.823403523065053
 30
0.0
 11
50.701644781345969
 21
28.152903523065788
 31
0.0
  0
LINE
  5
46
  8
2
 10
50.431144781346681
 20
35.654883779618899
 30
0.0
 11
53.431144781346688
 21
35.654883779618899
 31
0.0
  0
LINE
  5
47
  8
0
 10
53.431144781346688
 20
28.423403523064959
 30
0.0
 11
50.431144781346681
 21
28.423403523065069
 31
0.0
  0
LINE
  5
48
  8
0
 10
52.831144781346673
 20
27.82340352306505
 30
0.0
 11
53.431144781346688
 21
28.423403523064959
 31
0.0
  0
LINE
  5
49
  8
0
 10
50.431144781346681
 20
28.423403523064959
 30
0.0
 11
51.031144781346711
 21
27.82340352306505
 31
0.0
  0
LINE
  5
4A
  8
0
 10
53.431144781346688
 20
28.423403523064959
 30
0.0
 11
53.431144781346688
 21
33.82340352306494
 31
0.0
  0
LINE
  5
4B
  8
0
 10
51.031144781346711
 20
27.82340352306505
 30
0.0
 11
52.831144781346673
 21
27.82340352306505
 31
0.0
  0
LINE
  5
4C
  8
0
 10
50.431144781346681
 20
33.82340352306494
 30
0.0
 11
50.431144781346681
 21
28.423403523064959
 31
0.0
  0
LINE
  5
4D
  8
2
 10
48.931144781346688
 20
37.823403523065053
 30
0.0
 11
48.931144781346688
 21
37.623403523065008
 31
0.0
  0
LINE
  5
4E
  8
2
 10
48.931144781346688
 20
37.623403523065008
 30
0.0
 11
50.431144781346681
 21
36.123403523065008
 31
0.0
  0
LINE
  5
4F
  8
2
 10
48.931144781346688
 20
37.623403523065008
 30
0.0
 11
54.931144781346688
 21
37.623403523065008
 31
0.0
  0
LINE
  5
50
  8
2
 10
54.931144781346688
 20
37.623403523065008
 30
0.0
 11
54.931144781346688
 21
37.823403523065053
 31
0.0
  0
LINE
  5
51
  8
2
 10
54.931144781346688
 20
37.823403523065053
 30
0.0
 11
48.931144781346688
 21
37.823403523065053
 31
0.0
  0
LINE
  5
52
  8
2
 10
54.931144781346688
 20
37.623403523065008
 30
0.0
 11
53.431144781346688
 21
36.123403523065008
 31
0.0
  0
LINE
  5
53
  8
2
 10
53.431144781346688
 20
36.123403523065008
 30
0.0
 11
50.431144781346681
 21
36.123403523065008
 31
0.0
  0
LINE
  5
54
  8
1
 10
51.931144781346802
 20
39.32340352306506
 30
0.0
 11
51.931144781346688
 21
26.323403523065171
 31
0.0
  0
LINE
  5
55
  8
2
 10
50.431144781346681
 20
36.123403523065008
 30
0.0
 11
50.431144781346752
 21
33.823403523064833
 31
0.0
  0
LINE
  5
56
  8
2
 10
50.701644781345969
 20
35.654883779618899
 30
0.0
 11
50.701644781345969
 21
33.823403523065053
 31
0.0
  0
LINE
  5
57
  8
2
 10
53.160644781347401
 20
35.654883779618899
 30
0.0
 11
53.160644781347401
 21
33.823403523065053
 31
0.0
  0
LINE
  5
58
  8
2
 10
53.431144781346688
 20
36.123403523065008
 30
0.0
 11
53.431144781346688
 21
33.82340352306494
 31
0.0
  0
LINE
  5
59
  8
2
 10
69.988513136221115
 20
58.158486247996393
 30
0.0
 11
69.830921696453686
 21
57.208514619685282
 31
0.0
  0
ARC
  5
5A
  8
2
 10
69.593816103805523
 20
58.223403523064803
 30
0.0
 40
0.4
 50
350.65997382719502
 51
53.646604965579343
  0
ARC
  5
5B
  8
0
 10
69.593816103805466
 20
58.223403523064803
 30
0.0
 40
0.4
 50
53.646604965577708
 51
90.0
  0
LINE
  5
5C
  8
0
 10
69.593816103805466
 20
58.623403523064781
 30
0.0
 11
69.138101373426139
 21
58.623403523065001
 31
0.0
  0
LINE
  5
5D
  8
0
 10
59.383210168636879
 20
58.623403523064781
 30
0.0
 11
59.838924899016199
 21
58.623403523065001
 31
0.0
  0
ARC
  5
5E
  8
0
 10
59.383210168636879
 20
58.223403523064803
 30
0.0
 40
0.4
 50
90.0
 51
126.35339503442231
  0
LINE
  5
5F
  8
0
 10
69.830921696453629
 20
57.208514619684713
 30
0.0
 11
69.138101373426139
 21
53.032147861663702
 31
0.0
  0
LINE
  5
60
  8
0
 10
59.146104575988659
 20
57.208514619685388
 30
0.0
 11
59.838924899016199
 21
53.032147861664043
 31
0.0
  0
LINE
  5
61
  8
2
 10
69.138101373426139
 20
53.032147861663702
 30
0.0
 11
68.738513136221229
 21
50.623403523064781
 31
0.0
  0
LINE
  5
62
  8
2
 10
59.838924899016199
 20
53.032147861664043
 30
0.0
 11
60.238513136221229
 21
50.623403523064781
 31
0.0
  0
LINE
  5
63
  8
0
 10
60.488513136221172
 20
33.82340352306494
 30
0.0
 11
60.488513136221172
 21
21.82340352306483
 31
0.0
  0
LINE
  5
64
  8
3
 10
61.165013136221091
 20
33.82340352306494
 30
0.0
 11
61.165013136221091
 21
21.146903523064911
 31
0.0
  0
LINE
  5
65
  8
0
 10
68.488513136221172
 20
33.82340352306494
 30
0.0
 11
68.488513136221172
 21
21.82340352306483
 31
0.0
  0
LINE
  5
66
  8
3
 10
67.81201313622131
 20
33.82340352306494
 30
0.0
 11
67.81201313622131
 21
21.146903523064911
 31
0.0
  0
ARC
  5
67
  8
0
 10
73.488513136221286
 20
41.623403523064781
 30
0.0
 40
2.0000000000001128
 50
89.999999999998792
 51
270.0
  0
ARC
  5
68
  8
0
 10
55.488513136221059
 20
41.623403523064781
 30
0.0
 40
2.0000000000001128
 50
270.0
 51
90.000000000001222
  0
LINE
  5
69
  8
2
 10
59.838924899016199
 20
58.623403523064781
 30
0.0
 11
69.138101373426139
 21
58.623403523064781
 31
0.0
  0
LINE
  5
6A
  8
2
 10
60.238513136221172
 20
50.623403523064887
 30
0.0
 11
68.738513136221172
 21
50.623403523064667
 31
0.0
  0
ARC
  5
6B
  8
2
 10
59.383210168636822
 20
58.223403523064803
 30
0.0
 40
0.4
 50
126.3533950344206
 51
189.3400261728049
  0
LINE
  5
6C
  8
2
 10
58.988513136221229
 20
58.158486247996393
 30
0.0
 11
59.146104575988659
 21
57.208514619685282
 31
0.0
  0
LINE
  5
6D
  8
2
 10
61.165013136221091
 20
49.451671151744669
 30
0.0
 11
60.488513136221172
 21
50.623403523064781
 31
0.0
  0
LINE
  5
6E
  8
2
 10
67.812013136221253
 20
49.451671151744669
 30
0.0
 11
68.488513136221172
 21
50.623403523064781
 31
0.0
  0
LINE
  5
6F
  8
2
 10
68.488513136221172
 20
49.451671151744669
 30
0.0
 11
60.488513136221172
 21
49.451671151744669
 31
0.0
  0
LINE
  5
70
  8
0
 10
68.488513136221172
 20
21.823403523064709
 30
0.0
 11
60.488513136221172
 21
21.82340352306483
 31
0.0
  0
LINE
  5
71
  8
0
 10
61.688513136221097
 20
20.623403523064781
 30
0.0
 11
60.488513136221172
 21
21.82340352306483
 31
0.0
  0
LINE
  5
72
  8
0
 10
68.488513136221172
 20
21.82340352306483
 30
0.0
 11
67.288513136221127
 21
20.623403523064781
 31
0.0
  0
LINE
  5
73
  8
2
 10
68.488513136221172
 20
50.623403523064781
 30
0.0
 11
68.488513136221172
 21
33.82340352306494
 31
0.0
  0
LINE
  5
74
  8
2
 10
67.812013136221253
 20
49.451671151744669
 30
0.0
 11
67.81201313622131
 21
33.82340352306494
 31
0.0
  0
LINE
  5
75
  8
2
 10
61.165013136221091
 20
49.451671151744669
 30
0.0
 11
61.165013136221091
 21
33.82340352306494
 31
0.0
  0
LINE
  5
76
  8
2
 10
60.488513136221172
 20
50.623403523064781
 30
0.0
 11
60.488513136221172
 21
33.82340352306494
 31
0.0
  0
LINE
  5
77
  8
0
 10
67.288513136221127
 20
20.623403523064781
 30
0.0
 11
61.688513136221097
 21
20.623403523064781
 31
0.0
  0
LINE
  5
78
  8
0
 10
54.488513136221172
 20
58.623403523065122
 30
0.0
 11
74.488513136221172
 21
58.623403523064667
 31
0.0
  0
LINE
  5
79
  8
0
 10
54.488513136221172
 20
43.623403523065242
 30
0.0
 11
59.146104575988659
 21
43.623403523065122
 31
0.0
  0
LINE
  5
7A
  8
0
 10
69.138101373426139
 20
40.123403523064887
 30
0.0
 11
69.830921696453629
 21
40.123403523064887
 31
0.0
  0
LINE
  5
7B
  8
0
 10
59.146104575988659
 20
40.123403523064887
 30
0.0
 11
59.838924899016199
 21
40.123403523064887
 31
0.0
  0
LINE
  5
7C
  8
0
 10
59.146104575988659
 20
58.623403523064667
 30
0.0
 11
59.146104575988659
 21
40.123403523064781
 31
0.0
  0
LINE
  5
7D
  8
0
 10
59.838924899016199
 20
58.623403523064667
 30
0.0
 11
59.838924899016199
 21
40.123403523064887
 31
0.0
  0
LINE
  5
7E
  8
0
 10
69.138101373426139
 20
58.623403523064553
 30
0.0
 11
69.138101373426139
 21
40.123403523064781
 31
0.0
  0
LINE
  5
7F
  8
0
 10
69.830921696453629
 20
58.623403523064667
 30
0.0
 11
69.830921696453629
 21
40.123403523064781
 31
0.0
  0
ARC
  5
80
  8
0
 10
64.488513136221172
 20
105.2196110254274
 30
0.0
 40
10.0
 50
2.292442775955756
 51
57.707557224044272
  0
ARC
  5
81
  8
0
 10
64.488513136221172
 20
105.2196110254274
 30
0.0
 40
10.0
 50
302.29244277595569
 51
357.70755722404419
  0
ARC
  5
82
  8
0
 10
64.488513136221172
 20
105.2196110254274
 30
0.0
 40
10.0
 50
242.29244277595549
 51
297.70755722404419
  0
ARC
  5
83
  8
0
 10
64.488513136221172
 20
105.2196110254274
 30
0.0
 40
10.0
 50
182.29244277595569
 51
237.70755722404411
  0
ARC
  5
84
  8
0
 10
64.488513136221172
 20
105.2196110254274
 30
0.0
 40
10.0
 50
122.29244277595571
 51
177.70755722404419
  0
LINE
  5
85
  8
0
 10
67.577640928115443
 20
100.6690847387934
 30
0.0
 11
69.830921696453629
 21
96.766287964313847
 31
0.0
  0
LINE
  5
86
  8
0
 10
66.884820605087953
 20
100.2690847387935
 30
0.0
 11
69.138101373426139
 21
96.366287964313884
 31
0.0
  0
LINE
  5
87
  8
0
 10
59.838924899016199
 20
114.0729340865409
 30
0.0
 11
62.092205667354392
 21
110.1701373120613
 31
0.0
  0
LINE
  5
88
  8
0
 10
59.146104575988723
 20
113.67293408654091
 30
0.0
 11
61.399385344326902
 21
109.77013731206139
 31
0.0
  0
LINE
  5
89
  8
0
 10
62.092205667354392
 20
100.2690847387935
 30
0.0
 11
59.838924899016199
 21
96.366287964313884
 31
0.0
  0
LINE
  5
8A
  8
0
 10
61.399385344326902
 20
100.6690847387934
 30
0.0
 11
59.146104575988723
 21
96.766287964313847
 31
0.0
  0
LINE
  5
8B
  8
0
 10
69.138101373426139
 20
114.0729340865409
 30
0.0
 11
66.884820605087953
 21
110.1701373120613
 31
0.0
  0
LINE
  5
8C
  8
0
 10
69.830921696453629
 20
113.67293408654091
 30
0.0
 11
67.577640928115443
 21
109.77013731206139
 31
0.0
  0
LINE
  5
8D
  8
0
 10
69.973948396982166
 20
104.81961102542741
 30
0.0
 11
74.480509933658595
 21
104.81961102542741
 31
0.0
  0
LINE
  5
8E
  8
0
 10
69.973948396982166
 20
105.6196110254274
 30
0.0
 11
74.480509933658595
 21
105.6196110254274
 31
0.0
  0
LINE
  5
8F
  8
0
 10
54.496516338783742
 20
104.81961102542741
 30
0.0
 11
59.003077875460178
 21
104.81961102542741
 31
0.0
  0
LINE
  5
90
  8
0
 10
54.496516338783742
 20
105.6196110254274
 30
0.0
 11
59.003077875460178
 21
105.6196110254274
 31
0.0
  0
CIRCLE
  5
91
  8
0
 10
64.488513136221172
 20
119.7196110254274
 30
0.0
 40
4.0
  0
CIRCLE
  5
92
  8
0
 10
64.488513136221172
 20
119.7196110254274
 30
0.0
 40
3.0
  0
LINE
  5
93
  8
0
 10
63.488513136221052
 20
120.29696129461691
 30
0.0
 11
63.488513136221279
 21
119.1422607562379
 31
0.0
  0
LINE
  5
94
  8
0
 10
64.488513136221172
 20
120.8743115638067
 30
0.0
 11
63.488513136221052
 21
120.29696129461691
 31
0.0
  0
LINE
  5
95
  8
0
 10
65.488513136221172
 20
120.2969612946173
 30
0.0
 11
64.488513136221172
 21
120.8743115638067
 31
0.0
  0
LINE
  5
96
  8
0
 10
65.488513136221172
 20
119.1422607562379
 30
0.0
 11
65.488513136221172
 21
120.2969612946173
 31
0.0
  0
LINE
  5
97
  8
0
 10
64.488513136221286
 20
118.56491048704819
 30
0.0
 11
65.488513136221172
 21
119.1422607562379
 31
0.0
  0
LINE
  5
98
  8
0
 10
63.488513136221279
 20
119.1422607562379
 30
0.0
 11
64.488513136221286
 21
118.56491048704819
 31
0.0
  0
CIRCLE
  5
99
  8
0
 10
77.045881491095599
 20
97.969611025427412
 30
0.0
 40
4.0
  0
CIRCLE
  5
9A
  8
0
 10
77.045881491095599
 20
97.969611025427412
 30
0.0
 40
3.0
  0
LINE
  5
9B
  8
0
 10
78.045881491095713
 20
98.546961294616949
 30
0.0
 11
78.045881491095486
 21
97.392260756237874
 31
0.0
  0
LINE
  5
9C
  8
0
 10
77.045881491095599
 20
99.124311563806714
 30
0.0
 11
78.045881491095713
 21
98.546961294616949
 31
0.0
  0
LINE
  5
9D
  8
0
 10
76.045881491095585
 20
98.54696129461729
 30
0.0
 11
77.045881491095599
 21
99.124311563806714
 31
0.0
  0
LINE
  5
9E
  8
0
 10
76.045881491095585
 20
97.392260756237874
 30
0.0
 11
76.045881491095585
 21
98.54696129461729
 31
0.0
  0
LINE
  5
9F
  8
0
 10
77.045881491095486
 20
96.814910487048223
 30
0.0
 11
76.045881491095585
 21
97.392260756237874
 31
0.0
  0
LINE
  5
A0
  8
0
 10
78.045881491095486
 20
97.392260756237874
 30
0.0
 11
77.045881491095486
 21
96.814910487048223
 31
0.0
  0
LINE
  5
A1
  8
0
 10
45.738513136221172
 20
33.82340352306494
 30
0.0
 11
83.238513136221172
 21
33.823403523064833
 31
0.0
  0
LINE
  5
A2
  8
0
 10
45.738513136221172
 20
39.623403523064887
 30
0.0
 11
83.238513136221172
 21
39.623403523064781
 31
0.0
  0
LINE
  5
A3
  8
1
 10
64.488513136221172
 20
63.623403523064887
 30
0.0
 11
64.488513136221172
 21
15.623403523064891
 31
0.0
  0
LINE
  5
A4
  8
0
 10
45.738513136221172
 20
39.623403523064887
 30
0.0
 11
45.738513136221172
 21
33.82340352306494
 31
0.0
  0
LINE
  5
A5
  8
0
 10
54.488513136221172
 20
58.623403523064781
 30
0.0
 11
54.488513136221172
 21
43.623403523064887
 31
0.0
  0
LINE
  5
A6
  8
0
 10
83.238513136221172
 20
39.623403523064667
 30
0.0
 11
83.238513136221172
 21
33.823403523064833
 31
0.0
  0
LINE
  5
A7
  8
0
 10
74.488513136221172
 20
58.623403523064781
 30
0.0
 11
74.488513136221172
 21
43.623403523064887
 31
0.0
  0
LINE
  5
A8
  8
0
 10
50.931144781346859
 20
97.392260756237874
 30
0.0
 11
51.931144781346859
 21
96.814910487048223
 31
0.0
  0
LINE
  5
A9
  8
0
 10
51.931144781346859
 20
96.814910487048223
 30
0.0
 11
52.931144781346752
 21
97.392260756237874
 31
0.0
  0
LINE
  5
AA
  8
0
 10
52.931144781346752
 20
97.392260756237874
 30
0.0
 11
52.931144781346752
 21
98.54696129461729
 31
0.0
  0
LINE
  5
AB
  8
0
 10
52.931144781346752
 20
98.54696129461729
 30
0.0
 11
51.931144781346738
 21
99.124311563806714
 31
0.0
  0
LINE
  5
AC
  8
0
 10
51.931144781346738
 20
99.124311563806714
 30
0.0
 11
50.931144781346632
 21
98.546961294616949
 31
0.0
  0
LINE
  5
AD
  8
0
 10
50.931144781346632
 20
98.546961294616949
 30
0.0
 11
50.931144781346859
 21
97.392260756237874
 31
0.0
  0
CIRCLE
  5
AE
  8
0
 10
51.931144781346738
 20
97.969611025427412
 30
0.0
 40
3.0
  0
CIRCLE
  5
AF
  8
0
 10
51.931144781346738
 20
97.969611025427412
 30
0.0
 40
4.0
  0
LINE
  5
B0
  8
0
 10
61.024411523904291
 20
105.21961102542529
 30
0.0
 11
62.756462331472449
 21
108.21961102542529
 31
0.0
  0
LINE
  5
B1
  8
0
 10
62.756462330061368
 20
102.2196110278682
 30
0.0
 11
61.024411522492301
 21
105.2196110278682
 31
0.0
  0
LINE
  5
B2
  8
0
 10
66.220563942379144
 20
102.2196110278682
 30
0.0
 11
62.756462327241479
 21
102.2196110278682
 31
0.0
  0
LINE
  5
B3
  8
0
 10
67.952614748538053
 20
105.21961102542529
 30
0.0
 11
66.220563940969896
 21
102.21961102542529
 31
0.0
  0
LINE
  5
B4
  8
0
 10
66.220563942380977
 20
108.2196110229806
 30
0.0
 11
67.952614749950044
 21
105.21961102298241
 31
0.0
  0
LINE
  5
B5
  8
0
 10
62.756462330060913
 20
108.21961102298241
 30
0.0
 11
66.220563945198592
 21
108.21961102298241
 31
0.0
  0
CIRCLE
  5
B6
  8
0
 10
64.488513136221172
 20
105.2196110254274
 30
0.0
 40
5.5
  0
CIRCLE
  5
B7
  8
5
 10
64.488513136221172
 20
105.2196110254274
 30
0.0
 40
14.5
  0
LINE
  5
BA
  8
1
 10
64.488513136221172
 20
128.96961102542741
 30
0.0
 11
64.488513136221172
 21
81.469611025427412
 31
0.0
  0
LINE
  5
BB
  8
1
 10
40.738513136221172
 20
105.2196110254274
 30
0.0
 11
88.238513136221172
 21
105.2196110254274
 31
0.0
  0
ARC
  5
BC
  8
0
 10
64.488513136221172
 20
105.2196110254274
 30
0.0
 40
10.0
 50
62.292442775955763
 51
117.70755722404419
  0
CIRCLE
  5
BD
  8
0
 10
64.488513136221172
 20
105.2196110254274
 30
0.0
 40
18.75
  0
LINE
  5
D6
  8
0
 10
69.830921696453615
 20
43.62340352306488
 30
0.0
 11
74.488513136221172
 21
43.623403523064773
 31
0.0
  0
LINE
  5
D7
  8
0
 10
59.838924899016199
 20
43.623403523065122
 30
0.0
 11
69.138101373426139
 21
43.623403523064901
 31
0.0
  0
TEXT
  5
185
  8
0
 62
     3
 10
0.0
 20
0.0
 30
0.0
 40
10.0
  1
MBID08
  7
STANDARD1
  0
ENDSEC
  0
EOF
