  0
SECTION
  2
HEADER
  9
$ACADVER
  1
AC1009
  9
$INSBASE
 10
0.0
 20
0.0
 30
0.0
  9
$EXTMIN
 10
0.0
 20
-2.960436562073669
 30
0.0
  9
$EXTMAX
 10
136.49999999999989
 20
157.59999999999999
 30
0.0
  9
$LIMMIN
 10
0.0
 20
0.0
  9
$LIMMAX
 10
12.0
 20
9.0
  9
$ORTHOMODE
 70
     1
  9
$REGENMODE
 70
     1
  9
$FILLMODE
 70
     1
  9
$QTEXTMODE
 70
     0
  9
$MIRRTEXT
 70
     0
  9
$DRAGMODE
 70
     2
  9
$LTSCALE
 40
0.5
  9
$OSMODE
 70
    37
  9
$ATTMODE
 70
     1
  9
$TEXTSIZE
 40
0.2
  9
$TRACEWID
 40
0.05
  9
$TEXTSTYLE
  7
STANDARD
  9
$CLAYER
  8
0
  9
$CELTYPE
  6
BYLAYER
  9
$CECOLOR
 62
   256
  9
$DIMSCALE
 40
1.0
  9
$DIMASZ
 40
1.0
  9
$DIMEXO
 40
2.54
  9
$DIMDLI
 40
0.38
  9
$DIMRND
 40
0.0
  9
$DIMDLE
 40
0.0
  9
$DIMEXE
 40
2.54
  9
$DIMTP
 40
0.0
  9
$DIMTM
 40
0.0
  9
$DIMTXT
 40
3.2000000000000002
  9
$DIMCEN
 40
0.09
  9
$DIMTSZ
 40
0.0
  9
$DIMTOL
 70
     0
  9
$DIMLIM
 70
     0
  9
$DIMTIH
 70
     0
  9
$DIMTOH
 70
     0
  9
$DIMSE1
 70
     0
  9
$DIMSE2
 70
     0
  9
$DIMTAD
 70
     1
  9
$DIMZIN
 70
     8
  9
$DIMBLK
  1

  9
$DIMASO
 70
     1
  9
$DIMSHO
 70
     0
  9
$DIMPOST
  1

  9
$DIMAPOST
  1

  9
$DIMALT
 70
     0
  9
$DIMALTD
 70
     2
  9
$DIMALTF
 40
25.399999999999999
  9
$DIMLFAC
 40
1.0
  9
$DIMTOFL
 70
     0
  9
$DIMTVP
 40
1.0
  9
$DIMTIX
 70
     0
  9
$DIMSOXD
 70
     0
  9
$DIMSAH
 70
     0
  9
$DIMBLK1
  1

  9
$DIMBLK2
  1

  9
$DIMSTYLE
  2
STANDARD
  9
$DIMCLRD
 70
     0
  9
$DIMCLRE
 70
     0
  9
$DIMCLRT
 70
     0
  9
$DIMTFAC
 40
1.0
  9
$DIMGAP
 40
1.6000000000000001
  9
$LUNITS
 70
     2
  9
$LUPREC
 70
     1
  9
$SKETCHINC
 40
0.1
  9
$FILLETRAD
 40
0.2
  9
$AUNITS
 70
     0
  9
$AUPREC
 70
     0
  9
$MENU
  1
.
  9
$ELEVATION
 40
0.0
  9
$PELEVATION
 40
0.0
  9
$THICKNESS
 40
0.0
  9
$LIMCHECK
 70
     0
  9
$BLIPMODE
 70
     0
  9
$CHAMFERA
 40
0.5
  9
$CHAMFERB
 40
0.5
  9
$SKPOLY
 70
     0
  9
$TDCREATE
 40
2453173.4709223039
  9
$TDUPDATE
 40
2456969.410653091
  9
$TDINDWG
 40
1.0123521991
  9
$TDUSRTIMER
 40
1.0123521991
  9
$USRTIMER
 70
     1
  9
$ANGBASE
 50
0.0
  9
$ANGDIR
 70
     0
  9
$PDMODE
 70
     0
  9
$PDSIZE
 40
0.0
  9
$PLINEWID
 40
0.0
  9
$COORDS
 70
     1
  9
$SPLFRAME
 70
     0
  9
$SPLINETYPE
 70
     6
  9
$SPLINESEGS
 70
     8
  9
$ATTDIA
 70
     0
  9
$ATTREQ
 70
     1
  9
$HANDLING
 70
     1
  9
$HANDSEED
  5
317
  9
$SURFTAB1
 70
     6
  9
$SURFTAB2
 70
     6
  9
$SURFTYPE
 70
     6
  9
$SURFU
 70
     6
  9
$SURFV
 70
     6
  9
$UCSNAME
  2

  9
$UCSORG
 10
0.0
 20
0.0
 30
0.0
  9
$UCSXDIR
 10
1.0
 20
0.0
 30
0.0
  9
$UCSYDIR
 10
0.0
 20
1.0
 30
0.0
  9
$PUCSNAME
  2

  9
$PUCSORG
 10
0.0
 20
0.0
 30
0.0
  9
$PUCSXDIR
 10
1.0
 20
0.0
 30
0.0
  9
$PUCSYDIR
 10
0.0
 20
1.0
 30
0.0
  9
$USERI1
 70
     0
  9
$USERI2
 70
     0
  9
$USERI3
 70
     0
  9
$USERI4
 70
     0
  9
$USERI5
 70
     0
  9
$USERR1
 40
0.0
  9
$USERR2
 40
0.0
  9
$USERR3
 40
0.0
  9
$USERR4
 40
0.0
  9
$USERR5
 40
0.0
  9
$WORLDVIEW
 70
     1
  9
$SHADEDGE
 70
     3
  9
$SHADEDIF
 70
    70
  9
$TILEMODE
 70
     1
  9
$MAXACTVP
 70
    64
  9
$PLIMCHECK
 70
     0
  9
$PEXTMIN
 10
1.0000000000000000E+020
 20
1.0000000000000000E+020
 30
1.0000000000000000E+020
  9
$PEXTMAX
 10
-1.0000000000000000E+020
 20
-1.0000000000000000E+020
 30
-1.0000000000000000E+020
  9
$PLIMMIN
 10
0.0
 20
0.0
  9
$PLIMMAX
 10
12.0
 20
9.0
  9
$UNITMODE
 70
     0
  9
$VISRETAIN
 70
     1
  9
$PLINEGEN
 70
     0
  9
$PSLTSCALE
 70
     1
  0
ENDSEC
  0
SECTION
  2
TABLES
  0
TABLE
  2
VPORT
 70
     1
  0
VPORT
  2
*ACTIVE
 70
     0
 10
0.0
 20
0.0
 11
1.0
 21
1.0
 12
157.0931849791377
 22
90.0
 13
0.0
 23
0.0
 14
1.0
 24
1.0
 15
0.0
 25
0.0
 16
0.0
 26
0.0
 36
1.0
 17
0.0
 27
0.0
 37
0.0
 40
180.0
 41
1.7454798331015291
 42
50.0
 43
0.0
 44
0.0
 50
0.0
 51
0.0
 71
     0
 72
   100
 73
     1
 74
     1
 75
     0
 76
     0
 77
     0
 78
     0
  0
ENDTAB
  0
TABLE
  2
LTYPE
 70
     5
  0
LTYPE
  2
CONTINUOUS
 70
     0
  3
Solid line
 72
    65
 73
     0
 40
0.0
  0
LTYPE
  2
CENTER
 70
     0
  3
Center ____ _ ____ _ ____ _ ____ _ ____ _ ____
 72
    65
 73
     4
 40
12.0
 49
7.5
 49
-1.5
 49
1.5
 49
-1.5
  0
LTYPE
  2
HIDDEN
 70
     0
  3
Hidden __ __ __ __ __ __ __ __ __ __ __ __ __ _
 72
    65
 73
     2
 40
4.5
 49
3.0
 49
-1.5
  0
LTYPE
  2
PHANTOM
 70
     0
  3
Phantom ______  __  __  ______  __  __  ______
 72
    65
 73
     6
 40
15.0
 49
7.5
 49
-1.5
 49
1.5
 49
-1.5
 49
1.5
 49
-1.5
  0
LTYPE
  2
PHANTOM2
 70
     0
  3
___ _ _ ___ _ _ ___ _ _ ___ _ _
 72
    65
 73
     6
 40
1.25
 49
0.625
 49
-0.125
 49
0.125
 49
-0.125
 49
0.125
 49
-0.125
  0
ENDTAB
  0
TABLE
  2
LAYER
 70
     5
  0
LAYER
  2
0
 70
     0
 62
     7
  6
CONTINUOUS
  0
LAYER
  2
1
 70
     0
 62
     1
  6
CENTER
  0
LAYER
  2
2
 70
     0
 62
     2
  6
HIDDEN
  0
LAYER
  2
3
 70
     0
 62
     3
  6
CONTINUOUS
  0
LAYER
  2
5
 70
     0
 62
     3
  6
PHANTOM
  0
ENDTAB
  0
TABLE
  2
STYLE
 70
     2
  0
STYLE
  2
STANDARD
 70
     0
 40
0.0
 41
1.0
 50
0.0
 71
     0
 42
0.2
  3
simplex.shx
  4
bigfont.shx
  0
STYLE
  2
STANDARD1
 70
     0
 40
0.0
 41
1.0
 50
0.0
 71
     0
 42
3.0
  3
txt
  4

  0
ENDTAB
  0
TABLE
  2
VIEW
 70
     0
  0
ENDTAB
  0
TABLE
  2
UCS
 70
     0
  0
ENDTAB
  0
TABLE
  2
APPID
 70
     6
  0
APPID
  2
ACAD
 70
     0
  0
APPID
  2
ACAD_MLEADERVER
 70
     0
  0
APPID
  2
ACAD_DSTYLE_DIMJAG
 70
     0
  0
APPID
  2
ACAD_DSTYLE_DIMTALN
 70
     0
  0
APPID
  2
ACAD_NAV_VCDISPLAY
 70
     0
  0
APPID
  2
ACAD_EXEMPT_FROM_CAD_STANDARDS
 70
     0
  0
ENDTAB
  0
TABLE
  2
DIMSTYLE
 70
     1
  0
DIMSTYLE
  2
STANDARD
 70
     0
  3

  4

  5

  6

  7

 40
1.0
 41
0.18
 42
0.0625
 43
0.38
 44
0.18
 45
0.0
 46
0.0
 47
0.0
 48
0.0
140
0.18
141
0.09
142
0.0
143
25.399999999999999
144
1.0
145
0.0
146
1.0
147
0.09
 71
     0
 72
     0
 73
     1
 74
     1
 75
     0
 76
     0
 77
     0
 78
     0
170
     0
171
     2
172
     0
173
     0
174
     0
175
     0
176
     0
177
     0
178
     0
  0
ENDTAB
  0
ENDSEC
  0
SECTION
  2
BLOCKS
  0
BLOCK
  8
0
  2
$MODEL_SPACE
 70
     0
 10
0.0
 20
0.0
 30
0.0
  3
$MODEL_SPACE
  1

  0
ENDBLK
  5
9
  8
0
  0
BLOCK
 67
     1
  8
0
  2
$PAPER_SPACE
 70
     0
 10
0.0
 20
0.0
 30
0.0
  3
$PAPER_SPACE
  1

  0
ENDBLK
  5
E
 67
     1
  8
0
  0
ENDSEC
  0
SECTION
  2
ENTITIES
  0
CIRCLE
  5
28
  8
0
 10
52.399999999999942
 20
136.75
 30
0.0
 40
6.5
  0
LINE
  5
29
  8
0
 10
50.66794919243133
 20
133.7499999999996
 30
0.0
 11
54.132050807568561
 21
133.75000000000031
 31
0.0
  0
LINE
  5
2A
  8
0
 10
48.935898384862043
 20
136.75
 30
0.0
 11
50.66794919243133
 21
133.7499999999996
 31
0.0
  0
LINE
  5
2B
  8
0
 10
50.667949192430306
 20
139.75
 30
0.0
 11
48.935898384862043
 21
136.75
 31
0.0
  0
LINE
  5
2C
  8
0
 10
54.132050807568561
 20
139.75
 30
0.0
 11
50.667949192430306
 21
139.75
 31
0.0
  0
LINE
  5
2D
  8
0
 10
55.864101615137507
 20
136.75000000000031
 30
0.0
 11
54.132050807568561
 21
139.75
 31
0.0
  0
LINE
  5
2E
  8
0
 10
54.132050807568561
 20
133.75000000000031
 30
0.0
 11
55.864101615137507
 21
136.75000000000031
 31
0.0
  0
CIRCLE
  5
2F
  8
0
 10
52.399999999999942
 20
136.75
 30
0.0
 40
5.6339745962155803
  0
LINE
  5
30
  8
0
 10
41.537624446066069
 20
120.90000000000001
 30
0.0
 11
41.537624446066069
 21
152.59999999999999
 31
0.0
  0
LINE
  5
31
  8
0
 10
63.262375553933822
 20
120.90000000000001
 30
0.0
 11
63.262375553933822
 21
152.59999999999999
 31
0.0
  0
LINE
  5
32
  8
0
 10
40.000000000000021
 20
152.59999999999999
 30
0.0
 11
64.799999999999926
 21
152.59999999999999
 31
0.0
  0
LINE
  5
33
  8
0
 10
40.000000000000021
 20
120.90000000000001
 30
0.0
 11
64.799999999999926
 21
120.90000000000001
 31
0.0
  0
LINE
  5
34
  8
0
 10
40.000000000000021
 20
120.90000000000001
 30
0.0
 11
40.000000000000021
 21
152.59999999999999
 31
0.0
  0
LINE
  5
35
  8
0
 10
64.799999999999926
 20
120.90000000000001
 30
0.0
 11
64.799999999999926
 21
152.59999999999999
 31
0.0
  0
LINE
  5
36
  8
1
 10
120.64999999999981
 20
85.900000000000006
 30
0.0
 11
120.64999999999981
 21
37.90000000000002
 31
0.0
  0
LINE
  5
39
  8
0
 10
123.4499999999998
 20
42.900000000000013
 30
0.0
 11
117.84999999999989
 21
42.900000000000013
 31
0.0
  0
LINE
  5
3A
  8
0
 10
124.64999999999981
 20
44.100000000000009
 30
0.0
 11
123.4499999999998
 21
42.900000000000013
 31
0.0
  0
LINE
  5
3B
  8
0
 10
117.84999999999989
 20
42.900000000000013
 30
0.0
 11
116.64999999999981
 21
44.100000000000058
 31
0.0
  0
LINE
  5
3C
  8
0
 10
124.64999999999981
 20
44.099999999999952
 30
0.0
 11
116.64999999999981
 21
44.100000000000058
 31
0.0
  0
LINE
  5
3D
  8
0
 10
124.64999999999981
 20
54.999999999999993
 30
0.0
 11
124.64999999999981
 21
44.099999999999952
 31
0.0
  0
LINE
  5
3E
  8
3
 10
123.9734999999999
 20
54.999999999999993
 30
0.0
 11
123.9734999999999
 21
43.423500000000089
 31
0.0
  0
LINE
  5
3F
  8
3
 10
117.3264999999998
 20
54.999999999999993
 30
0.0
 11
117.3264999999998
 21
43.423500000000139
 31
0.0
  0
LINE
  5
40
  8
0
 10
116.64999999999981
 20
54.999999999999993
 30
0.0
 11
116.64999999999981
 21
44.100000000000058
 31
0.0
  0
LINE
  5
41
  8
0
 10
136.49999999999989
 20
80.899999999999963
 30
0.0
 11
136.49999999999989
 21
54.999999999999922
 31
0.0
  0
LINE
  5
42
  8
0
 10
104.7999999999999
 20
80.900000000000006
 30
0.0
 11
104.7999999999999
 21
54.999999999999993
 31
0.0
  0
LINE
  5
43
  8
0
 10
104.7999999999999
 20
80.40000000000002
 30
0.0
 11
136.49999999999989
 21
80.40000000000002
 31
0.0
  0
LINE
  5
44
  8
0
 10
104.7999999999999
 20
67.700000000000031
 30
0.0
 11
136.4999999999998
 21
67.700000000000031
 31
0.0
  0
LINE
  5
45
  8
0
 10
104.7999999999999
 20
54.999999999999993
 30
0.0
 11
136.4999999999998
 21
54.999999999999993
 31
0.0
  0
LINE
  5
46
  8
0
 10
104.7999999999999
 20
80.900000000000006
 30
0.0
 11
136.49999999999989
 21
80.900000000000006
 31
0.0
  0
ARC
  5
4A
  8
5
 10
61.510457115411
 20
67.181110011570951
 30
0.0
 40
0.4000015300000001
 50
359.40001999999998
 51
89.400001000001396
  0
LINE
  5
4B
  8
5
 10
61.2547036931036
 20
67.583811286562764
 30
0.0
 11
61.514645839529258
 21
67.581089079262355
 31
0.0
  0
LINE
  5
4C
  8
5
 10
65.264439424693776
 20
67.541819897203879
 30
0.0
 11
64.114504479813803
 21
67.553862427993977
 31
0.0
  0
LINE
  5
4D
  8
5
 10
61.651414654655731
 20
63.059944671682082
 30
0.0
 11
61.910542793588661
 21
67.178668496258098
 31
0.0
  0
LINE
  5
4E
  8
5
 10
63.45645175839298
 20
63.122671614890663
 30
0.0
 11
63.7103376984211
 21
67.158073073894229
 31
0.0
  0
ARC
  5
4F
  8
5
 10
64.110315766167261
 20
67.153884360247744
 30
0.0
 40
0.4
 50
89.400000000000006
 51
179.40000000000001
  0
ARC
  5
50
  8
5
 10
65.269151727546074
 20
67.991795223418364
 30
0.0
 40
0.45
 50
269.39999999999992
 51
359.39999999999992
  0
ARC
  5
51
  8
5
 10
65.291678078326981
 20
79.692200262968129
 30
0.0
 40
0.5500006100000001
 50
359.40001999999998
 51
157.40021699999929
  0
LINE
  5
52
  8
5
 10
65.719127053760531
 20
67.987082920566024
 30
0.0
 11
65.841646921532885
 21
79.686440792176001
 31
0.0
  0
LINE
  5
53
  8
5
 10
64.783911095252805
 20
79.903561001754042
 30
0.0
 11
60.341963898547263
 21
68.968048507634947
 31
0.0
  0
ARC
  5
54
  8
0
 10
40.549998999999978
 20
79.849999389999994
 30
0.0
 40
0.5500006100000001
 50
21.99978300000058
 51
179.99997999999991
  0
LINE
  5
55
  8
0
 10
41.059951465915532
 20
80.056031313514438
 30
0.0
 11
45.38714078179899
 21
69.074603308384155
 31
0.0
  0
ARC
  5
56
  8
0
 10
40.45000000000001
 20
68.150000000000034
 30
0.0
 40
0.45
 50
180.0
 51
270.0
  0
ARC
  5
57
  8
0
 10
41.599997999999999
 20
67.300000000000011
 30
0.0
 40
0.4
 50
0.0
 51
90.0
  0
LINE
  5
58
  8
0
 10
40.45000000000001
 20
67.700000000000045
 30
0.0
 11
41.599997999999999
 21
67.700000000000045
 31
0.0
  0
LINE
  5
59
  8
0
 10
40.000000000000021
 20
68.150000000000034
 30
0.0
 11
39.999999999999972
 21
79.849999389999994
 31
0.0
  0
LINE
  5
5A
  8
0
 10
44.459955599999972
 20
67.700000000000045
 30
0.0
 11
44.199999199999951
 21
67.700000000000045
 31
0.0
  0
ARC
  5
5B
  8
0
 10
44.199999199999951
 20
67.299999000000014
 30
0.0
 40
0.4000015300000001
 50
89.999998999998596
 51
179.99997999999991
  0
ARC
  5
5C
  8
0
 10
44.459955599999972
 20
68.700000000000045
 30
0.0
 40
1.0
 50
270.0000199999987
 51
21.999796999999941
  0
LINE
  5
5D
  8
0
 10
41.99999799999992
 20
55.450000000000053
 30
0.0
 11
41.99999799999997
 21
67.300000000000011
 31
0.0
  0
LINE
  5
5E
  8
0
 10
43.800001499999979
 20
59.10000339000004
 30
0.0
 11
43.800001499999922
 21
67.301749427669051
 31
0.0
  0
LINE
  5
5F
  8
2
 10
56.399999999999949
 20
58.300003390000029
 30
0.0
 11
56.399999999999949
 21
55.0
 31
0.0
  0
LINE
  5
62
  8
2
 10
55.723500000000087
 20
58.300003390000029
 30
0.0
 11
55.72350000000003
 21
55.0
 31
0.0
  0
LINE
  5
63
  8
2
 10
49.076499999999861
 20
58.300003390000029
 30
0.0
 11
49.076499999999861
 21
55.0
 31
0.0
  0
LINE
  5
64
  8
2
 10
48.399999999999949
 20
58.300003390000029
 30
0.0
 11
48.399999999999949
 21
55.0
 31
0.0
  0
LINE
  5
65
  8
0
 10
48.399999999999949
 20
55.0
 30
0.0
 11
48.399999999999949
 21
44.10000000000008
 31
0.0
  0
LINE
  5
66
  8
3
 10
49.076499999999932
 20
55.0
 30
0.0
 11
49.076499999999861
 21
43.423500000000161
 31
0.0
  0
LINE
  5
67
  8
3
 10
55.72350000000003
 20
55.0
 30
0.0
 11
55.72350000000003
 21
43.423500000000097
 31
0.0
  0
LINE
  5
68
  8
0
 10
56.399999999999949
 20
55.0
 30
0.0
 11
56.399999999999949
 21
44.099999999999959
 31
0.0
  0
LINE
  5
69
  8
2
 10
48.399999999999949
 20
64.900000000000034
 30
0.0
 11
48.399999999999949
 21
72.900000000000034
 31
0.0
  0
LINE
  5
6A
  8
2
 10
49.076499999999861
 20
64.900000000000034
 30
0.0
 11
49.076499999999861
 21
72.900000000000034
 31
0.0
  0
LINE
  5
6B
  8
2
 10
55.723500000000087
 20
64.900000000000034
 30
0.0
 11
55.723500000000087
 21
72.900000000000034
 31
0.0
  0
LINE
  5
6C
  8
2
 10
56.399999999999949
 20
64.900000000000034
 30
0.0
 11
56.399999999999949
 21
72.900000000000034
 31
0.0
  0
LINE
  5
6D
  8
0
 10
56.399999999999949
 20
44.099999999999959
 30
0.0
 11
48.399999999999949
 21
44.10000000000008
 31
0.0
  0
LINE
  5
6E
  8
0
 10
49.599999999999987
 20
42.900000000000027
 30
0.0
 11
48.399999999999949
 21
44.10000000000008
 31
0.0
  0
LINE
  5
6F
  8
0
 10
56.399999999999949
 20
44.100000000000023
 30
0.0
 11
55.199999999999903
 21
42.900000000000027
 31
0.0
  0
LINE
  5
70
  8
0
 10
56.399999999999949
 20
64.900000000000034
 30
0.0
 11
56.399999999999949
 21
58.300003390000029
 31
0.0
  0
LINE
  5
71
  8
3
 10
55.723500000000087
 20
64.900000000000034
 30
0.0
 11
55.723500000000087
 21
58.300003390000029
 31
0.0
  0
LINE
  5
72
  8
3
 10
49.076499999999861
 20
64.900000000000034
 30
0.0
 11
49.076499999999861
 21
58.300003390000029
 31
0.0
  0
LINE
  5
73
  8
0
 10
48.399999999999949
 20
64.900000000000034
 30
0.0
 11
48.399999999999949
 21
58.300003390000029
 31
0.0
  0
LINE
  5
74
  8
0
 10
55.199999999999903
 20
42.900000000000027
 30
0.0
 11
49.599999999999987
 21
42.900000000000027
 31
0.0
  0
LINE
  5
75
  8
2
 10
45.899999999999949
 20
80.400000000000034
 30
0.0
 11
46.766025403784369
 21
80.900000000000034
 31
0.0
  0
LINE
  5
76
  8
2
 10
58.899999999999949
 20
80.400000000000034
 30
0.0
 11
58.033974596215529
 21
80.900000000000034
 31
0.0
  0
LINE
  5
77
  8
2
 10
45.899999999999949
 20
80.400000000000034
 30
0.0
 11
58.899999999999949
 21
80.400000000000034
 31
0.0
  0
LINE
  5
78
  8
2
 10
46.766025403784369
 20
80.900000000000034
 30
0.0
 11
58.033974596215529
 21
80.900000000000034
 31
0.0
  0
LINE
  5
79
  8
2
 10
45.899999999999949
 20
72.900000000000034
 30
0.0
 11
45.899999999999949
 21
80.400000000000034
 31
0.0
  0
LINE
  5
7A
  8
2
 10
58.899999999999949
 20
72.900000000000034
 30
0.0
 11
45.899999999999949
 21
72.900000000000034
 31
0.0
  0
LINE
  5
7B
  8
2
 10
58.899999999999949
 20
80.400000000000034
 30
0.0
 11
58.899999999999949
 21
72.900000000000034
 31
0.0
  0
ARC
  5
7C
  8
0
 10
58.60000150000004
 20
65.10000000000008
 30
0.0
 40
0.2
 50
270.0000000000004
 51
0.000000000001145
  0
LINE
  5
7D
  8
0
 10
58.800001499999922
 20
69.453844899496403
 30
0.0
 11
58.800001500000043
 21
65.10000000000008
 31
0.0
  0
ARC
  5
7E
  8
0
 10
59.300001499999972
 20
69.453844899496403
 30
0.0
 40
0.5
 50
144.56210705112321
 51
180.0000000000004
  0
ARC
  5
7F
  8
0
 10
38.524016597147209
 20
84.239258364003703
 30
0.0
 40
25.0
 50
324.56210705112358
 51
351.66153138604523
  0
ARC
  5
80
  8
0
 10
63.012375553933822
 20
80.650000000000105
 30
0.0
 40
0.25
 50
351.66153138604591
 51
90.000000000000355
  0
ARC
  5
81
  8
0
 10
46.199998499999957
 20
65.100000000000023
 30
0.0
 40
0.2
 50
179.9999999999992
 51
270.0
  0
ARC
  5
82
  8
0
 10
45.499998499999982
 20
69.453844899496403
 30
0.0
 40
0.5
 50
0.0
 51
35.437892948877163
  0
ARC
  5
83
  8
0
 10
41.787624446066069
 20
80.649999999999963
 30
0.0
 40
0.25
 50
90.0
 51
188.33846861395449
  0
ARC
  5
84
  8
0
 10
66.275983402852631
 20
84.239258364003845
 30
0.0
 40
25.0
 50
188.33846861395509
 51
215.43789294887679
  0
LINE
  5
85
  8
0
 10
41.787624446066069
 20
80.899999999999977
 30
0.0
 11
63.012375553933822
 21
80.900000000000034
 31
0.0
  0
ARC
  5
86
  8
0
 10
44.600001499999991
 20
59.10000339000004
 30
0.0
 40
0.8
 50
180.0
 51
270.0
  0
ARC
  5
87
  8
0
 10
60.1999984999999
 20
59.10000339000004
 30
0.0
 40
0.8
 50
270.0
 51
0.0
  0
ARC
  5
88
  8
0
 10
64.250000999999912
 20
79.849999389999994
 30
0.0
 40
0.5500006100000001
 50
0.0000200000000282
 51
158.0002169999994
  0
ARC
  5
89
  8
0
 10
62.350001999999989
 20
55.450000000000053
 30
0.0
 40
0.45
 50
270.0
 51
0.0
  0
LINE
  5
8A
  8
0
 10
60.999998499999919
 20
59.10000339000004
 30
0.0
 11
60.999998499999968
 21
67.301749427669051
 31
0.0
  0
LINE
  5
8B
  8
0
 10
62.800001999999978
 20
55.450000000000053
 30
0.0
 11
62.800001999999921
 21
67.300000000000011
 31
0.0
  0
ARC
  5
8C
  8
0
 10
60.340044399999933
 20
68.700000000000045
 30
0.0
 40
1.0
 50
158.000203
 51
269.99998000000119
  0
ARC
  5
8D
  8
0
 10
60.60000079999994
 20
67.299999000000014
 30
0.0
 40
0.4000015300000001
 50
0.0000200000000282
 51
90.000001000001362
  0
LINE
  5
8E
  8
0
 10
60.340044399999933
 20
67.700000000000045
 30
0.0
 11
60.60000079999994
 21
67.700000000000045
 31
0.0
  0
LINE
  5
8F
  8
0
 10
64.799999999999869
 20
68.150000000000034
 30
0.0
 11
64.799999999999926
 21
79.849999389999994
 31
0.0
  0
LINE
  5
90
  8
0
 10
64.349999999999881
 20
67.700000000000045
 30
0.0
 11
63.200001999999898
 21
67.700000000000045
 31
0.0
  0
ARC
  5
91
  8
0
 10
63.200001999999898
 20
67.300000000000011
 30
0.0
 40
0.4
 50
90.0
 51
180.0
  0
ARC
  5
92
  8
0
 10
64.349999999999881
 20
68.150000000000034
 30
0.0
 40
0.45
 50
270.0
 51
0.0
  0
LINE
  5
93
  8
0
 10
63.740048534084359
 20
80.056031313514438
 30
0.0
 11
59.412859218200907
 21
69.074603308384155
 31
0.0
  0
ARC
  5
94
  8
0
 10
42.449997999999901
 20
55.450000000000053
 30
0.0
 40
0.45
 50
180.0
 51
270.0
  0
LINE
  5
98
  8
1
 10
52.399999999999942
 20
85.900000000000034
 30
0.0
 11
52.399999999999892
 21
37.900000000000041
 31
0.0
  0
LINE
  5
99
  8
0
 10
42.449997999999901
 20
55.0
 30
0.0
 11
62.350001999999932
 21
55.0
 31
0.0
  0
LINE
  5
9B
  8
0
 10
44.600001499999991
 20
58.300003390000029
 30
0.0
 11
60.1999984999999
 21
58.300003390000029
 31
0.0
  0
LINE
  5
A0
  8
0
 10
46.199998499999957
 20
64.900000000000034
 30
0.0
 11
58.60000150000004
 21
64.900000000000034
 31
0.0
  0
LINE
  5
A1
  8
0
 10
45.999998500000032
 20
69.453844899496403
 30
0.0
 11
45.999998499999968
 21
65.100000000000023
 31
0.0
  0
LINE
  5
A2
  8
1
 10
69.799999999999926
 20
136.75
 30
0.0
 11
35.000000000000028
 21
136.75
 31
0.0
  0
LINE
  5
A3
  8
1
 10
52.399999999999942
 20
115.90000000000001
 30
0.0
 11
52.399999999999942
 21
157.59999999999999
 31
0.0
  0
TEXT
  5
15D
  8
0
 62
     3
 10
0.0
 20
0.0
 30
0.0
 40
10.0
  1
MBDE08
  7
STANDARD1
  0
ARC
  5
1F4
  8
5
 10
61.26517547721987
 20
68.583756455928295
 30
0.0
 40
1.0
 50
157.400203
 51
269.39998000000122
  0
LINE
  5
20E
  8
5
 10
48.399999999999942
 20
44.10000000000008
 30
0.0
 11
48.399999999999949
 21
41.200000000000038
 31
0.0
  0
LINE
  5
20F
  8
5
 10
49.076499999999882
 20
43.423500000000161
 30
0.0
 11
49.076499999999861
 21
40.523500000000119
 31
0.0
  0
LINE
  5
210
  8
5
 10
55.72350000000003
 20
43.423500000000161
 30
0.0
 11
55.72350000000003
 21
40.523500000000062
 31
0.0
  0
LINE
  5
211
  8
5
 10
56.399999999999949
 20
44.099999999999959
 30
0.0
 11
56.399999999999949
 21
41.199999999999932
 31
0.0
  0
LINE
  5
216
  8
5
 10
56.399999999999949
 20
41.199999999999932
 30
0.0
 11
48.399999999999949
 21
41.200000000000038
 31
0.0
  0
LINE
  5
217
  8
5
 10
49.599999999999987
 20
40.0
 30
0.0
 11
48.399999999999949
 21
41.200000000000038
 31
0.0
  0
LINE
  5
218
  8
5
 10
56.399999999999949
 20
41.199999999999989
 30
0.0
 11
55.199999999999903
 21
40.0
 31
0.0
  0
LINE
  5
21D
  8
5
 10
55.199999999999903
 20
40.0
 30
0.0
 11
49.599999999999987
 21
40.0
 31
0.0
  0
ARC
  5
225
  8
5
 10
58.60000150000004
 20
62.200000000000053
 30
0.0
 40
0.2
 50
270.0000000000004
 51
0.000000000001145
  0
LINE
  5
226
  8
5
 10
58.800001499999922
 20
66.553844899496369
 30
0.0
 11
58.800001500000043
 21
62.200000000000053
 31
0.0
  0
ARC
  5
227
  8
5
 10
59.300001499999972
 20
66.553844899496369
 30
0.0
 40
0.5
 50
144.56210705112289
 51
180.0000000000004
  0
ARC
  5
228
  8
5
 10
38.524016597147209
 20
81.339258364003683
 30
0.0
 40
25.0
 50
324.56210705112358
 51
351.66153138604523
  0
ARC
  5
229
  8
5
 10
63.012375553933822
 20
77.750000000000057
 30
0.0
 40
0.25
 50
351.66153138604591
 51
90.000000000000355
  0
ARC
  5
22A
  8
5
 10
46.199998499999957
 20
62.199999999999982
 30
0.0
 40
0.2
 50
179.9999999999992
 51
270.0
  0
ARC
  5
22B
  8
5
 10
45.499998499999982
 20
66.553844899496369
 30
0.0
 40
0.5
 50
0.0
 51
35.437892948877121
  0
ARC
  5
22C
  8
5
 10
41.787624446066069
 20
77.749999999999943
 30
0.0
 40
0.25
 50
90.0
 51
188.33846861395449
  0
ARC
  5
22D
  8
5
 10
66.275983402852631
 20
81.339258364003797
 30
0.0
 40
25.0
 50
188.338468613955
 51
215.43789294887691
  0
LINE
  5
22E
  8
5
 10
41.787624446066069
 20
77.999999999999943
 30
0.0
 11
63.012375553933822
 21
78.0
 31
0.0
  0
LINE
  5
249
  8
5
 10
46.199998499999957
 20
62.0
 30
0.0
 11
58.60000150000004
 21
62.0
 31
0.0
  0
LINE
  5
24A
  8
5
 10
45.999998500000032
 20
66.553844899496369
 30
0.0
 11
45.999998499999968
 21
62.199999999999982
 31
0.0
  0
ARC
  5
25C
  8
5
 10
43.289542884588847
 20
67.181110011570951
 30
0.0
 40
0.4000015300000001
 50
90.599998999998462
 51
180.59997999999999
  0
LINE
  5
25D
  8
5
 10
43.545296306896248
 20
67.583811286562764
 30
0.0
 11
43.28535416047059
 21
67.581089079262355
 31
0.0
  0
LINE
  5
25E
  8
5
 10
39.535560575306079
 20
67.541819897203879
 30
0.0
 11
40.685495520186052
 21
67.553862427993977
 31
0.0
  0
LINE
  5
25F
  8
5
 10
43.148585345344109
 20
63.059944671682082
 30
0.0
 11
42.889457206411187
 21
67.178668496258098
 31
0.0
  0
LINE
  5
260
  8
5
 10
41.343548241606868
 20
63.122671614890663
 30
0.0
 11
41.089662301578748
 21
67.158073073894229
 31
0.0
  0
ARC
  5
261
  8
5
 10
40.689684233832587
 20
67.153884360247744
 30
0.0
 40
0.4
 50
0.6000000000000149
 51
90.600000000000094
  0
ARC
  5
262
  8
5
 10
39.530848272453781
 20
67.991795223418364
 30
0.0
 40
0.45
 50
180.59999999999999
 51
270.60000000000019
  0
ARC
  5
263
  8
5
 10
39.508321921672881
 20
79.692200262968129
 30
0.0
 40
0.5500006100000001
 50
22.599783000000709
 51
180.59997999999999
  0
LINE
  5
264
  8
5
 10
39.080872946239317
 20
67.987082920566024
 30
0.0
 11
38.95835307846697
 21
79.686440792176001
 31
0.0
  0
LINE
  5
265
  8
5
 10
40.01608890474705
 20
79.903561001754042
 30
0.0
 11
44.458036101452592
 21
68.968048507634947
 31
0.0
  0
ARC
  5
266
  8
5
 10
43.534824522779978
 20
68.583756455928295
 30
0.0
 40
1.0
 50
270.60001999999872
 51
22.599796999999938
  0
ENDSEC
  0
EOF
