  0
SECTION
  2
HEADER
  9
$ACADVER
  1
AC1009
  9
$INSBASE
 10
0.0
 20
0.0
 30
0.0
  9
$EXTMIN
 10
0.0
 20
-2.960436562073669
 30
0.0
  9
$EXTMAX
 10
228.00000000000011
 20
118.5
 30
0.0
  9
$LIMMIN
 10
0.0
 20
0.0
  9
$LIMMAX
 10
375.0
 20
270.0
  9
$ORTHOMODE
 70
     1
  9
$REGENMODE
 70
     1
  9
$FILLMODE
 70
     1
  9
$QTEXTMODE
 70
     0
  9
$MIRRTEXT
 70
     0
  9
$DRAGMODE
 70
     2
  9
$LTSCALE
 40
5.0
  9
$OSMODE
 70
    37
  9
$ATTMODE
 70
     1
  9
$TEXTSIZE
 40
4.000000000000048
  9
$TRACEWID
 40
0.05
  9
$TEXTSTYLE
  7
STANDARD
  9
$CLAYER
  8
0
  9
$CELTYPE
  6
BYLAYER
  9
$CECOLOR
 62
   256
  9
$DIMSCALE
 40
1.0
  9
$DIMASZ
 40
3.0
  9
$DIMEXO
 40
2.0
  9
$DIMDLI
 40
0.38
  9
$DIMRND
 40
0.0
  9
$DIMDLE
 40
0.0
  9
$DIMEXE
 40
2.0
  9
$DIMTP
 40
0.0
  9
$DIMTM
 40
0.0
  9
$DIMTXT
 40
3.2000000000000002
  9
$DIMCEN
 40
0.0
  9
$DIMTSZ
 40
0.0
  9
$DIMTOL
 70
     0
  9
$DIMLIM
 70
     0
  9
$DIMTIH
 70
     0
  9
$DIMTOH
 70
     0
  9
$DIMSE1
 70
     0
  9
$DIMSE2
 70
     0
  9
$DIMTAD
 70
     1
  9
$DIMZIN
 70
     8
  9
$DIMBLK
  1

  9
$DIMASO
 70
     0
  9
$DIMSHO
 70
     0
  9
$DIMPOST
  1

  9
$DIMAPOST
  1

  9
$DIMALT
 70
     0
  9
$DIMALTD
 70
     2
  9
$DIMALTF
 40
25.399999999999999
  9
$DIMLFAC
 40
1.0
  9
$DIMTOFL
 70
     1
  9
$DIMTVP
 40
1.6000000000000001
  9
$DIMTIX
 70
     1
  9
$DIMSOXD
 70
     0
  9
$DIMSAH
 70
     0
  9
$DIMBLK1
  1

  9
$DIMBLK2
  1

  9
$DIMSTYLE
  2
STANDARD
  9
$DIMCLRD
 70
     0
  9
$DIMCLRE
 70
     0
  9
$DIMCLRT
 70
     0
  9
$DIMTFAC
 40
1.0
  9
$DIMGAP
 40
1.0
  9
$LUNITS
 70
     2
  9
$LUPREC
 70
     1
  9
$SKETCHINC
 40
0.1
  9
$FILLETRAD
 40
22.0
  9
$AUNITS
 70
     0
  9
$AUPREC
 70
     0
  9
$MENU
  1
E:\r13\win\SUPPORT\ACAD
  9
$ELEVATION
 40
0.0
  9
$PELEVATION
 40
0.0
  9
$THICKNESS
 40
0.0
  9
$LIMCHECK
 70
     0
  9
$BLIPMODE
 70
     0
  9
$CHAMFERA
 40
1.1999999999999991
  9
$CHAMFERB
 40
1.1999999999999991
  9
$SKPOLY
 70
     0
  9
$TDCREATE
 40
2449954.6020138888
  9
$TDUPDATE
 40
2458432.4943832182
  9
$TDINDWG
 40
0.9124585301
  9
$TDUSRTIMER
 40
0.9124585301
  9
$USRTIMER
 70
     1
  9
$ANGBASE
 50
0.0
  9
$ANGDIR
 70
     0
  9
$PDMODE
 70
     0
  9
$PDSIZE
 40
0.0
  9
$PLINEWID
 40
0.0
  9
$COORDS
 70
     1
  9
$SPLFRAME
 70
     0
  9
$SPLINETYPE
 70
     6
  9
$SPLINESEGS
 70
     8
  9
$ATTDIA
 70
     0
  9
$ATTREQ
 70
     1
  9
$HANDLING
 70
     1
  9
$HANDSEED
  5
5705
  9
$SURFTAB1
 70
     6
  9
$SURFTAB2
 70
     6
  9
$SURFTYPE
 70
     6
  9
$SURFU
 70
     6
  9
$SURFV
 70
     6
  9
$UCSNAME
  2

  9
$UCSORG
 10
0.0
 20
0.0
 30
0.0
  9
$UCSXDIR
 10
1.0
 20
0.0
 30
0.0
  9
$UCSYDIR
 10
0.0
 20
1.0
 30
0.0
  9
$PUCSNAME
  2

  9
$PUCSORG
 10
0.0
 20
0.0
 30
0.0
  9
$PUCSXDIR
 10
1.0
 20
0.0
 30
0.0
  9
$PUCSYDIR
 10
0.0
 20
1.0
 30
0.0
  9
$USERI1
 70
     0
  9
$USERI2
 70
     1
  9
$USERI3
 70
     0
  9
$USERI4
 70
     0
  9
$USERI5
 70
     0
  9
$USERR1
 40
0.0
  9
$USERR2
 40
0.0
  9
$USERR3
 40
0.0
  9
$USERR4
 40
0.0
  9
$USERR5
 40
0.0
  9
$WORLDVIEW
 70
     1
  9
$SHADEDGE
 70
     3
  9
$SHADEDIF
 70
    70
  9
$TILEMODE
 70
     1
  9
$MAXACTVP
 70
    16
  9
$PLIMCHECK
 70
     0
  9
$PEXTMIN
 10
1.0000000000000000E+020
 20
1.0000000000000000E+020
 30
1.0000000000000000E+020
  9
$PEXTMAX
 10
-1.0000000000000000E+020
 20
-1.0000000000000000E+020
 30
-1.0000000000000000E+020
  9
$PLIMMIN
 10
0.0
 20
0.0
  9
$PLIMMAX
 10
12.0
 20
9.0
  9
$UNITMODE
 70
     0
  9
$VISRETAIN
 70
     0
  9
$PLINEGEN
 70
     0
  9
$PSLTSCALE
 70
     0
  0
ENDSEC
  0
SECTION
  2
TABLES
  0
TABLE
  2
VPORT
 70
     1
  0
VPORT
  2
*ACTIVE
 70
     0
 10
0.0
 20
0.0
 11
1.0
 21
1.0
 12
275.95155709342561
 22
100.0
 13
0.0
 23
0.0
 14
10.0
 24
10.0
 15
10.0
 25
10.0
 16
0.0
 26
0.0
 36
1.0
 17
0.0
 27
0.0
 37
0.0
 40
200.0
 41
2.7595155709342558
 42
50.0
 43
0.0
 44
0.0
 50
0.0
 51
0.0
 71
     0
 72
   500
 73
     1
 74
     0
 75
     0
 76
     0
 77
     0
 78
     2
  0
ENDTAB
  0
TABLE
  2
LTYPE
 70
     4
  0
LTYPE
  2
CONTINUOUS
 70
     0
  3
Solid Line
 72
    65
 73
     0
 40
0.0
  0
LTYPE
  2
CENTER
 70
     0
  3
____ _ ____ _ ____ _ ____ _ ____ _ ____ _ ____
 72
    65
 73
     4
 40
2.0
 49
1.25
 49
-0.25
 49
0.25
 49
-0.25
  0
LTYPE
  2
HIDDEN
 70
     0
  3
_ _ _ _ _ _ _ _ _ _ _ _ _ _ _ _ _ _ _ _ _ _ _
 72
    65
 73
     2
 40
0.375
 49
0.25
 49
-0.125
  0
LTYPE
  2
PHANTOM2
 70
     0
  3
___ _ _ ___ _ _ ___ _ _ ___ _ _
 72
    65
 73
     6
 40
1.25
 49
0.625
 49
-0.125
 49
0.125
 49
-0.125
 49
0.125
 49
-0.125
  0
ENDTAB
  0
TABLE
  2
LAYER
 70
     5
  0
LAYER
  2
0
 70
     0
 62
     7
  6
CONTINUOUS
  0
LAYER
  2
1
 70
     0
 62
     1
  6
CENTER
  0
LAYER
  2
3
 70
     0
 62
     3
  6
CONTINUOUS
  0
LAYER
  2
2
 70
     0
 62
     2
  6
HIDDEN
  0
LAYER
  2
DEFPOINTS
 70
     0
 62
     7
  6
CONTINUOUS
  0
ENDTAB
  0
TABLE
  2
STYLE
 70
     2
  0
STYLE
  2
STANDARD
 70
     0
 40
0.0
 41
1.0
 50
0.0
 71
     0
 42
4.000000000000048
  3
SIMPLEX
  4
BIGFONT
  0
STYLE
  2
STANDARD1
 70
     0
 40
0.0
 41
1.0
 50
0.0
 71
     0
 42
3.0
  3
txt
  4

  0
ENDTAB
  0
TABLE
  2
VIEW
 70
     1
  0
VIEW
  2
ALL
 70
     0
 40
270.0
 10
220.78595317725751
 20
135.0
 41
441.57190635451502
 11
0.0
 21
0.0
 31
1.0
 12
0.0
 22
0.0
 32
0.0
 42
50.0
 43
0.0
 44
0.0
 50
0.0
 71
     0
  0
ENDTAB
  0
TABLE
  2
UCS
 70
     0
  0
ENDTAB
  0
TABLE
  2
APPID
 70
     8
  0
APPID
  2
ACAD
 70
     0
  0
APPID
  2
ACAD_EXEMPT_FROM_CAD_STANDARDS
 70
     0
  0
APPID
  2
ACAD_MLEADERVER
 70
     0
  0
APPID
  2
ACAD_NAV_VCDISPLAY
 70
     0
  0
APPID
  2
ACAD_DSTYLE_DIMRADIAL_EXTENSION
 70
     0
  0
APPID
  2
ACAD_DSTYLE_DIMJAG
 70
     0
  0
APPID
  2
ACAD_DSTYLE_DIMTALN
 70
     0
  0
APPID
  2
ACAD_PSEXT
 70
     0
  0
ENDTAB
  0
TABLE
  2
DIMSTYLE
 70
     1
  0
DIMSTYLE
  2
STANDARD
 70
     0
  3

  4

  5

  6

  7

 40
1.0
 41
0.18
 42
0.0625
 43
0.38
 44
0.18
 45
0.0
 46
0.0
 47
0.0
 48
0.0
140
0.18
141
0.09
142
0.0
143
25.399999999999999
144
1.0
145
0.0
146
1.0
147
0.09
 71
     0
 72
     0
 73
     1
 74
     1
 75
     0
 76
     0
 77
     0
 78
     0
170
     0
171
     2
172
     0
173
     0
174
     0
175
     0
176
     0
177
     0
178
     0
  0
ENDTAB
  0
ENDSEC
  0
SECTION
  2
BLOCKS
  0
BLOCK
  8
0
  2
$MODEL_SPACE
 70
     0
 10
0.0
 20
0.0
 30
0.0
  3
$MODEL_SPACE
  1

  0
ENDBLK
  5
1126
  8
0
  0
BLOCK
 67
     1
  8
0
  2
$PAPER_SPACE
 70
     0
 10
0.0
 20
0.0
 30
0.0
  3
$PAPER_SPACE
  1

  0
ENDBLK
  5
1124
 67
     1
  8
0
  0
ENDSEC
  0
SECTION
  2
ENTITIES
  0
TEXT
  5
1F1A
  8
0
 62
     3
 10
0.0
 20
0.0
 30
0.0
 40
10.0
  1
MAU5040-ST02
  7
STANDARD1
  0
LINE
  5
319C
  8
0
 10
60.0
 20
78.000000000000014
 30
0.0
 11
60.0
 21
42.0
 31
0.0
  0
ARC
  5
319D
  8
0
 10
58.000001494199992
 20
78.000001494100005
 30
0.0
 40
1.9999985058502039
 50
359.99995719570018
 51
90.000042804300207
  0
LINE
  5
319E
  8
0
 10
42.0
 20
80.000000000000014
 30
0.0
 11
58.0
 21
80.000000000000014
 31
0.0
  0
ARC
  5
319F
  8
0
 10
41.999998505899988
 20
78.000001494100005
 30
0.0
 40
1.999998505850175
 50
89.999957195699778
 51
180.00004280430019
  0
LINE
  5
31A0
  8
0
 10
40.0
 20
76.500000000000014
 30
0.0
 11
40.0
 21
78.000000000000014
 31
0.0
  0
ARC
  5
31A1
  8
0
 10
40.499999626499978
 20
76.499999626400026
 30
0.0
 40
0.4999996264625512
 50
179.9999571957002
 51
270.00004280430022
  0
LINE
  5
31A2
  8
0
 10
49.699999999999982
 20
76.000000000000014
 30
0.0
 11
40.499999999999993
 21
76.000000000000014
 31
0.0
  0
LINE
  5
31A3
  8
0
 10
49.933436
 20
76.179846000000012
 30
0.0
 11
49.699999999999982
 21
76.000000000000014
 31
0.0
  0
ARC
  5
31A4
  8
0
 10
50.0
 20
76.080000143600003
 30
0.0
 40
0.1199998380854071
 50
56.30989444720025
 51
123.69010555279969
  0
LINE
  5
31A5
  8
0
 10
50.299999999999997
 20
76.000000000000014
 30
0.0
 11
50.066564
 21
76.179846000000012
 31
0.0
  0
LINE
  5
31A6
  8
0
 10
55.244255999999993
 20
76.000000000000014
 30
0.0
 11
50.299999999999997
 21
76.000000000000014
 31
0.0
  0
ARC
  5
31A7
  8
0
 10
55.244256186299992
 20
78.00000216360003
 30
0.0
 40
2.0000021636009691
 50
269.99999466430057
 51
287.34142461299882
  0
ARC
  5
31A8
  8
0
 10
55.899999965199989
 20
75.899999965199996
 30
0.0
 40
0.1999999129645364
 50
342.6585831104
 51
107.3414168896005
  0
ARC
  5
31A9
  8
0
 10
58.000002163600001
 20
75.244256186200019
 30
0.0
 40
2.0000021636008771
 50
162.6585753869997
 51
180.00000533570019
  0
LINE
  5
31AA
  8
0
 10
56.0
 20
70.300000000000026
 30
0.0
 11
56.0
 21
75.244256000000021
 31
0.0
  0
LINE
  5
31AB
  8
0
 10
56.179845999999991
 20
70.066563999999985
 30
0.0
 11
56.0
 21
70.300000000000026
 31
0.0
  0
ARC
  5
31AC
  8
0
 10
56.080000143600003
 20
70.000000000000014
 30
0.0
 40
0.1199998380852573
 50
326.3098944471995
 51
33.690105552800432
  0
LINE
  5
31AD
  8
0
 10
56.0
 20
69.700000000000003
 30
0.0
 11
56.179845999999991
 21
69.933435999999986
 31
0.0
  0
LINE
  5
31AE
  8
0
 10
56.0
 20
60.300000000000018
 30
0.0
 11
56.0
 21
69.700000000000003
 31
0.0
  0
LINE
  5
31AF
  8
0
 10
56.179845999999991
 20
60.066563999999978
 30
0.0
 11
56.0
 21
60.300000000000018
 31
0.0
  0
ARC
  5
31B0
  8
0
 10
56.080000143600003
 20
60.000000000000007
 30
0.0
 40
0.1199998380852652
 50
326.3098944471995
 51
33.690105552800432
  0
LINE
  5
31B1
  8
0
 10
56.0
 20
59.700000000000003
 30
0.0
 11
56.179845999999991
 21
59.933435999999993
 31
0.0
  0
LINE
  5
31B2
  8
0
 10
56.0
 20
50.300000000000011
 30
0.0
 11
56.0
 21
59.700000000000003
 31
0.0
  0
LINE
  5
31B3
  8
0
 10
56.179845999999991
 20
50.066564
 30
0.0
 11
56.0
 21
50.300000000000011
 31
0.0
  0
ARC
  5
31B4
  8
0
 10
56.080000143600003
 20
50.0
 30
0.0
 40
0.1199998380852691
 50
326.3098944471995
 51
33.690105552800432
  0
LINE
  5
31B5
  8
0
 10
56.0
 20
49.700000000000003
 30
0.0
 11
56.179845999999991
 21
49.933436
 31
0.0
  0
LINE
  5
31B6
  8
0
 10
56.0
 20
40.499999999999993
 30
0.0
 11
56.0
 21
49.700000000000003
 31
0.0
  0
ARC
  5
31B7
  8
0
 10
56.499999626499992
 20
40.499999626400019
 30
0.0
 40
0.4999996264625512
 50
179.9999571957002
 51
270.00004280430022
  0
LINE
  5
31B8
  8
0
 10
58.0
 20
40.0
 30
0.0
 11
56.5
 21
40.0
 31
0.0
  0
ARC
  5
31B9
  8
0
 10
58.000001494199992
 20
41.999998505800008
 30
0.0
 40
1.999998505850189
 50
269.99995719569978
 51
0.0000428043002079
  0
LINE
  5
31F8
  8
0
 10
85.0
 20
40.0
 30
0.0
 11
97.0
 21
40.0
 31
0.0
  0
CIRCLE
  5
31FE
  8
0
 10
91.0
 20
65.500000000000014
 30
0.0
 40
2.75
  0
CIRCLE
  5
31FF
  8
0
 10
91.0
 20
45.499999999999993
 30
0.0
 40
2.75
  0
LINE
  5
323C
  8
2
 10
56.0
 20
68.249999999999986
 30
0.0
 11
60.0
 21
68.250000000000014
 31
0.0
  0
LINE
  5
323D
  8
2
 10
56.0
 20
62.750000000000021
 30
0.0
 11
60.0
 21
62.750000000000021
 31
0.0
  0
LINE
  5
323E
  8
2
 10
56.0
 20
48.25
 30
0.0
 11
60.000000000000007
 21
48.249999999999993
 31
0.0
  0
LINE
  5
323F
  8
2
 10
56.0
 20
42.749999999999979
 30
0.0
 11
60.0
 21
42.75
 31
0.0
  0
LINE
  5
3255
  8
1
 10
91.0
 20
83.999999999999986
 30
0.0
 11
91.0
 21
36.000000000000007
 31
0.0
  0
LINE
  5
3256
  8
1
 10
85.750000000000014
 20
65.500000000000014
 30
0.0
 11
96.25
 21
65.500000000000014
 31
0.0
  0
LINE
  5
3257
  8
1
 10
85.750000000000014
 20
45.499999999999993
 30
0.0
 11
96.25
 21
45.499999999999993
 31
0.0
  0
LINE
  5
325A
  8
1
 10
53.500000000000007
 20
65.500000000000014
 30
0.0
 11
62.5
 21
65.500000000000014
 31
0.0
  0
LINE
  5
325B
  8
1
 10
53.500000000000007
 20
45.499999999999993
 30
0.0
 11
62.5
 21
45.499999999999979
 31
0.0
  0
LINE
  5
32A4
  8
1
 10
36.0
 20
111.0
 30
0.0
 11
64.0
 21
111.0
 31
0.0
  0
LINE
  5
3B59
  8
0
 10
40.0
 20
105.0
 30
0.0
 11
60.0
 21
105.0
 31
0.0
  0
LINE
  5
3B5A
  8
0
 10
60.0
 20
105.0
 30
0.0
 11
60.0
 21
117.0
 31
0.0
  0
LINE
  5
3B5B
  8
0
 10
60.0
 20
117.0
 30
0.0
 11
40.0
 21
117.0
 31
0.0
  0
LINE
  5
3B5C
  8
0
 10
40.0
 20
117.0
 30
0.0
 11
40.0
 21
105.0
 31
0.0
  0
LINE
  5
3B5D
  8
0
 10
85.0
 20
40.0
 30
0.0
 11
97.0
 21
40.0
 31
0.0
  0
LINE
  5
3B5E
  8
0
 10
97.0
 20
40.0
 30
0.0
 11
97.0
 21
80.000000000000014
 31
0.0
  0
LINE
  5
3B5F
  8
0
 10
97.0
 20
80.000000000000014
 30
0.0
 11
85.0
 21
80.000000000000014
 31
0.0
  0
LINE
  5
3B60
  8
0
 10
85.0
 20
80.000000000000014
 30
0.0
 11
85.0
 21
40.0
 31
0.0
  0
LINE
  5
44E4
  8
0
 10
187.0
 20
78.000000000000028
 30
0.0
 11
187.0
 21
40.500000000000007
 31
0.0
  0
ARC
  5
44E5
  8
0
 10
185.00000149420001
 20
78.000001494100019
 30
0.0
 40
1.9999985058502039
 50
359.99995719570018
 51
90.000042804298573
  0
LINE
  5
44E6
  8
0
 10
169.0
 20
80.000000000000028
 30
0.0
 11
185.0
 21
80.000000000000028
 31
0.0
  0
ARC
  5
44E7
  8
0
 10
168.99999850590009
 20
78.000001494100019
 30
0.0
 40
1.999998505850175
 50
89.999957195698144
 51
180.00004280430019
  0
LINE
  5
44E8
  8
0
 10
167.0
 20
76.500000000000028
 30
0.0
 11
167.0
 21
78.000000000000028
 31
0.0
  0
ARC
  5
44E9
  8
0
 10
167.4999996265
 20
76.49999962640004
 30
0.0
 40
0.4999996264625512
 50
179.9999571957002
 51
270.00004280429857
  0
LINE
  5
44EA
  8
0
 10
176.7000000000001
 20
76.000000000000028
 30
0.0
 11
167.5
 21
76.000000000000028
 31
0.0
  0
LINE
  5
44EB
  8
0
 10
176.93343600000011
 20
76.179846000000026
 30
0.0
 11
176.7000000000001
 21
76.000000000000028
 31
0.0
  0
ARC
  5
44EC
  8
0
 10
177.0
 20
76.080000143600003
 30
0.0
 40
0.1199998380854071
 50
56.309894447200293
 51
123.69010555279969
  0
LINE
  5
44ED
  8
0
 10
177.30000000000001
 20
76.000000000000028
 30
0.0
 11
177.066564
 21
76.179846000000026
 31
0.0
  0
LINE
  5
44EE
  8
0
 10
182.24425600000001
 20
76.000000000000028
 30
0.0
 11
177.30000000000001
 21
76.000000000000028
 31
0.0
  0
ARC
  5
44EF
  8
0
 10
182.24425618629999
 20
78.000002163600044
 30
0.0
 40
2.0000021636009691
 50
269.99999466429898
 51
287.34142461299882
  0
ARC
  5
44F0
  8
0
 10
182.89999996520001
 20
75.89999996520001
 30
0.0
 40
0.1999999129645364
 50
342.65858311039921
 51
107.3414168895988
  0
ARC
  5
44F1
  8
0
 10
185.0000021636001
 20
75.244256186200033
 30
0.0
 40
2.0000021636008771
 50
162.65857538700001
 51
180.00000533570019
  0
LINE
  5
44F2
  8
0
 10
183.0
 20
70.30000000000004
 30
0.0
 11
183.0
 21
75.244256000000036
 31
0.0
  0
LINE
  5
44F3
  8
0
 10
183.179846
 20
70.066564
 30
0.0
 11
183.0
 21
70.30000000000004
 31
0.0
  0
ARC
  5
44F4
  8
0
 10
183.0800001436001
 20
70.000000000000028
 30
0.0
 40
0.1199998380852573
 50
326.3098944471995
 51
33.690105552800361
  0
LINE
  5
44F5
  8
0
 10
183.0
 20
69.700000000000017
 30
0.0
 11
183.179846
 21
69.933436
 31
0.0
  0
LINE
  5
44F6
  8
0
 10
183.0
 20
60.30000000000004
 30
0.0
 11
183.0
 21
69.700000000000017
 31
0.0
  0
LINE
  5
44F7
  8
0
 10
183.179846
 20
60.066564
 30
0.0
 11
183.0
 21
60.30000000000004
 31
0.0
  0
ARC
  5
44F8
  8
0
 10
183.0800001436001
 20
60.000000000000028
 30
0.0
 40
0.1199998380852652
 50
326.3098944471995
 51
33.690105552800361
  0
LINE
  5
44F9
  8
0
 10
183.0
 20
59.700000000000017
 30
0.0
 11
183.179846
 21
59.933436
 31
0.0
  0
LINE
  5
44FA
  8
0
 10
183.0
 20
50.300000000000018
 30
0.0
 11
183.0
 21
59.700000000000017
 31
0.0
  0
LINE
  5
44FB
  8
0
 10
183.179846
 20
50.066564
 30
0.0
 11
183.0
 21
50.300000000000018
 31
0.0
  0
ARC
  5
44FC
  8
0
 10
183.0800001436001
 20
50.0
 30
0.0
 40
0.1199998380852691
 50
326.3098944471995
 51
33.690105552800361
  0
LINE
  5
44FD
  8
0
 10
183.0
 20
49.70000000000001
 30
0.0
 11
183.179846
 21
49.933436000000007
 31
0.0
  0
LINE
  5
44FE
  8
0
 10
183.0
 20
40.500000000000007
 30
0.0
 11
183.0
 21
49.70000000000001
 31
0.0
  0
ARC
  5
44FF
  8
0
 10
183.4999996265
 20
40.499999626400033
 30
0.0
 40
0.4999996264625512
 50
179.9999571957002
 51
270.00004280429857
  0
LINE
  5
4500
  8
0
 10
185.0
 20
40.000000000000007
 30
0.0
 11
183.5
 21
40.000000000000007
 31
0.0
  0
ARC
  5
4501
  8
0
 10
185.00000149420001
 20
41.999998505800022
 30
0.0
 40
1.999998505850189
 50
269.99995719569819
 51
0.0000428043002079
  0
LINE
  5
4502
  8
0
 10
212.0
 20
40.000000000000007
 30
0.0
 11
224.00000000000011
 21
40.000000000000007
 31
0.0
  0
LINE
  5
4509
  8
1
 10
218.00000000000011
 20
84.0
 30
0.0
 11
218.00000000000011
 21
36.000000000000028
 31
0.0
  0
LINE
  5
450A
  8
1
 10
209.5
 20
65.500000000000028
 30
0.0
 11
228.00000000000011
 21
65.500000000000043
 31
0.0
  0
LINE
  5
450D
  8
1
 10
173.40000018180021
 20
45.500000000000007
 30
0.0
 11
195.50000000000011
 21
45.499999999999979
 31
0.0
  0
LINE
  5
450E
  8
0
 10
212.0
 20
40.000000000000007
 30
0.0
 11
224.00000000000011
 21
40.000000000000007
 31
0.0
  0
LINE
  5
450F
  8
0
 10
224.00000000000011
 20
40.000000000000007
 30
0.0
 11
224.00000000000011
 21
80.000000000000028
 31
0.0
  0
LINE
  5
4510
  8
0
 10
224.00000000000011
 20
80.000000000000028
 30
0.0
 11
212.0
 21
80.000000000000028
 31
0.0
  0
LINE
  5
4511
  8
0
 10
212.0
 20
80.000000000000028
 30
0.0
 11
212.0
 21
40.000000000000007
 31
0.0
  0
LINE
  5
4512
  8
0
 10
167.0
 20
105.0
 30
0.0
 11
187.0
 21
105.0
 31
0.0
  0
LINE
  5
4513
  8
0
 10
187.0
 20
105.0
 30
0.0
 11
187.0
 21
117.0
 31
0.0
  0
LINE
  5
4514
  8
0
 10
187.0
 20
117.0
 30
0.0
 11
167.0
 21
117.0
 31
0.0
  0
LINE
  5
4515
  8
0
 10
167.0
 20
117.0
 30
0.0
 11
167.0
 21
105.0
 31
0.0
  0
LINE
  5
45AD
  8
0
 10
187.0
 20
60.500000000000028
 30
0.0
 11
188.0
 21
60.500000000000028
 31
0.0
  0
LINE
  5
45AE
  8
0
 10
187.0
 20
70.500000000000028
 30
0.0
 11
188.0
 21
70.500000000000028
 31
0.0
  0
LINE
  5
45AF
  8
0
 10
188.0
 20
70.500000000000028
 30
0.0
 11
188.0
 21
60.500000000000028
 31
0.0
  0
LINE
  5
45B1
  8
0
 10
187.0
 20
40.500000000000007
 30
0.0
 11
188.0
 21
40.500000000000007
 31
0.0
  0
LINE
  5
45B2
  8
0
 10
187.0
 20
50.5
 30
0.0
 11
188.0
 21
50.5
 31
0.0
  0
LINE
  5
45B3
  8
0
 10
188.0
 20
50.5
 30
0.0
 11
188.0
 21
40.500000000000007
 31
0.0
  0
LINE
  5
45B5
  8
0
 10
187.0
 20
106.0
 30
0.0
 11
188.0
 21
106.0
 31
0.0
  0
LINE
  5
45B6
  8
0
 10
187.0
 20
116.0
 30
0.0
 11
188.0
 21
116.0
 31
0.0
  0
LINE
  5
45B7
  8
0
 10
188.0
 20
116.0
 30
0.0
 11
188.0
 21
106.0
 31
0.0
  0
CIRCLE
  5
45B8
  8
0
 10
218.00000000000011
 20
45.500000000000007
 30
0.0
 40
5.0
  0
CIRCLE
  5
45BA
  8
0
 10
218.00000000000011
 20
65.500000000000028
 30
0.0
 40
5.0
  0
LINE
  5
45C8
  8
0
 10
192.7000000000001
 20
115.25
 30
0.0
 11
193.0
 21
114.7303847577294
 31
0.0
  0
LINE
  5
45C9
  8
0
 10
192.69999999999999
 20
106.75
 30
0.0
 11
193.0
 21
107.2696152422707
 31
0.0
  0
LINE
  5
45CA
  8
0
 10
192.69999999999999
 20
115.25
 30
0.0
 11
192.69999999999999
 21
106.75
 31
0.0
  0
LINE
  5
45CB
  8
0
 10
193.0
 20
114.7303847577294
 30
0.0
 11
193.0
 21
107.2696152422707
 31
0.0
  0
LINE
  5
45CC
  8
0
 10
188.0
 20
115.25
 30
0.0
 11
192.69999999999999
 21
115.25
 31
0.0
  0
LINE
  5
45CE
  8
0
 10
192.69999999999999
 20
106.75
 30
0.0
 11
188.0
 21
106.75
 31
0.0
  0
LINE
  5
45D6
  8
0
 10
183.0
 20
63.000000000000043
 30
0.0
 11
181.00000018180009
 21
63.000000018649999
 31
0.0
  0
LINE
  5
45D7
  8
3
 10
183.0
 20
63.432999999999844
 30
0.0
 11
181.14786278013349
 21
63.432999999999851
 31
0.0
  0
LINE
  5
45D8
  8
3
 10
183.0
 20
67.567000000000235
 30
0.0
 11
181.1478627722534
 21
67.567000000000249
 31
0.0
  0
LINE
  5
45D9
  8
0
 10
183.0
 20
68.000000000000057
 30
0.0
 11
180.999913810745
 21
68.000000000000057
 31
0.0
  0
LINE
  5
45DA
  8
0
 10
192.7000000000001
 20
69.750000000000014
 30
0.0
 11
193.0
 21
69.230384757729411
 31
0.0
  0
LINE
  5
45DB
  8
0
 10
192.7000000000001
 20
61.250000000000028
 30
0.0
 11
193.0
 21
61.76961524227071
 31
0.0
  0
LINE
  5
45DC
  8
0
 10
192.7000000000001
 20
69.750000000000028
 30
0.0
 11
192.7000000000001
 21
61.250000000000007
 31
0.0
  0
LINE
  5
45DD
  8
0
 10
193.0
 20
69.230384757729411
 30
0.0
 11
193.0
 21
61.76961524227071
 31
0.0
  0
LINE
  5
45DE
  8
0
 10
188.0
 20
69.750000000000028
 30
0.0
 11
192.7000000000001
 21
69.750000000000028
 31
0.0
  0
LINE
  5
45E0
  8
0
 10
192.7000000000001
 20
61.250000000000007
 30
0.0
 11
188.0
 21
61.250000000000028
 31
0.0
  0
LINE
  5
45E8
  8
0
 10
183.0
 20
43.000000000000007
 30
0.0
 11
180.9995686035671
 21
43.000000000000007
 31
0.0
  0
LINE
  5
45E9
  8
3
 10
183.0
 20
43.432999999999801
 30
0.0
 11
181.14786267781921
 21
43.432999999999808
 31
0.0
  0
LINE
  5
45EA
  8
3
 10
183.0
 20
47.567000000000199
 30
0.0
 11
181.14786287456781
 21
47.567000000000213
 31
0.0
  0
LINE
  5
45EB
  8
0
 10
183.0
 20
48.000000000000007
 30
0.0
 11
181.00000018180009
 21
47.999999534349989
 31
0.0
  0
LINE
  5
45EC
  8
0
 10
192.7000000000001
 20
49.749999999999972
 30
0.0
 11
193.0
 21
49.230384757729368
 31
0.0
  0
LINE
  5
45ED
  8
0
 10
192.7000000000001
 20
41.25
 30
0.0
 11
193.0
 21
41.769615242270667
 31
0.0
  0
LINE
  5
45EE
  8
0
 10
192.7000000000001
 20
49.749999999999993
 30
0.0
 11
192.7000000000001
 21
41.249999999999993
 31
0.0
  0
LINE
  5
45EF
  8
0
 10
193.0
 20
49.230384757729368
 30
0.0
 11
193.0
 21
41.769615242270667
 31
0.0
  0
LINE
  5
45F0
  8
0
 10
188.0
 20
49.749999999999993
 30
0.0
 11
192.7000000000001
 21
49.749999999999993
 31
0.0
  0
LINE
  5
45F2
  8
0
 10
192.7000000000001
 20
41.249999999999993
 30
0.0
 11
188.0
 21
41.25
 31
0.0
  0
LINE
  5
45FF
  8
0
 10
216.00000000000031
 20
64.345299461620954
 30
0.0
 11
218.00000000000031
 21
63.190598923241652
 31
0.0
  0
LINE
  5
4600
  8
0
 10
218.00000000000031
 20
63.190598923241652
 30
0.0
 11
220.00000000000011
 21
64.345299461620954
 31
0.0
  0
LINE
  5
4601
  8
0
 10
220.00000000000011
 20
64.345299461620954
 30
0.0
 11
220.00000000000011
 21
66.654700538379785
 31
0.0
  0
LINE
  5
4602
  8
0
 10
220.00000000000011
 20
66.654700538379785
 30
0.0
 11
218.00000000000011
 21
67.809401076758633
 31
0.0
  0
LINE
  5
4603
  8
0
 10
218.00000000000011
 20
67.809401076758633
 30
0.0
 11
215.9999999999998
 21
66.654700538379103
 31
0.0
  0
LINE
  5
4604
  8
0
 10
215.9999999999998
 20
66.654700538379103
 30
0.0
 11
216.00000000000031
 21
64.345299461620954
 31
0.0
  0
CIRCLE
  5
4605
  8
0
 10
218.00000000000011
 20
65.500000000000028
 30
0.0
 40
4.25
  0
LINE
  5
4607
  8
0
 10
216.00000000000031
 20
44.345299461620932
 30
0.0
 11
218.00000000000031
 21
43.190598923241637
 31
0.0
  0
LINE
  5
4608
  8
0
 10
218.00000000000031
 20
43.190598923241637
 30
0.0
 11
220.00000000000011
 21
44.345299461620932
 31
0.0
  0
LINE
  5
4609
  8
0
 10
220.00000000000011
 20
44.345299461620932
 30
0.0
 11
220.00000000000011
 21
46.654700538379771
 31
0.0
  0
LINE
  5
460A
  8
0
 10
220.00000000000011
 20
46.654700538379771
 30
0.0
 11
218.00000000000011
 21
47.809401076758618
 31
0.0
  0
LINE
  5
460B
  8
0
 10
218.00000000000011
 20
47.809401076758618
 30
0.0
 11
215.9999999999998
 21
46.654700538379089
 31
0.0
  0
LINE
  5
460C
  8
0
 10
215.9999999999998
 20
46.654700538379089
 30
0.0
 11
216.00000000000031
 21
44.345299461620932
 31
0.0
  0
CIRCLE
  5
460D
  8
0
 10
218.00000000000011
 20
45.500000000000007
 30
0.0
 40
4.25
  0
ARC
  5
4618
  8
0
 10
177.15000018180021
 20
45.499999534349989
 30
0.0
 40
1.25
 50
95.430263075089343
 51
264.56973692491073
  0
ARC
  5
461E
  8
0
 10
180.90000018180021
 20
42.799999534349951
 30
0.0
 40
0.2
 50
90.0
 51
180.0
  0
LINE
  5
461F
  8
0
 10
181.00000018180009
 20
42.999999534349989
 30
0.0
 11
180.90000018180021
 21
42.999999534349989
 31
0.0
  0
ARC
  5
4620
  8
0
 10
181.00000018180009
 20
43.199999534350027
 30
0.0
 40
0.2
 50
270.0
 51
0.0
  0
ARC
  5
4621
  8
0
 10
181.00000018180009
 20
47.799999534349951
 30
0.0
 40
0.2
 50
0.0
 51
90.0
  0
ARC
  5
4622
  8
0
 10
180.90000018180021
 20
48.199999534350042
 30
0.0
 40
0.2
 50
180.0
 51
270.0
  0
LINE
  5
4623
  8
0
 10
181.00000018180009
 20
47.999999534349989
 30
0.0
 11
180.90000018180021
 21
47.999999534349989
 31
0.0
  0
ARC
  5
4624
  8
0
 10
190.9319064698816
 20
45.499999534349989
 30
0.0
 40
10.0
 50
166.70292825279009
 51
193.29707174720929
  0
LINE
  5
4625
  8
0
 10
180.70000018180011
 20
41.799999534349951
 30
0.0
 11
180.70000018180011
 21
42.799999534349951
 31
0.0
  0
ARC
  5
4626
  8
0
 10
179.20000018180011
 20
45.499999534349989
 30
0.0
 40
2.5
 50
145.51304436426349
 51
214.48695563573639
  0
ARC
  5
4627
  8
0
 10
183.82612428630881
 20
49.083288047907359
 30
0.0
 40
8.3487206285518791
 50
216.78075546590469
 51
244.8775777152122
  0
ARC
  5
4628
  8
0
 10
180.40000018180001
 20
41.799999534349951
 30
0.0
 40
0.3
 50
246.76379688520001
 51
0.0
  0
LINE
  5
463B
  8
0
 10
180.70000018180011
 20
49.199999534350042
 30
0.0
 11
180.70000018180011
 21
48.199999534350042
 31
0.0
  0
ARC
  5
463C
  8
0
 10
183.82612428630881
 20
41.916711020792633
 30
0.0
 40
8.3487206285518791
 50
115.122422284786
 51
143.2192445340952
  0
ARC
  5
463D
  8
0
 10
180.40000018180021
 20
49.199999534350042
 30
0.0
 40
0.3
 50
0.0
 51
113.23620311479991
  0
LINE
  5
4640
  8
0
 10
223.99999999999989
 20
67.799999999999713
 30
0.0
 11
225.50000000000011
 21
67.799999999999713
 31
0.0
  0
LINE
  5
4641
  8
0
 10
224.00000000000011
 20
67.999999999999986
 30
0.0
 11
225.50000000000011
 21
67.999999999999986
 31
0.0
  0
LINE
  5
4643
  8
0
 10
224.0
 20
63.200000000000543
 30
0.0
 11
225.50000000000011
 21
63.200000000000543
 31
0.0
  0
LINE
  5
4644
  8
0
 10
224.00000000000011
 20
63.000000000000007
 30
0.0
 11
225.50000000000011
 21
63.000000000000007
 31
0.0
  0
ARC
  5
4645
  8
0
 10
177.15000018180021
 20
65.500000018649999
 30
0.0
 40
1.25
 50
95.430263075089343
 51
264.56973692491073
  0
LINE
  5
4646
  8
0
 10
180.70000018180019
 20
118.5
 30
0.0
 11
180.70000018180019
 21
117.0
 31
0.0
  0
LINE
  5
4647
  8
0
 10
176.70000018180019
 20
118.5
 30
0.0
 11
181.20000018180019
 21
118.5
 31
0.0
  0
LINE
  5
4649
  8
0
 10
180.70000018180019
 20
118.5
 30
0.0
 11
180.70000018180019
 21
117.0
 31
0.0
  0
LINE
  5
464A
  8
0
 10
181.20000018180019
 20
118.5
 30
0.0
 11
181.20000018180019
 21
117.0
 31
0.0
  0
ARC
  5
464B
  8
0
 10
180.90000018180021
 20
62.800000018650067
 30
0.0
 40
0.2
 50
90.0
 51
180.0
  0
LINE
  5
464C
  8
0
 10
181.00000018180009
 20
63.000000018649999
 30
0.0
 11
180.90000018180021
 21
63.000000018649999
 31
0.0
  0
ARC
  5
464D
  8
0
 10
181.00000018180009
 20
63.200000018650037
 30
0.0
 40
0.2
 50
270.0
 51
0.0
  0
ARC
  5
464E
  8
0
 10
181.00000018180009
 20
67.800000018649953
 30
0.0
 40
0.2
 50
0.0
 51
90.0
  0
ARC
  5
464F
  8
0
 10
180.90000018180021
 20
68.200000018650044
 30
0.0
 40
0.2
 50
180.0
 51
270.0
  0
LINE
  5
4650
  8
0
 10
181.00000018180009
 20
68.000000018649999
 30
0.0
 11
180.90000018180021
 21
68.000000018649999
 31
0.0
  0
ARC
  5
4651
  8
0
 10
190.9319064698816
 20
65.500000018649999
 30
0.0
 40
10.0
 50
166.70292825279009
 51
193.29707174720929
  0
LINE
  5
4652
  8
0
 10
180.70000018180011
 20
61.800000018650067
 30
0.0
 11
180.70000018180011
 21
62.800000018649953
 31
0.0
  0
ARC
  5
4653
  8
0
 10
179.20000018180011
 20
65.500000018649999
 30
0.0
 40
2.5
 50
145.51304436426349
 51
214.48695563573639
  0
ARC
  5
4654
  8
0
 10
183.82612428630881
 20
69.083288532207362
 30
0.0
 40
8.3487206285518791
 50
216.78075546590469
 51
244.87757771521581
  0
ARC
  5
4655
  8
0
 10
180.40000018180021
 20
61.800000018650067
 30
0.0
 40
0.3
 50
246.76379688520001
 51
0.0
  0
LINE
  5
465A
  8
0
 10
225.50000000000011
 20
61.499999999999979
 30
0.0
 11
225.50000000000011
 21
69.5
 31
0.0
  0
LINE
  5
465B
  8
0
 10
225.50000000000011
 20
61.499999999999979
 30
0.0
 11
224.00000000000011
 21
61.499999999999979
 31
0.0
  0
LINE
  5
465C
  8
0
 10
225.50000000000011
 20
69.5
 30
0.0
 11
224.00000000000011
 21
69.5
 31
0.0
  0
ARC
  5
4660
  8
0
 10
177.15000018180021
 20
115.9999999999999
 30
0.0
 40
1.25
 50
104.9177960501225
 51
126.86989764584121
  0
ARC
  5
4661
  8
0
 10
174.6393623834729
 20
116.0
 30
0.0
 40
2.499999999999666
 50
23.578178478205039
 51
34.486955635739548
  0
LINE
  5
4665
  8
0
 10
176.70000018180019
 20
118.5
 30
0.0
 11
176.70000018180019
 21
117.4155464895592
 31
0.0
  0
LINE
  5
4666
  8
1
 10
197.0
 20
111.0
 30
0.0
 11
163.0
 21
111.0
 31
0.0
  0
LINE
  5
4668
  8
0
 10
180.70000018180011
 20
69.200000018650044
 30
0.0
 11
180.70000018180011
 21
68.200000018650044
 31
0.0
  0
ARC
  5
4669
  8
0
 10
183.82612428630881
 20
61.916711505092749
 30
0.0
 40
8.3487206285518791
 50
115.12242228478419
 51
143.2192445340952
  0
ARC
  5
466A
  8
0
 10
180.40000018180021
 20
69.200000018650044
 30
0.0
 40
0.3
 50
0.0
 51
113.23620311479991
  0
LINE
  5
49A2
  8
0
 10
223.99999999999989
 20
47.799999999999699
 30
0.0
 11
225.50000000000011
 21
47.799999999999699
 31
0.0
  0
LINE
  5
49A3
  8
0
 10
224.00000000000011
 20
47.999999999999972
 30
0.0
 11
225.50000000000011
 21
47.999999999999979
 31
0.0
  0
LINE
  5
49A5
  8
0
 10
224.0
 20
43.200000000000543
 30
0.0
 11
225.50000000000011
 21
43.20000000000055
 31
0.0
  0
LINE
  5
49A6
  8
0
 10
224.00000000000011
 20
43.000000000000021
 30
0.0
 11
225.50000000000011
 21
43.000000000000021
 31
0.0
  0
LINE
  5
49A9
  8
0
 10
225.50000000000011
 20
41.499999999999993
 30
0.0
 11
225.50000000000011
 21
49.5
 31
0.0
  0
LINE
  5
49AA
  8
0
 10
225.50000000000011
 20
41.499999999999993
 30
0.0
 11
224.00000000000011
 21
41.499999999999993
 31
0.0
  0
LINE
  5
49AB
  8
0
 10
225.50000000000011
 20
49.5
 30
0.0
 11
224.00000000000011
 21
49.5
 31
0.0
  0
LINE
  5
49AC
  8
1
 10
228.00000000000011
 20
45.5
 30
0.0
 11
209.5
 21
45.500000000000028
 31
0.0
  0
LINE
  5
4A3C
  8
1
 10
195.50000000000011
 20
65.500000018649999
 30
0.0
 11
173.4000001818001
 21
65.500000018650255
 31
0.0
  0
ENDSEC
  0
EOF
