  0
SECTION
  2
HEADER
  9
$ACADVER
  1
AC1009
  9
$INSBASE
 10
0.0
 20
0.0
 30
0.0
  9
$EXTMIN
 10
0.0
 20
-2.960436562073669
 30
0.0
  9
$EXTMAX
 10
125.0029849753014
 20
71.985074125911282
 30
0.0
  9
$LIMMIN
 10
0.0
 20
0.0
  9
$LIMMAX
 10
375.0
 20
270.0
  9
$ORTHOMODE
 70
     1
  9
$REGENMODE
 70
     1
  9
$FILLMODE
 70
     1
  9
$QTEXTMODE
 70
     0
  9
$MIRRTEXT
 70
     0
  9
$DRAGMODE
 70
     2
  9
$LTSCALE
 40
5.0
  9
$OSMODE
 70
    37
  9
$ATTMODE
 70
     1
  9
$TEXTSIZE
 40
4.000000000000048
  9
$TRACEWID
 40
0.05
  9
$TEXTSTYLE
  7
STANDARD
  9
$CLAYER
  8
0
  9
$CELTYPE
  6
BYLAYER
  9
$CECOLOR
 62
   256
  9
$DIMSCALE
 40
1.0
  9
$DIMASZ
 40
3.0
  9
$DIMEXO
 40
2.0
  9
$DIMDLI
 40
0.38
  9
$DIMRND
 40
0.0
  9
$DIMDLE
 40
0.0
  9
$DIMEXE
 40
2.0
  9
$DIMTP
 40
0.0
  9
$DIMTM
 40
0.0
  9
$DIMTXT
 40
3.2000000000000002
  9
$DIMCEN
 40
0.0
  9
$DIMTSZ
 40
0.0
  9
$DIMTOL
 70
     0
  9
$DIMLIM
 70
     0
  9
$DIMTIH
 70
     0
  9
$DIMTOH
 70
     0
  9
$DIMSE1
 70
     0
  9
$DIMSE2
 70
     0
  9
$DIMTAD
 70
     1
  9
$DIMZIN
 70
     0
  9
$DIMBLK
  1

  9
$DIMASO
 70
     0
  9
$DIMSHO
 70
     0
  9
$DIMPOST
  1

  9
$DIMAPOST
  1

  9
$DIMALT
 70
     0
  9
$DIMALTD
 70
     2
  9
$DIMALTF
 40
25.399999999999999
  9
$DIMLFAC
 40
1.0
  9
$DIMTOFL
 70
     0
  9
$DIMTVP
 40
1.6000000000000001
  9
$DIMTIX
 70
     1
  9
$DIMSOXD
 70
     0
  9
$DIMSAH
 70
     0
  9
$DIMBLK1
  1

  9
$DIMBLK2
  1

  9
$DIMSTYLE
  2
STANDARD
  9
$DIMCLRD
 70
     4
  9
$DIMCLRE
 70
     4
  9
$DIMCLRT
 70
     4
  9
$DIMTFAC
 40
1.0
  9
$DIMGAP
 40
0.09
  9
$LUNITS
 70
     2
  9
$LUPREC
 70
     2
  9
$SKETCHINC
 40
0.1
  9
$FILLETRAD
 40
22.0
  9
$AUNITS
 70
     0
  9
$AUPREC
 70
     0
  9
$MENU
  1
E:\r13\win\SUPPORT\ACAD
  9
$ELEVATION
 40
0.0
  9
$PELEVATION
 40
0.0
  9
$THICKNESS
 40
0.0
  9
$LIMCHECK
 70
     0
  9
$BLIPMODE
 70
     0
  9
$CHAMFERA
 40
1.1999999999999991
  9
$CHAMFERB
 40
1.1999999999999991
  9
$SKPOLY
 70
     0
  9
$TDCREATE
 40
2449954.6020138888
  9
$TDUPDATE
 40
2458835.7072886568
  9
$TDINDWG
 40
0.4080375694
  9
$TDUSRTIMER
 40
0.4080375694
  9
$USRTIMER
 70
     1
  9
$ANGBASE
 50
0.0
  9
$ANGDIR
 70
     0
  9
$PDMODE
 70
     0
  9
$PDSIZE
 40
0.0
  9
$PLINEWID
 40
0.0
  9
$COORDS
 70
     1
  9
$SPLFRAME
 70
     0
  9
$SPLINETYPE
 70
     6
  9
$SPLINESEGS
 70
     8
  9
$ATTDIA
 70
     0
  9
$ATTREQ
 70
     1
  9
$HANDLING
 70
     1
  9
$HANDSEED
  5
35ED
  9
$SURFTAB1
 70
     6
  9
$SURFTAB2
 70
     6
  9
$SURFTYPE
 70
     6
  9
$SURFU
 70
     6
  9
$SURFV
 70
     6
  9
$UCSNAME
  2

  9
$UCSORG
 10
0.0
 20
0.0
 30
0.0
  9
$UCSXDIR
 10
1.0
 20
0.0
 30
0.0
  9
$UCSYDIR
 10
0.0
 20
1.0
 30
0.0
  9
$PUCSNAME
  2

  9
$PUCSORG
 10
0.0
 20
0.0
 30
0.0
  9
$PUCSXDIR
 10
1.0
 20
0.0
 30
0.0
  9
$PUCSYDIR
 10
0.0
 20
1.0
 30
0.0
  9
$USERI1
 70
     0
  9
$USERI2
 70
     1
  9
$USERI3
 70
     0
  9
$USERI4
 70
     0
  9
$USERI5
 70
     0
  9
$USERR1
 40
0.0
  9
$USERR2
 40
0.0
  9
$USERR3
 40
0.0
  9
$USERR4
 40
0.0
  9
$USERR5
 40
0.0
  9
$WORLDVIEW
 70
     1
  9
$SHADEDGE
 70
     3
  9
$SHADEDIF
 70
    70
  9
$TILEMODE
 70
     1
  9
$MAXACTVP
 70
    16
  9
$PLIMCHECK
 70
     0
  9
$PEXTMIN
 10
1.0000000000000000E+020
 20
1.0000000000000000E+020
 30
1.0000000000000000E+020
  9
$PEXTMAX
 10
-1.0000000000000000E+020
 20
-1.0000000000000000E+020
 30
-1.0000000000000000E+020
  9
$PLIMMIN
 10
0.0
 20
0.0
  9
$PLIMMAX
 10
12.0
 20
9.0
  9
$UNITMODE
 70
     0
  9
$VISRETAIN
 70
     0
  9
$PLINEGEN
 70
     0
  9
$PSLTSCALE
 70
     0
  0
ENDSEC
  0
SECTION
  2
TABLES
  0
TABLE
  2
VPORT
 70
     1
  0
VPORT
  2
*ACTIVE
 70
     0
 10
0.0
 20
0.0
 11
1.0
 21
1.0
 12
62.501908076230727
 22
39.027505071555012
 13
0.0
 23
0.0
 14
10.0
 24
10.0
 15
10.0
 25
10.0
 16
0.0
 26
0.0
 36
1.0
 17
0.0
 27
0.0
 37
0.0
 40
84.613847340426204
 41
2.3366214549938338
 42
50.0
 43
0.0
 44
0.0
 50
0.0
 51
0.0
 71
     0
 72
   500
 73
     1
 74
     0
 75
     0
 76
     0
 77
     0
 78
     2
  0
ENDTAB
  0
TABLE
  2
LTYPE
 70
     5
  0
LTYPE
  2
CONTINUOUS
 70
     0
  3
Solid Line
 72
    65
 73
     0
 40
0.0
  0
LTYPE
  2
CENTER
 70
     0
  3
____ _ ____ _ ____ _ ____ _ ____ _ ____ _ ____
 72
    65
 73
     4
 40
2.0
 49
1.25
 49
-0.25
 49
0.25
 49
-0.25
  0
LTYPE
  2
HIDDEN
 70
     0
  3
_ _ _ _ _ _ _ _ _ _ _ _ _ _ _ _ _ _ _ _ _ _ _
 72
    65
 73
     2
 40
0.375
 49
0.25
 49
-0.125
  0
LTYPE
  2
PHANTOM
 70
     0
  3
_____ _ _ _____ _ _ _____ _ _ _____ _ _ ____
 72
    65
 73
     6
 40
2.5
 49
1.25
 49
-0.25
 49
0.25
 49
-0.25
 49
0.25
 49
-0.25
  0
LTYPE
  2
PHANTOM2
 70
     0
  3
___ _ _ ___ _ _ ___ _ _ ___ _ _
 72
    65
 73
     6
 40
1.25
 49
0.625
 49
-0.125
 49
0.125
 49
-0.125
 49
0.125
 49
-0.125
  0
ENDTAB
  0
TABLE
  2
LAYER
 70
     5
  0
LAYER
  2
0
 70
     0
 62
     7
  6
CONTINUOUS
  0
LAYER
  2
1
 70
     0
 62
     1
  6
CENTER
  0
LAYER
  2
3
 70
     0
 62
     3
  6
CONTINUOUS
  0
LAYER
  2
2
 70
     0
 62
     2
  6
HIDDEN
  0
LAYER
  2
5
 70
     0
 62
     3
  6
PHANTOM
  0
ENDTAB
  0
TABLE
  2
STYLE
 70
     3
  0
STYLE
  2
STANDARD
 70
     0
 40
0.0
 41
1.0
 50
0.0
 71
     0
 42
4.000000000000048
  3
SIMPLEX
  4
BIGFONT
  0
STYLE
  2
SIM065
 70
     0
 40
0.0
 41
0.65
 50
0.0
 71
     0
 42
3.2000000000000002
  3
SIMPLEX
  4

  0
STYLE
  2
STANDARD1
 70
     0
 40
0.0
 41
1.0
 50
0.0
 71
     0
 42
3.0
  3
txt
  4

  0
ENDTAB
  0
TABLE
  2
VIEW
 70
     1
  0
VIEW
  2
ALL
 70
     0
 40
270.0
 10
220.78595317725751
 20
135.0
 41
441.57190635451502
 11
0.0
 21
0.0
 31
1.0
 12
0.0
 22
0.0
 32
0.0
 42
50.0
 43
0.0
 44
0.0
 50
0.0
 71
     0
  0
ENDTAB
  0
TABLE
  2
UCS
 70
     0
  0
ENDTAB
  0
TABLE
  2
APPID
 70
     4
  0
APPID
  2
ACAD
 70
     0
  0
APPID
  2
ACAD_EXEMPT_FROM_CAD_STANDARDS
 70
     0
  0
APPID
  2
ACAD_MLEADERVER
 70
     0
  0
APPID
  2
ACAD_NAV_VCDISPLAY
 70
     0
  0
ENDTAB
  0
TABLE
  2
DIMSTYLE
 70
     2
  0
DIMSTYLE
  2
STANDARD
 70
     0
  3

  4

  5

  6

  7

 40
1.0
 41
0.18
 42
0.0625
 43
0.38
 44
0.18
 45
0.0
 46
0.0
 47
0.0
 48
0.0
140
0.18
141
0.09
142
0.0
143
25.399999999999999
144
1.0
145
0.0
146
1.0
147
0.09
 71
     0
 72
     0
 73
     1
 74
     1
 75
     0
 76
     0
 77
     0
 78
     0
170
     0
171
     2
172
     0
173
     0
174
     0
175
     0
176
     0
177
     0
178
     0
  0
DIMSTYLE
  2
ISO-25
 70
     0
  3

  4

  5

  6

  7

 40
1.0
 41
2.5
 42
0.625
 43
3.75
 44
1.25
 45
0.0
 46
0.0
 47
0.0
 48
0.0
140
2.5
141
2.5
142
0.0
143
0.0393700787
144
1.0
145
0.0
146
1.0
147
0.625
 71
     0
 72
     0
 73
     0
 74
     0
 75
     0
 76
     0
 77
     1
 78
     8
170
     0
171
     3
172
     1
173
     0
174
     0
175
     0
176
     0
177
     0
178
     0
  0
ENDTAB
  0
ENDSEC
  0
SECTION
  2
BLOCKS
  0
BLOCK
  8
0
  2
$MODEL_SPACE
 70
     0
 10
0.0
 20
0.0
 30
0.0
  3
$MODEL_SPACE
  1

  0
ENDBLK
  5
1126
  8
0
  0
BLOCK
 67
     1
  8
0
  2
$PAPER_SPACE
 70
     0
 10
0.0
 20
0.0
 30
0.0
  3
$PAPER_SPACE
  1

  0
ENDBLK
  5
1124
 67
     1
  8
0
  0
ENDSEC
  0
SECTION
  2
ENTITIES
  0
TEXT
  5
1F1A
  8
0
 62
     3
 10
0.0
 20
0.0
 30
0.0
 40
10.0
  1
MAU3222-SH06-26
  7
STANDARD1
  0
LINE
  5
310A
  8
0
 10
80.002984975301416
 20
32.285074125911237
 30
0.0
 11
80.002984975301445
 21
41.685074125911243
 31
0.0
  0
LINE
  5
310B
  8
0
 10
54.002984975301409
 20
41.685074125911278
 30
0.0
 11
54.002984975301402
 21
32.285074125911272
 31
0.0
  0
LINE
  5
310D
  8
0
 10
89.002984975301416
 20
38.985074125911268
 30
0.0
 11
89.002984975301416
 21
39.985074125911268
 31
0.0
  0
LINE
  5
310E
  8
0
 10
81.00298497530143
 20
38.985074125911268
 30
0.0
 11
89.002984975301416
 21
38.985074125911268
 31
0.0
  0
LINE
  5
310F
  8
0
 10
81.00298497530143
 20
38.985074125911268
 30
0.0
 11
81.00298497530143
 21
39.985074125911268
 31
0.0
  0
LINE
  5
3124
  8
0
 10
80.002984975301445
 20
62.285074125911272
 30
0.0
 11
80.002984975301445
 21
71.685074125911271
 31
0.0
  0
LINE
  5
3127
  8
0
 10
54.002984975301437
 20
71.685074125911285
 30
0.0
 11
54.002984975301409
 21
62.285074125911272
 31
0.0
  0
LINE
  5
312D
  8
2
 10
75.502984975301416
 20
69.985074125911225
 30
0.0
 11
75.502984975301416
 21
63.985074125911233
 31
0.0
  0
LINE
  5
312E
  8
2
 10
75.502984975301416
 20
69.985074125911225
 30
0.0
 11
77.235035782826415
 21
66.98507412591124
 31
0.0
  0
LINE
  5
312F
  8
2
 10
77.235035782826415
 20
66.98507412591124
 30
0.0
 11
75.502984975301416
 21
63.985074125911233
 31
0.0
  0
LINE
  5
3147
  8
1
 10
109.0029849753014
 20
36.985074125911261
 30
0.0
 11
125.0029849753014
 21
36.985074125911261
 31
0.0
  0
LINE
  5
3148
  8
1
 10
117.0029849753014
 20
44.985074125911261
 30
0.0
 11
117.0029849753014
 21
28.985074125911261
 31
0.0
  0
LINE
  5
3149
  8
1
 10
51.00298497530143
 20
66.985074125911254
 30
0.0
 11
95.002984975301445
 21
66.985074125911254
 31
0.0
  0
LINE
  5
314A
  8
1
 10
51.002984975301409
 20
36.985074125911268
 30
0.0
 11
95.002984975301445
 21
36.985074125911261
 31
0.0
  0
LINE
  5
314B
  8
1
 10
21.002984975301391
 20
36.985074125911268
 30
0.0
 11
37.002984975301388
 21
36.985074125911268
 31
0.0
  0
LINE
  5
314C
  8
1
 10
29.002984975301391
 20
44.985074125911261
 30
0.0
 11
29.002984975301391
 21
28.985074125911272
 31
0.0
  0
LINE
  5
3150
  8
3
 10
81.002984975301473
 20
69.220825436911241
 30
0.0
 11
89.002984975301416
 21
64.749322814811194
 31
0.0
  0
LINE
  5
3151
  8
3
 10
89.002984975301416
 20
69.220825436911241
 30
0.0
 11
81.002984975301445
 21
64.749322814811194
 31
0.0
  0
LINE
  5
3164
  8
2
 10
59.252984975301388
 20
39.985074125911247
 30
0.0
 11
59.252984975301388
 21
41.985074125911268
 31
0.0
  0
LINE
  5
3165
  8
2
 10
59.502984975301381
 20
39.985074125911247
 30
0.0
 11
59.502984975301388
 21
41.985074125911268
 31
0.0
  0
LINE
  5
3166
  8
2
 10
56.752984975301388
 20
39.98507412591124
 30
0.0
 11
56.752984975301388
 21
41.985074125911268
 31
0.0
  0
LINE
  5
3167
  8
2
 10
56.502984975301374
 20
39.98507412591124
 30
0.0
 11
56.502984975301381
 21
41.985074125911268
 31
0.0
  0
LINE
  5
316C
  8
2
 10
65.252984975301388
 20
39.985074125911247
 30
0.0
 11
65.252984975301388
 21
41.985074125911268
 31
0.0
  0
LINE
  5
316D
  8
2
 10
65.502984975301388
 20
39.985074125911247
 30
0.0
 11
65.502984975301402
 21
41.985074125911268
 31
0.0
  0
LINE
  5
316E
  8
2
 10
62.752984975301388
 20
39.985074125911247
 30
0.0
 11
62.752984975301402
 21
41.985074125911268
 31
0.0
  0
LINE
  5
316F
  8
2
 10
62.502984975301381
 20
39.985074125911247
 30
0.0
 11
62.502984975301388
 21
41.985074125911268
 31
0.0
  0
LINE
  5
3176
  8
1
 10
58.002984975301388
 20
44.985074125911261
 30
0.0
 11
58.002984975301388
 21
38.485074125911268
 31
0.0
  0
LINE
  5
3177
  8
1
 10
64.002984975301388
 20
44.985074125911261
 30
0.0
 11
64.002984975301388
 21
38.485074125911268
 31
0.0
  0
LINE
  5
33CA
  8
2
 10
54.002984975301388
 20
69.985074125911225
 30
0.0
 11
75.502984975301416
 21
69.985074125911254
 31
0.0
  0
LINE
  5
33CB
  8
2
 10
75.502984975301416
 20
63.985074125911261
 30
0.0
 11
54.002984975301388
 21
63.985074125911261
 31
0.0
  0
CIRCLE
  5
33CC
  8
3
 10
58.002984975301388
 20
66.985074125911254
 30
0.0
 40
1.5
  0
CIRCLE
  5
33CD
  8
0
 10
58.002984975301388
 20
66.985074125911254
 30
0.0
 40
1.25
  0
LINE
  5
33D5
  8
1
 10
58.002984975301388
 20
71.485074125911254
 30
0.0
 11
58.002984975301388
 21
62.485074125911268
 31
0.0
  0
LINE
  5
33D6
  8
1
 10
64.002984975301388
 20
71.485074125911254
 30
0.0
 11
64.002984975301388
 21
62.485074125911268
 31
0.0
  0
CIRCLE
  5
33D7
  8
3
 10
64.002984975301388
 20
66.985074125911254
 30
0.0
 40
1.5
  0
CIRCLE
  5
33D8
  8
0
 10
64.002984975301388
 20
66.985074125911254
 30
0.0
 40
1.25
  0
CIRCLE
  5
33D9
  8
0
 10
29.002984975301391
 20
36.985074125911268
 30
0.0
 40
5.0
  0
CIRCLE
  5
33DA
  8
0
 10
29.002984975301391
 20
36.985074125911268
 30
0.0
 40
3.0
  0
CIRCLE
  5
33DB
  8
0
 10
117.0029849753014
 20
36.985074125911268
 30
0.0
 40
5.0
  0
CIRCLE
  5
33DC
  8
0
 10
117.0029849753014
 20
36.985074125911268
 30
0.0
 40
3.0
  0
LINE
  5
33DD
  8
2
 10
114.7669169978016
 20
38.985074125911261
 30
0.0
 11
119.2390529528012
 21
38.985074125911268
 31
0.0
  0
LINE
  5
33EC
  8
0
 10
81.002984975301473
 20
69.220825436911241
 30
0.0
 11
89.002984975301416
 21
69.220825436911241
 31
0.0
  0
LINE
  5
33ED
  8
0
 10
81.002984975301445
 20
64.749322814811194
 30
0.0
 11
89.002984975301416
 21
64.749322814811194
 31
0.0
  0
LINE
  5
33EE
  8
0
 10
89.002984975301445
 20
64.749322814811194
 30
0.0
 11
89.002984975301445
 21
69.220825436911241
 31
0.0
  0
LINE
  5
33EF
  8
0
 10
81.00298497530143
 20
64.749322814811194
 30
0.0
 11
81.002984975301445
 21
69.220825436911241
 31
0.0
  0
LINE
  5
33F0
  8
0
 10
80.002984975301445
 20
69.985074125911268
 30
0.0
 11
91.702984975301433
 21
69.985074125911268
 31
0.0
  0
LINE
  5
33F2
  8
0
 10
91.702984975301447
 20
63.98507412591124
 30
0.0
 11
80.002984975301445
 21
63.985074125911261
 31
0.0
  0
LINE
  5
33F3
  8
0
 10
92.002984975301445
 20
64.285074125911237
 30
0.0
 11
92.002984975301445
 21
69.685074125911271
 31
0.0
  0
LINE
  5
33FE
  8
0
 10
91.702984975301447
 20
69.985074125911268
 30
0.0
 11
92.002984975301445
 21
69.685074125911271
 31
0.0
  0
LINE
  5
33FF
  8
0
 10
91.702984975301447
 20
63.985074125911261
 30
0.0
 11
92.002984975301445
 21
64.285074125911251
 31
0.0
  0
LINE
  5
3407
  8
0
 10
54.30298497530142
 20
71.985074125911254
 30
0.0
 11
79.702984975301476
 21
71.985074125911282
 31
0.0
  0
LINE
  5
3408
  8
0
 10
79.702984975301433
 20
61.985074125911261
 30
0.0
 11
54.30298497530142
 21
61.985074125911261
 31
0.0
  0
LINE
  5
340E
  8
0
 10
54.002984975301423
 20
71.685074125911271
 30
0.0
 11
54.30298497530142
 21
71.985074125911254
 31
0.0
  0
LINE
  5
340F
  8
0
 10
54.30298497530142
 20
61.985074125911261
 30
0.0
 11
54.002984975301423
 21
62.285074125911272
 31
0.0
  0
LINE
  5
3410
  8
0
 10
79.702984975301433
 20
61.985074125911261
 30
0.0
 11
80.002984975301445
 21
62.285074125911258
 31
0.0
  0
LINE
  5
3411
  8
0
 10
80.002984975301473
 20
71.685074125911271
 30
0.0
 11
79.702984975301476
 21
71.985074125911254
 31
0.0
  0
LINE
  5
341C
  8
2
 10
75.502984975301402
 20
39.98507412591124
 30
0.0
 11
75.502984975301402
 21
33.985074125911233
 31
0.0
  0
LINE
  5
341D
  8
2
 10
75.502984975301402
 20
39.98507412591124
 30
0.0
 11
77.235035782826401
 21
36.98507412591124
 31
0.0
  0
LINE
  5
341E
  8
2
 10
77.235035782826401
 20
36.98507412591124
 30
0.0
 11
75.502984975301402
 21
33.985074125911233
 31
0.0
  0
LINE
  5
341F
  8
2
 10
54.002984975301374
 20
39.98507412591124
 30
0.0
 11
75.502984975301402
 21
39.985074125911261
 31
0.0
  0
LINE
  5
3420
  8
2
 10
75.502984975301402
 20
33.985074125911261
 30
0.0
 11
54.002984975301374
 21
33.985074125911261
 31
0.0
  0
LINE
  5
3432
  8
0
 10
54.302984975301413
 20
41.985074125911261
 30
0.0
 11
79.702984975301433
 21
41.985074125911261
 31
0.0
  0
LINE
  5
3433
  8
0
 10
79.702984975301433
 20
31.985074125911272
 30
0.0
 11
54.302984975301413
 21
31.985074125911272
 31
0.0
  0
LINE
  5
3434
  8
0
 10
91.702984975301447
 20
33.985074125911268
 30
0.0
 11
80.002984975301445
 21
33.985074125911268
 31
0.0
  0
LINE
  5
3435
  8
0
 10
80.002984975301445
 20
39.985074125911268
 30
0.0
 11
81.00298497530143
 21
39.985074125911268
 31
0.0
  0
LINE
  5
343C
  8
0
 10
89.002984975301416
 20
39.985074125911268
 30
0.0
 11
91.702984975301447
 21
39.985074125911268
 31
0.0
  0
LINE
  5
343D
  8
0
 10
92.00298497530143
 20
39.685074125911292
 30
0.0
 11
92.00298497530143
 21
34.285074125911258
 31
0.0
  0
LINE
  5
3448
  8
0
 10
91.702984975301433
 20
33.985074125911268
 30
0.0
 11
92.00298497530143
 21
34.285074125911272
 31
0.0
  0
LINE
  5
3449
  8
0
 10
92.00298497530143
 20
39.685074125911271
 30
0.0
 11
91.702984975301433
 21
39.985074125911268
 31
0.0
  0
LINE
  5
344A
  8
0
 10
80.002984975301445
 20
41.685074125911271
 30
0.0
 11
79.702984975301433
 21
41.985074125911261
 31
0.0
  0
LINE
  5
344B
  8
0
 10
79.702984975301433
 20
31.985074125911272
 30
0.0
 11
80.002984975301445
 21
32.285074125911272
 31
0.0
  0
LINE
  5
344C
  8
0
 10
54.002984975301409
 20
41.685074125911271
 30
0.0
 11
54.30298497530142
 21
41.985074125911261
 31
0.0
  0
LINE
  5
344D
  8
0
 10
54.302984975301413
 20
31.985074125911261
 30
0.0
 11
54.002984975301402
 21
32.285074125911272
 31
0.0
  0
ENDSEC
  0
EOF
