  0
SECTION
  2
HEADER
  9
$ACADVER
  1
AC1009
  9
$INSBASE
 10
0.0
 20
0.0
 30
0.0
  9
$EXTMIN
 10
0.0
 20
-2.960436562073669
 30
0.0
  9
$EXTMAX
 10
354.99109595372647
 20
361.51379588810209
 30
0.0
  9
$LIMMIN
 10
0.0
 20
0.0
  9
$LIMMAX
 10
375.0
 20
270.0
  9
$ORTHOMODE
 70
     1
  9
$REGENMODE
 70
     1
  9
$FILLMODE
 70
     1
  9
$QTEXTMODE
 70
     0
  9
$MIRRTEXT
 70
     0
  9
$DRAGMODE
 70
     2
  9
$LTSCALE
 40
6.0
  9
$OSMODE
 70
  3071
  9
$ATTMODE
 70
     1
  9
$TEXTSIZE
 40
0.2
  9
$TRACEWID
 40
0.05
  9
$TEXTSTYLE
  7
STANDARD
  9
$CLAYER
  8
0
  9
$CELTYPE
  6
BYLAYER
  9
$CECOLOR
 62
   256
  9
$DIMSCALE
 40
1.0
  9
$DIMASZ
 40
3.0
  9
$DIMEXO
 40
1.0
  9
$DIMDLI
 40
6.0
  9
$DIMRND
 40
0.0
  9
$DIMDLE
 40
0.0
  9
$DIMEXE
 40
1.0
  9
$DIMTP
 40
495.0
  9
$DIMTM
 40
0.0
  9
$DIMTXT
 40
3.0
  9
$DIMCEN
 40
0.0
  9
$DIMTSZ
 40
0.0
  9
$DIMTOL
 70
     0
  9
$DIMLIM
 70
     0
  9
$DIMTIH
 70
     0
  9
$DIMTOH
 70
     0
  9
$DIMSE1
 70
     0
  9
$DIMSE2
 70
     0
  9
$DIMTAD
 70
     1
  9
$DIMZIN
 70
     0
  9
$DIMBLK
  1

  9
$DIMASO
 70
     0
  9
$DIMSHO
 70
     0
  9
$DIMPOST
  1

  9
$DIMAPOST
  1

  9
$DIMALT
 70
     0
  9
$DIMALTD
 70
     2
  9
$DIMALTF
 40
25.399999999999999
  9
$DIMLFAC
 40
1.0
  9
$DIMTOFL
 70
     1
  9
$DIMTVP
 40
0.0
  9
$DIMTIX
 70
     1
  9
$DIMSOXD
 70
     0
  9
$DIMSAH
 70
     0
  9
$DIMBLK1
  1

  9
$DIMBLK2
  1

  9
$DIMSTYLE
  2
STANDARD
  9
$DIMCLRD
 70
     0
  9
$DIMCLRE
 70
     0
  9
$DIMCLRT
 70
     4
  9
$DIMTFAC
 40
1.0
  9
$DIMGAP
 40
1.0
  9
$LUNITS
 70
     2
  9
$LUPREC
 70
     4
  9
$SKETCHINC
 40
0.1
  9
$FILLETRAD
 40
2.0
  9
$AUNITS
 70
     0
  9
$AUPREC
 70
     0
  9
$MENU
  1
C:\R13\WIN\SUPPORT\ACAD-I
  9
$ELEVATION
 40
0.0
  9
$PELEVATION
 40
0.0
  9
$THICKNESS
 40
0.0
  9
$LIMCHECK
 70
     0
  9
$BLIPMODE
 70
     0
  9
$CHAMFERA
 40
0.0
  9
$CHAMFERB
 40
0.0
  9
$SKPOLY
 70
     0
  9
$TDCREATE
 40
2451962.6102177198
  9
$TDUPDATE
 40
2456597.6160794329
  9
$TDINDWG
 40
0.0353502431
  9
$TDUSRTIMER
 40
2456556.2183244438
  9
$USRTIMER
 70
     1
  9
$ANGBASE
 50
0.0
  9
$ANGDIR
 70
     0
  9
$PDMODE
 70
     0
  9
$PDSIZE
 40
0.0
  9
$PLINEWID
 40
0.0
  9
$COORDS
 70
     1
  9
$SPLFRAME
 70
     0
  9
$SPLINETYPE
 70
     6
  9
$SPLINESEGS
 70
     8
  9
$ATTDIA
 70
     0
  9
$ATTREQ
 70
     1
  9
$HANDLING
 70
     1
  9
$HANDSEED
  5
95DE
  9
$SURFTAB1
 70
     6
  9
$SURFTAB2
 70
     6
  9
$SURFTYPE
 70
     6
  9
$SURFU
 70
     6
  9
$SURFV
 70
     6
  9
$UCSNAME
  2

  9
$UCSORG
 10
0.0
 20
0.0
 30
0.0
  9
$UCSXDIR
 10
1.0
 20
0.0
 30
0.0
  9
$UCSYDIR
 10
0.0
 20
1.0
 30
0.0
  9
$PUCSNAME
  2

  9
$PUCSORG
 10
0.0
 20
0.0
 30
0.0
  9
$PUCSXDIR
 10
1.0
 20
0.0
 30
0.0
  9
$PUCSYDIR
 10
0.0
 20
1.0
 30
0.0
  9
$USERI1
 70
     4
  9
$USERI2
 70
     1
  9
$USERI3
 70
     0
  9
$USERI4
 70
     0
  9
$USERI5
 70
     0
  9
$USERR1
 40
1.0
  9
$USERR2
 40
3.0
  9
$USERR3
 40
3.0
  9
$USERR4
 40
3.0
  9
$USERR5
 40
10.0
  9
$WORLDVIEW
 70
     1
  9
$SHADEDGE
 70
     3
  9
$SHADEDIF
 70
    70
  9
$TILEMODE
 70
     1
  9
$MAXACTVP
 70
    16
  9
$PLIMCHECK
 70
     0
  9
$PEXTMIN
 10
1.0000000000000000E+020
 20
1.0000000000000000E+020
 30
1.0000000000000000E+020
  9
$PEXTMAX
 10
-1.0000000000000000E+020
 20
-1.0000000000000000E+020
 30
-1.0000000000000000E+020
  9
$PLIMMIN
 10
0.0
 20
0.0
  9
$PLIMMAX
 10
12.0
 20
9.0
  9
$UNITMODE
 70
     0
  9
$VISRETAIN
 70
     0
  9
$PLINEGEN
 70
     0
  9
$PSLTSCALE
 70
     0
  0
ENDSEC
  0
SECTION
  2
TABLES
  0
TABLE
  2
VPORT
 70
     1
  0
VPORT
  2
*ACTIVE
 70
     0
 10
0.0
 20
0.0
 11
1.0
 21
1.0
 12
187.49427839065231
 22
180.07034208485149
 13
0.0
 23
0.0
 14
10.0
 24
10.0
 15
10.0
 25
10.0
 16
0.0
 26
0.0
 36
1.0
 17
0.0
 27
0.0
 37
0.0
 40
370.25465514586432
 41
2.304913294797688
 42
50.0
 43
0.0
 44
0.0
 50
0.0
 51
0.0
 71
    16
 72
   100
 73
     1
 74
     0
 75
     0
 76
     0
 77
     0
 78
     0
  0
ENDTAB
  0
TABLE
  2
LTYPE
 70
     3
  0
LTYPE
  2
CONTINUOUS
 70
     0
  3
Solid Line
 72
    65
 73
     0
 40
0.0
  0
LTYPE
  2
PHANTOM2
 70
     0
  3
___ _ _ ___ _ _ ___ _ _ ___ _ _
 72
    65
 73
     6
 40
1.25
 49
0.625
 49
-0.125
 49
0.125
 49
-0.125
 49
0.125
 49
-0.125
  0
LTYPE
  2
CENTER
 70
     0
  3
____ _ ____ _ ____ _ ____ _ ____ _ ____ _ ____
 72
    65
 73
     4
 40
2.0
 49
1.25
 49
-0.25
 49
0.25
 49
-0.25
  0
ENDTAB
  0
TABLE
  2
LAYER
 70
     4
  0
LAYER
  2
0
 70
     0
 62
     7
  6
CONTINUOUS
  0
LAYER
  2
1
 70
     0
 62
     1
  6
CENTER
  0
LAYER
  2
3
 70
     0
 62
     3
  6
CONTINUOUS
  0
LAYER
  2
DEFPOINTS
 70
     0
 62
     7
  6
CONTINUOUS
  0
ENDTAB
  0
TABLE
  2
STYLE
 70
     3
  0
STYLE
  2
STANDARD
 70
     0
 40
0.0
 41
1.0
 50
0.0
 71
     0
 42
0.2
  3
SIMPLEX
  4
BIGFONT
  0
STYLE
  2
ANNOTATIVE
 70
     0
 40
0.0
 41
1.0
 50
0.0
 71
     0
 42
0.2
  3
txt
  4

  0
STYLE
  2
STANDARD1
 70
     0
 40
0.0
 41
1.0
 50
0.0
 71
     0
 42
3.0
  3
txt
  4

  0
ENDTAB
  0
TABLE
  2
VIEW
 70
     0
  0
ENDTAB
  0
TABLE
  2
UCS
 70
     0
  0
ENDTAB
  0
TABLE
  2
APPID
 70
    29
  0
APPID
  2
ACAD
 70
     0
  0
APPID
  2
ACADANNOTATIVE
 70
     0
  0
APPID
  2
GENIUS_GENOREF_13
 70
     0
  0
APPID
  2
GENIUS_GENOENT_13
 70
     0
  0
APPID
  2
GENIUS_GENBH_13
 70
     0
  0
APPID
  2
GENIUS_GENOBJ_13
 70
     0
  0
APPID
  2
GENIUS_GENODEF_13
 70
     0
  0
APPID
  2
GENIUS_GENOLIS_13
 70
     0
  0
APPID
  2
GENIUS_GENOBJ-NBEHI-BHF_13
 70
     0
  0
APPID
  2
GENIUS_GENOBJ-NBEHI-BHB_13
 70
     0
  0
APPID
  2
GENIUS_GENOBJ-F-PART_13
 70
     0
  0
APPID
  2
GENIUS_GEFSTDP_13
 70
     0
  0
APPID
  2
GENIUS_GENOBJ-N-RSSYM_13
 70
     0
  0
APPID
  2
GENIUS_GENSYMENT_13
 70
     0
  0
APPID
  2
GENIUS_GENOBJ-N-TIT_13
 70
     0
  0
APPID
  2
GENIUS_GENTITLE_13
 70
     0
  0
APPID
  2
GENIUS_GENZVEED_13
 70
     0
  0
APPID
  2
GENIUS_GENOBJ-N-LEADER_13
 70
     0
  0
APPID
  2
GENIUS_GENOBJ-N-FIL_13
 70
     0
  0
APPID
  2
GENIUS_GENOBJ-N-SEC_13
 70
     0
  0
APPID
  2
GENIUS_GENOBJ-N-CRS_13
 70
     0
  0
APPID
  2
GENIUS_GENOBJ-N-ZOO_13
 70
     0
  0
APPID
  2
GENIUS_GENZOO_13
 70
     0
  0
APPID
  2
GENIUS_GENOBJ-F-TOL_13
 70
     0
  0
APPID
  2
GENIUS_GENFIL_13
 70
     0
  0
APPID
  2
GENIUS_GENOBJ-N-CHA_13
 70
     0
  0
APPID
  2
ACAD_EXEMPT_FROM_CAD_STANDARDS
 70
     0
  0
APPID
  2
ACAD_MLEADERVER
 70
     0
  0
APPID
  2
ACAD_NAV_VCDISPLAY
 70
     0
  0
ENDTAB
  0
TABLE
  2
DIMSTYLE
 70
     2
  0
DIMSTYLE
  2
STANDARD
 70
     0
  3

  4

  5

  6

  7

 40
1.0
 41
0.18
 42
0.0625
 43
0.38
 44
0.18
 45
0.0
 46
0.0
 47
0.0
 48
0.0
140
0.18
141
0.09
142
0.0
143
25.399999999999999
144
1.0
145
0.0
146
1.0
147
0.09
 71
     0
 72
     0
 73
     1
 74
     1
 75
     0
 76
     0
 77
     0
 78
     0
170
     0
171
     2
172
     0
173
     0
174
     0
175
     0
176
     0
177
     0
178
     0
  0
DIMSTYLE
  2
ANNOTATIVE
 70
     0
  3

  4

  5

  6

  7

 40
1.0
 41
0.18
 42
0.0625
 43
0.38
 44
0.18
 45
0.0
 46
0.0
 47
0.0
 48
0.0
140
0.18
141
0.09
142
0.0
143
25.399999999999999
144
1.0
145
0.0
146
1.0
147
0.09
 71
     0
 72
     0
 73
     1
 74
     1
 75
     0
 76
     0
 77
     0
 78
     0
170
     0
171
     2
172
     0
173
     0
174
     0
175
     0
176
     0
177
     0
178
     0
  0
ENDTAB
  0
ENDSEC
  0
SECTION
  2
BLOCKS
  0
BLOCK
  8
0
  2
$MODEL_SPACE
 70
     0
 10
0.0
 20
0.0
 30
0.0
  3
$MODEL_SPACE
  1

  0
ENDBLK
  5
9500
  8
0
  0
BLOCK
 67
     1
  8
0
  2
$PAPER_SPACE
 70
     0
 10
0.0
 20
0.0
 30
0.0
  3
$PAPER_SPACE
  1

  0
ENDBLK
  5
94FC
 67
     1
  8
0
  0
ENDSEC
  0
SECTION
  2
ENTITIES
  0
ARC
  5
908D
  8
0
 10
304.99109595372647
 20
73.808595792065489
 30
0.0
 40
12.25
 50
31.065080896355841
 51
46.062160114254262
  0
ARC
  5
908E
  8
0
 10
304.99109595372647
 20
73.808595792065489
 30
0.0
 40
12.25
 50
133.93783988574569
 51
148.93491910364409
  0
LINE
  5
908F
  8
0
 10
296.49109595372647
 20
89.129735174268035
 30
0.0
 11
296.49109595372647
 21
82.629735174282118
 31
0.0
  0
LINE
  5
9090
  8
0
 10
313.49109595372647
 20
89.129735174268035
 30
0.0
 11
313.49109595372647
 21
82.629735174253909
 31
0.0
  0
LINE
  5
9091
  8
0
 10
295.99109595372641
 20
197.12973517432539
 30
0.0
 11
313.99109595372647
 21
197.1297351743253
 31
0.0
  0
LINE
  5
9092
  8
0
 10
316.99109595372647
 20
98.841060039699187
 30
0.0
 11
316.99109595372647
 21
123.1297351743253
 31
0.0
  0
LINE
  5
9093
  8
3
 10
315.3670959537265
 20
104.1297351743253
 30
0.0
 11
315.3670959537265
 21
123.12973517432511
 31
0.0
  0
LINE
  5
9094
  8
3
 10
294.6150959537265
 20
104.1297351743253
 30
0.0
 11
294.6150959537265
 21
123.1297351743253
 31
0.0
  0
LINE
  5
9095
  8
0
 10
292.99109595372647
 20
98.841060039636872
 30
0.0
 11
292.99109595372647
 21
123.1297351743253
 31
0.0
  0
LINE
  5
9096
  8
0
 10
292.99109595372647
 20
194.1297351743257
 30
0.0
 11
295.99109595372641
 21
197.12973517432539
 31
0.0
  0
LINE
  5
9097
  8
0
 10
313.99109595372647
 20
197.1297351743253
 30
0.0
 11
316.99109595372647
 21
194.1297351743253
 31
0.0
  0
LINE
  5
9098
  8
0
 10
292.99109595372647
 20
194.1297351743257
 30
0.0
 11
316.99109595372647
 21
194.1297351743253
 31
0.0
  0
LINE
  5
9099
  8
0
 10
316.99109595372647
 20
104.1297351743253
 30
0.0
 11
292.99109595372647
 21
104.1297351743253
 31
0.0
  0
LINE
  5
909A
  8
3
 10
294.6150959537265
 20
104.1297351743253
 30
0.0
 11
292.99109595372647
 21
101.3168846628334
 31
0.0
  0
LINE
  5
909B
  8
3
 10
315.3670959537265
 20
104.1297351743253
 30
0.0
 11
316.99109595372641
 21
101.3168846628334
 31
0.0
  0
LINE
  5
909C
  8
0
 10
316.49109595367258
 20
89.129735174325333
 30
0.0
 11
293.49109595388819
 21
89.129735174325333
 31
0.0
  0
LINE
  5
909D
  8
0
 10
293.49109595378042
 20
99.129735174325333
 30
0.0
 11
316.49109595367258
 21
99.129735174325333
 31
0.0
  0
ARC
  5
909E
  8
0
 10
315.38340079919379
 20
92.707085444039635
 30
0.0
 40
6.1339745957208196
 50
64.384247469840446
 51
124.3842474712085
  0
LINE
  5
909F
  8
0
 10
318.84750241435341
 20
97.76926326993113
 30
0.0
 11
316.49109595367258
 21
99.129735174325333
 31
0.0
  0
LINE
  5
90A0
  8
0
 10
318.84750241435341
 20
90.490207078719564
 30
0.0
 11
316.49109595367258
 21
89.129735174325333
 31
0.0
  0
ARC
  5
90A1
  8
0
 10
315.38340079919379
 20
95.552384904611003
 30
0.0
 40
6.1339745957208196
 50
235.6157525287887
 51
295.61575253015963
  0
LINE
  5
90A2
  8
0
 10
318.84750241433147
 20
97.76926326993113
 30
0.0
 11
318.84750241433147
 21
90.490207078706788
 31
0.0
  0
LINE
  5
90A3
  8
0
 10
311.91929918405572
 20
97.76926326993113
 30
0.0
 11
311.91929918405572
 21
90.490207078719564
 31
0.0
  0
LINE
  5
90A4
  8
0
 10
298.062892723505
 20
97.76926326993113
 30
0.0
 11
298.062892723505
 21
90.490207078719564
 31
0.0
  0
LINE
  5
90A5
  8
0
 10
291.13468949322919
 20
97.76926326993113
 30
0.0
 11
291.13468949322919
 21
90.490207078706788
 31
0.0
  0
ARC
  5
90A6
  8
0
 10
304.99109595378042
 20
112.3466135370297
 30
0.0
 40
22.928203228139491
 50
252.41204622431411
 51
287.58795377568589
  0
ARC
  5
90A7
  8
0
 10
294.59879110836692
 20
95.552384904611003
 30
0.0
 40
6.1339745957208196
 50
244.3842474698404
 51
304.38424747121132
  0
LINE
  5
90A8
  8
0
 10
291.13468949320742
 20
90.490207078719564
 30
0.0
 11
293.49109595388819
 21
89.129735174325333
 31
0.0
  0
LINE
  5
90A9
  8
0
 10
291.13468949320742
 20
97.76926326993113
 30
0.0
 11
293.49109595388819
 21
99.129735174325333
 31
0.0
  0
ARC
  5
90AA
  8
0
 10
294.59879110836692
 20
92.707085444039635
 30
0.0
 40
6.1339745957208196
 50
55.615752528791369
 51
115.6157525301595
  0
ARC
  5
90AB
  8
0
 10
304.99109595378042
 20
75.912856811620941
 30
0.0
 40
22.928203228139491
 50
72.412046224314139
 51
107.5879537756858
  0
LINE
  5
90AC
  8
0
 10
296.49109595372647
 20
82.629735174253909
 30
0.0
 11
313.49109595372647
 21
82.629735174253909
 31
0.0
  0
LINE
  5
90AD
  8
0
 10
286.99109596837718
 20
141.55238491359381
 30
0.0
 11
286.99109596837718
 21
123.7070854350561
 31
0.0
  0
LINE
  5
90AE
  8
0
 10
287.99109595372647
 20
142.12973517432479
 30
0.0
 11
286.99109596837718
 21
141.55238491359381
 31
0.0
  0
ARC
  5
90AF
  8
0
 10
295.99109596105171
 20
115.5571944062817
 30
0.0
 40
25.995190507312159
 50
69.743841999652659
 51
110.2561580003473
  0
ARC
  5
90B0
  8
0
 10
295.99109596105171
 20
149.7022759423682
 30
0.0
 40
25.995190507312159
 50
249.74384199965269
 51
290.2561580003474
  0
LINE
  5
90B1
  8
0
 10
287.99109595372647
 20
123.12973517432511
 30
0.0
 11
286.99109596837718
 21
123.7070854350561
 31
0.0
  0
LINE
  5
90B2
  8
0
 10
321.9910959537263
 20
123.12973517432511
 30
0.0
 11
322.99109593907542
 21
123.7070854350561
 31
0.0
  0
ARC
  5
90B3
  8
0
 10
313.99109594640089
 20
149.7022759423682
 30
0.0
 40
25.995190507312159
 50
249.74384199965269
 51
290.2561580003474
  0
ARC
  5
90B4
  8
0
 10
313.99109594640089
 20
115.5571944062817
 30
0.0
 40
25.995190507312159
 50
69.743841999652659
 51
110.2561580003473
  0
LINE
  5
90B5
  8
0
 10
321.9910959537263
 20
142.12973517432479
 30
0.0
 11
322.99109593907542
 21
141.55238491359381
 31
0.0
  0
LINE
  5
90B6
  8
0
 10
287.99109595372647
 20
142.12973517432479
 30
0.0
 11
321.9910959537263
 21
142.12973517432479
 31
0.0
  0
LINE
  5
90B7
  8
0
 10
322.99109593907542
 20
141.55238491359381
 30
0.0
 11
322.99109593907542
 21
123.7070854350561
 31
0.0
  0
LINE
  5
90B8
  8
0
 10
287.99109595372647
 20
123.12973517432511
 30
0.0
 11
321.9910959537263
 21
123.12973517432511
 31
0.0
  0
LINE
  5
90B9
  8
0
 10
304.9910959537263
 20
139.94468976032149
 30
0.0
 11
304.9910959537263
 21
125.3147805883286
 31
0.0
  0
LINE
  5
90BA
  8
0
 10
316.99109595372647
 20
142.12973517432479
 30
0.0
 11
316.99109595372647
 21
194.1297351743253
 31
0.0
  0
LINE
  5
90BB
  8
3
 10
315.3670959537265
 20
142.12973517432479
 30
0.0
 11
315.3670959537265
 21
195.7537351743253
 31
0.0
  0
LINE
  5
90BC
  8
0
 10
292.99109595372647
 20
142.12973517432479
 30
0.0
 11
292.99109595372647
 21
194.1297351743257
 31
0.0
  0
LINE
  5
90BD
  8
3
 10
294.6150959537265
 20
142.12973517432459
 30
0.0
 11
294.6150959537265
 21
195.75373517432561
 31
0.0
  0
CIRCLE
  5
90BE
  8
3
 10
129.5679250576809
 20
301.51379588810209
 30
0.0
 40
10.375999999999999
  0
CIRCLE
  5
90BF
  8
0
 10
129.5679250576809
 20
301.51379588810232
 30
0.0
 40
12.0
  0
CIRCLE
  5
90C0
  8
0
 10
129.5679250576809
 20
301.51379588810209
 30
0.0
 40
17.0
  0
LINE
  5
90C1
  8
0
 10
119.1756202207206
 20
319.51379587345122
 30
0.0
 11
139.9602299115457
 21
319.51379587345122
 31
0.0
  0
LINE
  5
90C2
  8
0
 10
139.9602298946383
 20
319.51379587343672
 30
0.0
 11
150.35253474005441
 21
301.51379587345122
 31
0.0
  0
LINE
  5
90C3
  8
0
 10
150.35253473158161
 20
301.51379588810511
 30
0.0
 11
139.9602298861727
 21
283.51379588810488
 31
0.0
  0
LINE
  5
90C4
  8
0
 10
139.96022989462739
 20
283.51379590275889
 30
0.0
 11
119.1756202038022
 21
283.51379590275889
 31
0.0
  0
LINE
  5
90C5
  8
0
 10
119.17562022072249
 20
283.51379590275889
 30
0.0
 11
108.7833153753062
 21
301.51379590275877
 31
0.0
  0
LINE
  5
90C6
  8
0
 10
108.7833153837791
 20
301.51379588810511
 30
0.0
 11
119.175620229188
 21
319.51379588810499
 31
0.0
  0
LINE
  5
90C7
  8
1
 10
304.99109595372647
 20
207.12973517432539
 30
0.0
 11
304.99109595372647
 21
43.129735174325091
 31
0.0
  0
LINE
  5
90C8
  8
1
 10
129.5679250576809
 20
207.12973517432539
 30
0.0
 11
129.5679250576809
 21
43.129735174325091
 31
0.0
  0
ARC
  5
90C9
  8
0
 10
129.5679250576809
 20
73.808595792065262
 30
0.0
 40
12.25
 50
31.065080896357031
 51
46.062160114254262
  0
LINE
  5
90CA
  8
DEFPOINTS
 10
121.0679250577091
 20
82.629735174281222
 30
0.0
 11
138.0679250576809
 21
82.629735174281222
 31
0.0
  0
LINE
  5
90CB
  8
3
 10
139.94392505768079
 20
104.12973517432511
 30
0.0
 11
141.56792505768081
 21
101.3168846628332
 31
0.0
  0
LINE
  5
90CC
  8
3
 10
119.1919250576809
 20
104.12973517432511
 30
0.0
 11
117.5679250576809
 21
101.3168846628332
 31
0.0
  0
LINE
  5
90CD
  8
0
 10
141.5679250576809
 20
104.12973517432511
 30
0.0
 11
117.5679250576809
 21
104.12973517432511
 31
0.0
  0
LINE
  5
90CE
  8
0
 10
117.5679250576809
 20
194.1297351743255
 30
0.0
 11
141.5679250576809
 21
194.12973517432511
 31
0.0
  0
LINE
  5
90CF
  8
0
 10
138.5679250576809
 20
197.12973517432511
 30
0.0
 11
141.5679250576809
 21
194.12973517432511
 31
0.0
  0
LINE
  5
90D0
  8
0
 10
117.5679250576809
 20
194.1297351743255
 30
0.0
 11
120.5679250576809
 21
197.1297351743253
 31
0.0
  0
LINE
  5
90D1
  8
0
 10
117.5679250576991
 20
98.841060039721924
 30
0.0
 11
117.5679250576809
 21
123.12973517432459
 31
0.0
  0
LINE
  5
90D2
  8
3
 10
119.1919250576809
 20
104.12973517432511
 30
0.0
 11
119.1919250576809
 21
123.12973517432491
 31
0.0
  0
LINE
  5
90D3
  8
3
 10
139.94392505768079
 20
104.12973517432511
 30
0.0
 11
139.94392505768079
 21
123.12973517432459
 31
0.0
  0
LINE
  5
90D4
  8
0
 10
141.5679250577291
 20
98.841060039721924
 30
0.0
 11
141.5679250576809
 21
123.12973517432459
 31
0.0
  0
LINE
  5
90D5
  8
0
 10
120.5679250576809
 20
197.1297351743253
 30
0.0
 11
138.5679250576809
 21
197.12973517432511
 31
0.0
  0
LINE
  5
90D6
  8
0
 10
138.0679250576809
 20
89.129735174267807
 30
0.0
 11
138.0679250576809
 21
82.629735174253696
 31
0.0
  0
LINE
  5
90D7
  8
0
 10
121.0679250576809
 20
89.129735174267807
 30
0.0
 11
121.0679250576809
 21
82.629735174281905
 31
0.0
  0
LINE
  5
90D8
  8
0
 10
141.06792505771409
 20
89.129735174248481
 30
0.0
 11
118.0679250576477
 21
89.129735174286893
 31
0.0
  0
LINE
  5
90D9
  8
0
 10
118.0679250576477
 20
99.129735174286893
 30
0.0
 11
141.06792505771409
 21
99.129735174325333
 31
0.0
  0
ARC
  5
90DA
  8
0
 10
123.56792505771411
 20
81.510933022388144
 30
0.0
 40
17.330127017333279
 50
69.743841997633055
 51
110.2561580023669
  0
LINE
  5
90DB
  8
0
 10
117.5679250576991
 20
98.841060039721924
 30
0.0
 11
118.06792505771411
 21
99.129735174325333
 31
0.0
  0
LINE
  5
90DC
  8
0
 10
117.5679250576991
 20
89.41841030885189
 30
0.0
 11
118.06792505771411
 21
89.129735174248481
 31
0.0
  0
ARC
  5
90DD
  8
0
 10
123.56792505771411
 20
106.7485373261852
 30
0.0
 40
17.330127017333279
 50
249.7438419976331
 51
290.25615800236699
  0
LINE
  5
90DE
  8
0
 10
117.5679250576991
 20
98.841060039721924
 30
0.0
 11
117.56792505771411
 21
89.418410308843235
 31
0.0
  0
LINE
  5
90DF
  8
0
 10
129.56792505771409
 20
90.490207078681124
 30
0.0
 11
129.56792505771409
 21
97.76926326989269
 31
0.0
  0
LINE
  5
90E0
  8
0
 10
141.5679250577291
 20
98.841060039721924
 30
0.0
 11
141.56792505771409
 21
89.418410308843235
 31
0.0
  0
ARC
  5
90E1
  8
0
 10
135.56792505771409
 20
106.7485373261852
 30
0.0
 40
17.330127017333279
 50
249.7438419976331
 51
290.25615800236699
  0
LINE
  5
90E2
  8
0
 10
141.5679250577291
 20
89.41841030885189
 30
0.0
 11
141.06792505771409
 21
89.129735174248481
 31
0.0
  0
LINE
  5
90E3
  8
0
 10
141.5679250577291
 20
98.841060039721924
 30
0.0
 11
141.06792505771409
 21
99.129735174325333
 31
0.0
  0
ARC
  5
90E4
  8
0
 10
135.56792505771409
 20
81.510933022388144
 30
0.0
 40
17.330127017333279
 50
69.743841997633055
 51
110.2561580023669
  0
ARC
  5
90E5
  8
0
 10
129.5679250576809
 20
73.808595792065262
 30
0.0
 40
12.25
 50
133.9378398855568
 51
148.93491910364301
  0
LINE
  5
90E6
  8
0
 10
150.35253473157999
 20
139.9446897603213
 30
0.0
 11
150.35253473157999
 21
125.3147805883284
 31
0.0
  0
LINE
  5
90E7
  8
0
 10
146.56792505768081
 20
142.12973517432459
 30
0.0
 11
150.35253473157999
 21
139.9446897603213
 31
0.0
  0
ARC
  5
90E8
  8
0
 10
145.1563823131051
 20
132.35142302674009
 30
0.0
 40
9.2009618868538041
 50
64.384247467929242
 51
124.38424746793839
  0
ARC
  5
90E9
  8
0
 10
145.1563823131051
 20
132.90804732190961
 30
0.0
 40
9.2009618868538041
 50
235.61575253206149
 51
295.6157525320707
  0
LINE
  5
90EA
  8
0
 10
146.56792505768081
 20
123.12973517432491
 30
0.0
 11
150.35253473157999
 21
125.3147805883284
 31
0.0
  0
LINE
  5
90EB
  8
0
 10
112.5679250576809
 20
123.12973517432491
 30
0.0
 11
108.7833153837817
 21
125.3147805883284
 31
0.0
  0
ARC
  5
90EC
  8
0
 10
113.97946780225659
 20
132.90804732190961
 30
0.0
 40
9.2009618868538041
 50
244.38424746792921
 51
304.38424746793839
  0
ARC
  5
90ED
  8
0
 10
129.5679250576828
 20
158.09939025257259
 30
0.0
 40
34.392304817516766
 50
252.41204622606631
 51
287.58795377393369
  0
ARC
  5
90EE
  8
0
 10
113.97946780225659
 20
132.35142302674009
 30
0.0
 40
9.2009618868538041
 50
55.615752532061599
 51
115.6157525320707
  0
ARC
  5
90EF
  8
0
 10
129.5679250576828
 20
107.1600800960768
 30
0.0
 40
34.392304817516766
 50
72.412046226066266
 51
107.58795377393371
  0
LINE
  5
90F0
  8
0
 10
139.9602298946341
 20
139.9446897603213
 30
0.0
 11
139.9602298946341
 21
125.3147805883284
 31
0.0
  0
LINE
  5
90F1
  8
0
 10
119.1756202207318
 20
139.9446897603213
 30
0.0
 11
119.1756202207318
 21
125.3147805883284
 31
0.0
  0
LINE
  5
90F2
  8
0
 10
112.5679250576809
 20
142.12973517432459
 30
0.0
 11
108.7833153837817
 21
139.9446897603213
 31
0.0
  0
LINE
  5
90F3
  8
0
 10
108.7833153837817
 20
139.9446897603213
 30
0.0
 11
108.7833153837817
 21
125.3147805883284
 31
0.0
  0
LINE
  5
90F4
  8
0
 10
112.5679250576809
 20
123.12973517432491
 30
0.0
 11
146.56792505768081
 21
123.12973517432491
 31
0.0
  0
LINE
  5
90F5
  8
0
 10
112.5679250576809
 20
142.12973517432459
 30
0.0
 11
146.56792505768081
 21
142.12973517432459
 31
0.0
  0
LINE
  5
90F6
  8
0
 10
141.5679250576809
 20
142.12973517432459
 30
0.0
 11
141.5679250576809
 21
194.12973517432511
 31
0.0
  0
LINE
  5
90F7
  8
3
 10
139.94392505768079
 20
142.12973517432459
 30
0.0
 11
139.94392505768079
 21
195.7537351743251
 31
0.0
  0
LINE
  5
90F8
  8
3
 10
119.1919250576809
 20
142.12973517432459
 30
0.0
 11
119.1919250576809
 21
195.7537351743253
 31
0.0
  0
LINE
  5
90F9
  8
0
 10
117.5679250576809
 20
142.1297351743244
 30
0.0
 11
117.5679250576809
 21
194.1297351743255
 31
0.0
  0
LINE
  5
9109
  8
0
 10
179.5679250576809
 20
56.129735174325113
 30
0.0
 11
79.567925057680895
 21
56.129735174325113
 31
0.0
  0
LINE
  5
910A
  8
0
 10
179.5679250576809
 20
56.129735174325113
 30
0.0
 11
179.5679250576809
 21
65.309931271606501
 31
0.0
  0
LINE
  5
910B
  8
0
 10
173.0679250576809
 20
56.129735174325113
 30
0.0
 11
173.0679250576809
 21
53.129735174325099
 31
0.0
  0
LINE
  5
910C
  8
0
 10
146.0679250576809
 20
80.129735174325091
 30
0.0
 11
113.0679250576809
 21
80.129735174325091
 31
0.0
  0
LINE
  5
910D
  8
0
 10
173.0679250576809
 20
53.129735174325099
 30
0.0
 11
86.067925057680895
 21
53.129735174325099
 31
0.0
  0
LINE
  5
910E
  8
DEFPOINTS
 10
147.0679250576809
 20
79.129735174325091
 30
0.0
 11
147.0679250576809
 21
79.129735174325091
 31
0.0
  0
LINE
  5
910F
  8
DEFPOINTS
 10
153.5679250576809
 20
76.391160519807045
 30
0.0
 11
153.5679250576809
 21
76.129735174325091
 31
0.0
  0
LINE
  5
9110
  8
DEFPOINTS
 10
159.5679250576809
 20
73.408975954268939
 30
0.0
 11
159.5679250576809
 21
73.129735174325091
 31
0.0
  0
LINE
  5
9111
  8
DEFPOINTS
 10
166.5679250576809
 20
70.375433761570775
 30
0.0
 11
166.5679250576809
 21
70.12973517432512
 31
0.0
  0
LINE
  5
9112
  8
DEFPOINTS
 10
174.5679250576809
 20
67.348958767920749
 30
0.0
 11
174.5679250576809
 21
67.12973517432512
 31
0.0
  0
LINE
  5
9113
  8
DEFPOINTS
 10
147.0679250576809
 20
79.129735174325091
 30
0.0
 11
152.86201090651841
 21
77.346939528528992
 31
0.0
  0
LINE
  5
9114
  8
DEFPOINTS
 10
153.5679250576809
 20
76.129735174325091
 30
0.0
 11
158.8841528236976
 21
74.357659252319323
 31
0.0
  0
LINE
  5
9115
  8
DEFPOINTS
 10
159.5679250576809
 20
73.129735174325091
 30
0.0
 11
165.8426461855783
 21
71.336957709211461
 31
0.0
  0
LINE
  5
9116
  8
DEFPOINTS
 10
166.5679250576809
 20
70.12973517432512
 30
0.0
 11
173.81046068271729
 21
68.319101268066106
 31
0.0
  0
ARC
  5
9117
  8
DEFPOINTS
 10
173.5679250576809
 20
67.348958767920749
 30
0.0
 40
1.0
 50
0.0
 51
75.963756532073333
  0
ARC
  5
9118
  8
DEFPOINTS
 10
165.5679250576809
 20
70.375433761570775
 30
0.0
 40
1.0
 50
0.0
 51
74.054604099077153
  0
ARC
  5
9119
  8
DEFPOINTS
 10
158.5679250576809
 20
73.408975954268939
 30
0.0
 40
1.0
 50
0.0
 51
71.565051177077734
  0
ARC
  5
911A
  8
DEFPOINTS
 10
152.5679250576809
 20
76.391160519807045
 30
0.0
 40
1.0
 50
0.0
 51
72.897271030947451
  0
ARC
  5
911B
  8
DEFPOINTS
 10
146.0679250576809
 20
79.129735174325091
 30
0.0
 40
1.0
 50
0.0
 51
89.999999999999986
  0
LINE
  5
911C
  8
DEFPOINTS
 10
174.5679250576809
 20
67.12973517432512
 30
0.0
 11
178.76404119281909
 21
66.290511947297318
 31
0.0
  0
ARC
  5
911D
  8
DEFPOINTS
 10
178.5679250576809
 20
65.309931271606501
 30
0.0
 40
1.0
 50
359.99999999999972
 51
78.690067525979913
  0
ARC
  5
911E
  8
DEFPOINTS
 10
80.567925057680895
 20
65.309931271606501
 30
0.0
 40
1.0
 50
101.3099324740201
 51
180.00000000000031
  0
LINE
  5
911F
  8
DEFPOINTS
 10
84.567925057680895
 20
67.12973517432512
 30
0.0
 11
80.371808922542641
 21
66.290511947297318
 31
0.0
  0
ARC
  5
9120
  8
DEFPOINTS
 10
113.0679250576809
 20
79.129735174325091
 30
0.0
 40
1.0
 50
90.000000000000057
 51
180.0
  0
ARC
  5
9121
  8
DEFPOINTS
 10
106.5679250576809
 20
76.391160519807045
 30
0.0
 40
1.0
 50
107.10272896905251
 51
180.0
  0
ARC
  5
9122
  8
DEFPOINTS
 10
100.5679250576809
 20
73.408975954268939
 30
0.0
 40
1.0
 50
108.43494882292219
 51
180.0
  0
ARC
  5
9123
  8
DEFPOINTS
 10
93.567925057680867
 20
70.375433761570775
 30
0.0
 40
1.0
 50
105.9453959009228
 51
180.0
  0
ARC
  5
9124
  8
DEFPOINTS
 10
85.567925057680895
 20
67.348958767920749
 30
0.0
 40
1.0
 50
104.0362434679266
 51
180.0
  0
LINE
  5
9125
  8
DEFPOINTS
 10
92.567925057680867
 20
70.12973517432512
 30
0.0
 11
85.325389432644457
 21
68.319101268066106
 31
0.0
  0
LINE
  5
9126
  8
DEFPOINTS
 10
99.567925057680867
 20
73.129735174325091
 30
0.0
 11
93.293203929783445
 21
71.336957709211461
 31
0.0
  0
LINE
  5
9127
  8
DEFPOINTS
 10
105.5679250576809
 20
76.129735174325091
 30
0.0
 11
100.2516972916642
 21
74.357659252319323
 31
0.0
  0
LINE
  5
9128
  8
DEFPOINTS
 10
112.0679250576809
 20
79.129735174325091
 30
0.0
 11
106.2738392088433
 21
77.346939528528992
 31
0.0
  0
LINE
  5
9129
  8
DEFPOINTS
 10
84.567925057680895
 20
67.348958767920749
 30
0.0
 11
84.567925057680895
 21
67.12973517432512
 31
0.0
  0
LINE
  5
912A
  8
DEFPOINTS
 10
92.567925057680867
 20
70.375433761570775
 30
0.0
 11
92.567925057680867
 21
70.12973517432512
 31
0.0
  0
LINE
  5
912B
  8
DEFPOINTS
 10
99.567925057680867
 20
73.408975954268939
 30
0.0
 11
99.567925057680867
 21
73.129735174325091
 31
0.0
  0
LINE
  5
912C
  8
DEFPOINTS
 10
105.5679250576809
 20
76.391160519807045
 30
0.0
 11
105.5679250576809
 21
76.129735174325091
 31
0.0
  0
LINE
  5
912D
  8
DEFPOINTS
 10
112.0679250576809
 20
79.129735174325091
 30
0.0
 11
112.0679250576809
 21
79.129735174325091
 31
0.0
  0
LINE
  5
912E
  8
0
 10
86.067925057680895
 20
56.129735174325113
 30
0.0
 11
86.067925057680895
 21
53.129735174325099
 31
0.0
  0
LINE
  5
912F
  8
0
 10
79.567925057680895
 20
56.129735174325113
 30
0.0
 11
79.567925057680895
 21
65.309931271606501
 31
0.0
  0
LINE
  5
9130
  8
DEFPOINTS
 10
84.567925057680895
 20
67.12973517432512
 30
0.0
 11
174.5679250576809
 21
67.12973517432512
 31
0.0
  0
LINE
  5
9131
  8
DEFPOINTS
 10
92.567925057680867
 20
70.12973517432512
 30
0.0
 11
166.5679250576809
 21
70.12973517432512
 31
0.0
  0
LINE
  5
9132
  8
DEFPOINTS
 10
99.567925057680867
 20
73.129735174325091
 30
0.0
 11
159.5679250576809
 21
73.129735174325091
 31
0.0
  0
LINE
  5
9133
  8
DEFPOINTS
 10
153.5679250576809
 20
76.129735174325091
 30
0.0
 11
105.5679250576809
 21
76.129735174325091
 31
0.0
  0
LINE
  5
9134
  8
DEFPOINTS
 10
112.0679250576809
 20
79.129735174325091
 30
0.0
 11
147.0679250576809
 21
79.129735174325091
 31
0.0
  0
CIRCLE
  5
9135
  8
DEFPOINTS
 10
129.5679250576809
 20
301.51379588810209
 30
0.0
 40
50.0
  0
CIRCLE
  5
9136
  8
DEFPOINTS
 10
129.5679250576809
 20
301.51379588810209
 30
0.0
 40
45.0
  0
CIRCLE
  5
9137
  8
DEFPOINTS
 10
129.5679250576809
 20
301.51379588810209
 30
0.0
 40
37.0
  0
CIRCLE
  5
9138
  8
DEFPOINTS
 10
129.5679250576809
 20
301.51379588810209
 30
0.0
 40
30.0
  0
CIRCLE
  5
9139
  8
DEFPOINTS
 10
129.5679250576809
 20
301.51379588810209
 30
0.0
 40
23.999999999999989
  0
LINE
  5
913A
  8
0
 10
138.0679250576809
 20
89.129735174287148
 30
0.0
 11
138.0679250576809
 21
82.629735174273009
 31
0.0
  0
LINE
  5
913B
  8
0
 10
121.0679250576809
 20
89.129735174287148
 30
0.0
 11
121.0679250576809
 21
82.629735174301246
 31
0.0
  0
LINE
  5
913C
  8
1
 10
129.5679250576809
 20
361.51379588810209
 30
0.0
 11
129.5679250576809
 21
241.51379588810209
 31
0.0
  0
LINE
  5
913D
  8
1
 10
189.5679250576809
 20
301.51379588810209
 30
0.0
 11
69.567925057680895
 21
301.51379588810209
 31
0.0
  0
LINE
  5
913E
  8
DEFPOINTS
 10
287.49109595372647
 20
79.129735174325091
 30
0.0
 11
322.49109595372647
 21
79.129735174325091
 31
0.0
  0
LINE
  5
913F
  8
DEFPOINTS
 10
328.99109595372647
 20
76.129735174325091
 30
0.0
 11
280.99109595372647
 21
76.129735174325091
 31
0.0
  0
LINE
  5
9140
  8
DEFPOINTS
 10
274.99109595372647
 20
73.129735174325091
 30
0.0
 11
334.99109595372647
 21
73.129735174325091
 31
0.0
  0
LINE
  5
9141
  8
DEFPOINTS
 10
267.99109595372647
 20
70.12973517432512
 30
0.0
 11
341.99109595372647
 21
70.12973517432512
 31
0.0
  0
LINE
  5
9142
  8
DEFPOINTS
 10
259.99109595372647
 20
67.12973517432512
 30
0.0
 11
349.99109595372647
 21
67.12973517432512
 31
0.0
  0
LINE
  5
9143
  8
0
 10
254.9910959537265
 20
56.129735174325113
 30
0.0
 11
254.9910959537265
 21
65.309931271606501
 31
0.0
  0
LINE
  5
9144
  8
0
 10
261.49109595372647
 20
56.129735174325113
 30
0.0
 11
261.49109595372647
 21
53.129735174325099
 31
0.0
  0
LINE
  5
9145
  8
DEFPOINTS
 10
287.49109595372647
 20
79.129735174325091
 30
0.0
 11
287.49109595372647
 21
79.129735174325091
 31
0.0
  0
LINE
  5
9146
  8
DEFPOINTS
 10
280.99109595372647
 20
76.391160519807045
 30
0.0
 11
280.99109595372647
 21
76.129735174325091
 31
0.0
  0
LINE
  5
9147
  8
DEFPOINTS
 10
274.99109595372647
 20
73.408975954268939
 30
0.0
 11
274.99109595372647
 21
73.129735174325091
 31
0.0
  0
LINE
  5
9148
  8
DEFPOINTS
 10
267.99109595372647
 20
70.375433761570775
 30
0.0
 11
267.99109595372647
 21
70.12973517432512
 31
0.0
  0
LINE
  5
9149
  8
DEFPOINTS
 10
259.99109595372647
 20
67.348958767920749
 30
0.0
 11
259.99109595372647
 21
67.12973517432512
 31
0.0
  0
LINE
  5
914A
  8
DEFPOINTS
 10
287.49109595372647
 20
79.129735174325091
 30
0.0
 11
281.69701010488888
 21
77.346939528528992
 31
0.0
  0
LINE
  5
914B
  8
DEFPOINTS
 10
280.99109595372647
 20
76.129735174325091
 30
0.0
 11
275.67486818770948
 21
74.357659252319323
 31
0.0
  0
LINE
  5
914C
  8
DEFPOINTS
 10
274.99109595372647
 20
73.129735174325091
 30
0.0
 11
268.71637482582901
 21
71.336957709211461
 31
0.0
  0
LINE
  5
914D
  8
DEFPOINTS
 10
267.99109595372647
 20
70.12973517432512
 30
0.0
 11
260.74856032869002
 21
68.319101268066106
 31
0.0
  0
ARC
  5
914E
  8
DEFPOINTS
 10
260.99109595372647
 20
67.348958767920749
 30
0.0
 40
1.0
 50
104.0362434679266
 51
180.0
  0
ARC
  5
914F
  8
DEFPOINTS
 10
268.99109595372647
 20
70.375433761570775
 30
0.0
 40
1.0
 50
105.9453959009228
 51
180.0
  0
ARC
  5
9150
  8
DEFPOINTS
 10
275.99109595372647
 20
73.408975954268939
 30
0.0
 40
1.0
 50
108.43494882292219
 51
180.0
  0
ARC
  5
9151
  8
DEFPOINTS
 10
281.99109595372647
 20
76.391160519807045
 30
0.0
 40
1.0
 50
107.10272896905251
 51
180.0
  0
ARC
  5
9152
  8
DEFPOINTS
 10
288.49109595372647
 20
79.129735174325091
 30
0.0
 40
1.0
 50
90.000000000000057
 51
180.0
  0
LINE
  5
9153
  8
DEFPOINTS
 10
259.99109595372647
 20
67.12973517432512
 30
0.0
 11
255.7949798185881
 21
66.290511947297318
 31
0.0
  0
ARC
  5
9154
  8
DEFPOINTS
 10
255.9910959537265
 20
65.309931271606501
 30
0.0
 40
1.0
 50
101.3099324740201
 51
180.00000000000031
  0
ARC
  5
9155
  8
DEFPOINTS
 10
353.99109595372647
 20
65.309931271606501
 30
0.0
 40
1.0
 50
359.99999999999972
 51
78.690067525979913
  0
LINE
  5
9156
  8
DEFPOINTS
 10
349.99109595372647
 20
67.12973517432512
 30
0.0
 11
354.18721208886473
 21
66.290511947297318
 31
0.0
  0
ARC
  5
9157
  8
DEFPOINTS
 10
321.49109595372647
 20
79.129735174325091
 30
0.0
 40
1.0
 50
0.0
 51
89.999999999999986
  0
ARC
  5
9158
  8
DEFPOINTS
 10
327.99109595372647
 20
76.391160519807045
 30
0.0
 40
1.0
 50
0.0
 51
72.897271030947451
  0
ARC
  5
9159
  8
DEFPOINTS
 10
333.99109595372647
 20
73.408975954268939
 30
0.0
 40
1.0
 50
0.0
 51
71.565051177077734
  0
ARC
  5
915A
  8
DEFPOINTS
 10
340.99109595372647
 20
70.375433761570775
 30
0.0
 40
1.0
 50
0.0
 51
74.054604099077153
  0
ARC
  5
915B
  8
DEFPOINTS
 10
348.99109595372647
 20
67.348958767920749
 30
0.0
 40
1.0
 50
0.0
 51
75.963756532073333
  0
LINE
  5
915C
  8
DEFPOINTS
 10
341.99109595372647
 20
70.12973517432512
 30
0.0
 11
349.2336315787627
 21
68.319101268066106
 31
0.0
  0
LINE
  5
915D
  8
DEFPOINTS
 10
334.99109595372647
 20
73.129735174325091
 30
0.0
 11
341.26581708162388
 21
71.336957709211461
 31
0.0
  0
LINE
  5
915E
  8
DEFPOINTS
 10
328.99109595372647
 20
76.129735174325091
 30
0.0
 11
334.30732371974318
 21
74.357659252319323
 31
0.0
  0
LINE
  5
915F
  8
DEFPOINTS
 10
322.49109595372647
 20
79.129735174325091
 30
0.0
 11
328.28518180256373
 21
77.346939528528992
 31
0.0
  0
LINE
  5
9160
  8
DEFPOINTS
 10
349.99109595372647
 20
67.348958767920749
 30
0.0
 11
349.99109595372647
 21
67.12973517432512
 31
0.0
  0
LINE
  5
9161
  8
DEFPOINTS
 10
341.99109595372647
 20
70.375433761570775
 30
0.0
 11
341.99109595372647
 21
70.12973517432512
 31
0.0
  0
LINE
  5
9162
  8
DEFPOINTS
 10
334.99109595372647
 20
73.408975954268939
 30
0.0
 11
334.99109595372647
 21
73.129735174325091
 31
0.0
  0
LINE
  5
9163
  8
DEFPOINTS
 10
328.99109595372647
 20
76.391160519807045
 30
0.0
 11
328.99109595372647
 21
76.129735174325091
 31
0.0
  0
LINE
  5
9164
  8
DEFPOINTS
 10
322.49109595372647
 20
79.129735174325091
 30
0.0
 11
322.49109595372647
 21
79.129735174325091
 31
0.0
  0
LINE
  5
9165
  8
0
 10
348.49109595372647
 20
53.129735174325099
 30
0.0
 11
261.49109595372647
 21
53.129735174325099
 31
0.0
  0
LINE
  5
9166
  8
0
 10
321.49109595372647
 20
80.129735174325091
 30
0.0
 11
288.49109595372647
 21
80.129735174325091
 31
0.0
  0
LINE
  5
9167
  8
0
 10
348.49109595372647
 20
56.129735174325113
 30
0.0
 11
348.49109595372647
 21
53.129735174325099
 31
0.0
  0
LINE
  5
9168
  8
0
 10
354.99109595372647
 20
56.129735174325113
 30
0.0
 11
354.99109595372647
 21
65.309931271606501
 31
0.0
  0
LINE
  5
9169
  8
0
 10
354.99109595372647
 20
56.129735174325113
 30
0.0
 11
254.9910959537265
 21
56.129735174325113
 31
0.0
  0
TEXT
  5
9581
  8
0
 62
     3
 10
0.0
 20
0.0
 30
0.0
 40
10.0
  1
LVER100L24A-SUS
  7
STANDARD1
  0
ENDSEC
  0
EOF
