  0
SECTION
  2
HEADER
  9
$ACADVER
  1
AC1009
  9
$INSBASE
 10
0.0
 20
0.0
 30
0.0
  9
$EXTMIN
 10
0.0
 20
-2.960436562073669
 30
0.0
  9
$EXTMAX
 10
220.05759042163811
 20
224.39814807942099
 30
0.0
  9
$LIMMIN
 10
0.0
 20
0.0
  9
$LIMMAX
 10
375.0
 20
270.0
  9
$ORTHOMODE
 70
     1
  9
$REGENMODE
 70
     1
  9
$FILLMODE
 70
     1
  9
$QTEXTMODE
 70
     0
  9
$MIRRTEXT
 70
     0
  9
$DRAGMODE
 70
     2
  9
$LTSCALE
 40
6.0
  9
$OSMODE
 70
    37
  9
$ATTMODE
 70
     1
  9
$TEXTSIZE
 40
0.2
  9
$TRACEWID
 40
0.05
  9
$TEXTSTYLE
  7
STANDARD
  9
$CLAYER
  8
0
  9
$CELTYPE
  6
BYLAYER
  9
$CECOLOR
 62
   256
  9
$DIMSCALE
 40
1.0
  9
$DIMASZ
 40
3.0
  9
$DIMEXO
 40
1.0
  9
$DIMDLI
 40
6.0
  9
$DIMRND
 40
0.0
  9
$DIMDLE
 40
0.0
  9
$DIMEXE
 40
1.0
  9
$DIMTP
 40
495.0
  9
$DIMTM
 40
0.0
  9
$DIMTXT
 40
3.0
  9
$DIMCEN
 40
0.0
  9
$DIMTSZ
 40
0.0
  9
$DIMTOL
 70
     0
  9
$DIMLIM
 70
     0
  9
$DIMTIH
 70
     0
  9
$DIMTOH
 70
     0
  9
$DIMSE1
 70
     0
  9
$DIMSE2
 70
     0
  9
$DIMTAD
 70
     1
  9
$DIMZIN
 70
     0
  9
$DIMBLK
  1

  9
$DIMASO
 70
     0
  9
$DIMSHO
 70
     0
  9
$DIMPOST
  1

  9
$DIMAPOST
  1

  9
$DIMALT
 70
     0
  9
$DIMALTD
 70
     2
  9
$DIMALTF
 40
25.399999999999999
  9
$DIMLFAC
 40
1.0
  9
$DIMTOFL
 70
     1
  9
$DIMTVP
 40
0.0
  9
$DIMTIX
 70
     1
  9
$DIMSOXD
 70
     0
  9
$DIMSAH
 70
     0
  9
$DIMBLK1
  1

  9
$DIMBLK2
  1

  9
$DIMSTYLE
  2
STANDARD
  9
$DIMCLRD
 70
     0
  9
$DIMCLRE
 70
     0
  9
$DIMCLRT
 70
     4
  9
$DIMTFAC
 40
1.0
  9
$DIMGAP
 40
1.0
  9
$LUNITS
 70
     2
  9
$LUPREC
 70
     4
  9
$SKETCHINC
 40
0.1
  9
$FILLETRAD
 40
2.0
  9
$AUNITS
 70
     0
  9
$AUPREC
 70
     0
  9
$MENU
  1
C:\R13\WIN\SUPPORT\ACAD-I
  9
$ELEVATION
 40
0.0
  9
$PELEVATION
 40
0.0
  9
$THICKNESS
 40
0.0
  9
$LIMCHECK
 70
     0
  9
$BLIPMODE
 70
     0
  9
$CHAMFERA
 40
0.0
  9
$CHAMFERB
 40
0.0
  9
$SKPOLY
 70
     0
  9
$TDCREATE
 40
2451962.4368592598
  9
$TDUPDATE
 40
2456598.7210226501
  9
$TDINDWG
 40
0.040753206
  9
$TDUSRTIMER
 40
2456598.0546471411
  9
$USRTIMER
 70
     1
  9
$ANGBASE
 50
0.0
  9
$ANGDIR
 70
     0
  9
$PDMODE
 70
     0
  9
$PDSIZE
 40
0.0
  9
$PLINEWID
 40
0.0
  9
$COORDS
 70
     1
  9
$SPLFRAME
 70
     0
  9
$SPLINETYPE
 70
     6
  9
$SPLINESEGS
 70
     8
  9
$ATTDIA
 70
     0
  9
$ATTREQ
 70
     1
  9
$HANDLING
 70
     1
  9
$HANDSEED
  5
4905
  9
$SURFTAB1
 70
     6
  9
$SURFTAB2
 70
     6
  9
$SURFTYPE
 70
     6
  9
$SURFU
 70
     6
  9
$SURFV
 70
     6
  9
$UCSNAME
  2

  9
$UCSORG
 10
0.0
 20
0.0
 30
0.0
  9
$UCSXDIR
 10
1.0
 20
0.0
 30
0.0
  9
$UCSYDIR
 10
0.0
 20
1.0
 30
0.0
  9
$PUCSNAME
  2

  9
$PUCSORG
 10
0.0
 20
0.0
 30
0.0
  9
$PUCSXDIR
 10
1.0
 20
0.0
 30
0.0
  9
$PUCSYDIR
 10
0.0
 20
1.0
 30
0.0
  9
$USERI1
 70
     4
  9
$USERI2
 70
     1
  9
$USERI3
 70
     0
  9
$USERI4
 70
     0
  9
$USERI5
 70
     0
  9
$USERR1
 40
1.0
  9
$USERR2
 40
3.0
  9
$USERR3
 40
3.0
  9
$USERR4
 40
3.0
  9
$USERR5
 40
10.0
  9
$WORLDVIEW
 70
     1
  9
$SHADEDGE
 70
     3
  9
$SHADEDIF
 70
    70
  9
$TILEMODE
 70
     1
  9
$MAXACTVP
 70
    16
  9
$PLIMCHECK
 70
     0
  9
$PEXTMIN
 10
1.0000000000000000E+020
 20
1.0000000000000000E+020
 30
1.0000000000000000E+020
  9
$PEXTMAX
 10
-1.0000000000000000E+020
 20
-1.0000000000000000E+020
 30
-1.0000000000000000E+020
  9
$PLIMMIN
 10
0.0
 20
0.0
  9
$PLIMMAX
 10
12.0
 20
9.0
  9
$UNITMODE
 70
     0
  9
$VISRETAIN
 70
     0
  9
$PLINEGEN
 70
     0
  9
$PSLTSCALE
 70
     0
  0
ENDSEC
  0
SECTION
  2
TABLES
  0
TABLE
  2
VPORT
 70
     1
  0
VPORT
  2
*ACTIVE
 70
     0
 10
0.0
 20
0.0
 11
1.0
 21
1.0
 12
187.49427839065231
 22
177.52205812711131
 13
0.0
 23
0.0
 14
10.0
 24
10.0
 15
10.0
 25
10.0
 16
0.0
 26
0.0
 36
1.0
 17
0.0
 27
0.0
 37
0.0
 40
364.13085016302909
 41
1.755244755244755
 42
50.0
 43
0.0
 44
0.0
 50
0.0
 51
0.0
 71
    16
 72
   100
 73
     1
 74
     0
 75
     0
 76
     0
 77
     0
 78
     0
  0
ENDTAB
  0
TABLE
  2
LTYPE
 70
     3
  0
LTYPE
  2
CONTINUOUS
 70
     0
  3
Solid Line
 72
    65
 73
     0
 40
0.0
  0
LTYPE
  2
PHANTOM2
 70
     0
  3
___ _ _ ___ _ _ ___ _ _ ___ _ _
 72
    65
 73
     6
 40
1.25
 49
0.625
 49
-0.125
 49
0.125
 49
-0.125
 49
0.125
 49
-0.125
  0
LTYPE
  2
CENTER
 70
     0
  3
____ _ ____ _ ____ _ ____ _ ____ _ ____ _ ____
 72
    65
 73
     4
 40
2.0
 49
1.25
 49
-0.25
 49
0.25
 49
-0.25
  0
ENDTAB
  0
TABLE
  2
LAYER
 70
     3
  0
LAYER
  2
0
 70
     0
 62
     7
  6
CONTINUOUS
  0
LAYER
  2
1
 70
     0
 62
     1
  6
CENTER
  0
LAYER
  2
3
 70
     0
 62
     3
  6
CONTINUOUS
  0
ENDTAB
  0
TABLE
  2
STYLE
 70
     3
  0
STYLE
  2
STANDARD
 70
     0
 40
0.0
 41
1.0
 50
0.0
 71
     0
 42
0.2
  3
SIMPLEX
  4
BIGFONT
  0
STYLE
  2
ANNOTATIVE
 70
     0
 40
0.0
 41
1.0
 50
0.0
 71
     0
 42
0.2
  3
txt
  4

  0
STYLE
  2
STANDARD1
 70
     0
 40
0.0
 41
1.0
 50
0.0
 71
     0
 42
3.0
  3
txt
  4

  0
ENDTAB
  0
TABLE
  2
VIEW
 70
     0
  0
ENDTAB
  0
TABLE
  2
UCS
 70
     0
  0
ENDTAB
  0
TABLE
  2
APPID
 70
    29
  0
APPID
  2
ACAD
 70
     0
  0
APPID
  2
ACADANNOTATIVE
 70
     0
  0
APPID
  2
GENIUS_GENOREF_13
 70
     0
  0
APPID
  2
GENIUS_GENOENT_13
 70
     0
  0
APPID
  2
GENIUS_GENBH_13
 70
     0
  0
APPID
  2
GENIUS_GENOBJ_13
 70
     0
  0
APPID
  2
GENIUS_GENODEF_13
 70
     0
  0
APPID
  2
GENIUS_GENOLIS_13
 70
     0
  0
APPID
  2
GENIUS_GENOBJ-NBEHI-BHF_13
 70
     0
  0
APPID
  2
GENIUS_GENOBJ-NBEHI-BHB_13
 70
     0
  0
APPID
  2
GENIUS_GENOBJ-F-PART_13
 70
     0
  0
APPID
  2
GENIUS_GEFSTDP_13
 70
     0
  0
APPID
  2
GENIUS_GENOBJ-N-RSSYM_13
 70
     0
  0
APPID
  2
GENIUS_GENSYMENT_13
 70
     0
  0
APPID
  2
GENIUS_GENOBJ-N-TIT_13
 70
     0
  0
APPID
  2
GENIUS_GENTITLE_13
 70
     0
  0
APPID
  2
GENIUS_GENZVEED_13
 70
     0
  0
APPID
  2
GENIUS_GENOBJ-N-LEADER_13
 70
     0
  0
APPID
  2
GENIUS_GENOBJ-N-FIL_13
 70
     0
  0
APPID
  2
GENIUS_GENOBJ-N-SEC_13
 70
     0
  0
APPID
  2
GENIUS_GENOBJ-N-CRS_13
 70
     0
  0
APPID
  2
GENIUS_GENOBJ-N-ZOO_13
 70
     0
  0
APPID
  2
GENIUS_GENZOO_13
 70
     0
  0
APPID
  2
GENIUS_GENOBJ-F-TOL_13
 70
     0
  0
APPID
  2
GENIUS_GENFIL_13
 70
     0
  0
APPID
  2
GENIUS_GENOBJ-N-CHA_13
 70
     0
  0
APPID
  2
ACAD_EXEMPT_FROM_CAD_STANDARDS
 70
     0
  0
APPID
  2
ACAD_MLEADERVER
 70
     0
  0
APPID
  2
ACAD_NAV_VCDISPLAY
 70
     0
  0
ENDTAB
  0
TABLE
  2
DIMSTYLE
 70
     2
  0
DIMSTYLE
  2
STANDARD
 70
     0
  3

  4

  5

  6

  7

 40
1.0
 41
0.18
 42
0.0625
 43
0.38
 44
0.18
 45
0.0
 46
0.0
 47
0.0
 48
0.0
140
0.18
141
0.09
142
0.0
143
25.399999999999999
144
1.0
145
0.0
146
1.0
147
0.09
 71
     0
 72
     0
 73
     1
 74
     1
 75
     0
 76
     0
 77
     0
 78
     0
170
     0
171
     2
172
     0
173
     0
174
     0
175
     0
176
     0
177
     0
178
     0
  0
DIMSTYLE
  2
ANNOTATIVE
 70
     0
  3

  4

  5

  6

  7

 40
1.0
 41
0.18
 42
0.0625
 43
0.38
 44
0.18
 45
0.0
 46
0.0
 47
0.0
 48
0.0
140
0.18
141
0.09
142
0.0
143
25.399999999999999
144
1.0
145
0.0
146
1.0
147
0.09
 71
     0
 72
     0
 73
     1
 74
     1
 75
     0
 76
     0
 77
     0
 78
     0
170
     0
171
     2
172
     0
173
     0
174
     0
175
     0
176
     0
177
     0
178
     0
  0
ENDTAB
  0
ENDSEC
  0
SECTION
  2
BLOCKS
  0
BLOCK
  8
0
  2
$MODEL_SPACE
 70
     0
 10
0.0
 20
0.0
 30
0.0
  3
$MODEL_SPACE
  1

  0
ENDBLK
  5
47CC
  8
0
  0
BLOCK
 67
     1
  8
0
  2
$PAPER_SPACE
 70
     0
 10
0.0
 20
0.0
 30
0.0
  3
$PAPER_SPACE
  1

  0
ENDBLK
  5
47C8
 67
     1
  8
0
  0
ENDSEC
  0
SECTION
  2
ENTITIES
  0
LINE
  5
43EC
  8
1
 10
57.77980351845234
 20
22.57801499968496
 30
0.0
 11
57.77980351845234
 21
111.5780149996849
 31
0.0
  0
ARC
  5
43ED
  8
0
 10
61.27980351845224
 20
68.842696217812602
 30
0.0
 40
10.10924076103746
 50
249.74384199958311
 51
290.25615800041692
  0
LINE
  5
43EE
  8
0
 10
64.779803518452354
 20
58.733455456775161
 30
0.0
 11
64.510572749220344
 21
58.578014999684967
 31
0.0
  0
LINE
  5
43EF
  8
0
 10
50.779803518452333
 20
58.733455456775161
 30
0.0
 11
51.049034287684357
 21
58.578014999684967
 31
0.0
  0
ARC
  5
43F0
  8
0
 10
54.279803518452489
 20
68.842696217812602
 30
0.0
 40
10.10924076103746
 50
249.74384199958311
 51
290.25615800041692
  0
LINE
  5
43F1
  8
0
 10
64.510572749220344
 20
58.578014999684967
 30
0.0
 11
51.049034287684357
 21
58.578014999684967
 31
0.0
  0
ARC
  5
43F2
  8
0
 10
61.27980351845224
 20
53.31333378155729
 30
0.0
 40
10.10924076103746
 50
69.743841999583069
 51
110.2561580004169
  0
LINE
  5
43F3
  8
0
 10
64.779803518452354
 20
63.422574542594703
 30
0.0
 11
64.510572749220344
 21
63.578014999684967
 31
0.0
  0
LINE
  5
43F4
  8
0
 10
50.779803518452333
 20
63.422574542594703
 30
0.0
 11
51.049034287684357
 21
63.578014999684967
 31
0.0
  0
ARC
  5
43F5
  8
0
 10
54.279803518452489
 20
53.31333378155729
 30
0.0
 40
10.10924076103746
 50
69.743841999583069
 51
110.2561580004169
  0
LINE
  5
43F6
  8
0
 10
64.510572749220344
 20
63.578014999684967
 30
0.0
 11
51.049034287684357
 21
63.578014999684967
 31
0.0
  0
LINE
  5
43F7
  8
0
 10
64.779803518452354
 20
63.422574542594703
 30
0.0
 11
64.779803518452354
 21
58.733455456775161
 31
0.0
  0
LINE
  5
43F8
  8
0
 10
50.779803518452333
 20
63.422574542594703
 30
0.0
 11
50.779803518452333
 21
58.733455456775161
 31
0.0
  0
LINE
  5
43F9
  8
0
 10
57.77980351845234
 20
62.797359760255517
 30
0.0
 11
57.779803518452333
 21
59.358670239114389
 31
0.0
  0
LINE
  5
43FA
  8
3
 10
61.103303518452464
 20
65.578014999685024
 30
0.0
 11
61.77980351845234
 21
64.40628262836492
 31
0.0
  0
LINE
  5
43FB
  8
3
 10
54.456303518452238
 20
65.578014999685024
 30
0.0
 11
53.77980351845239
 21
64.40628262836492
 31
0.0
  0
LINE
  5
43FC
  8
0
 10
53.77980351845234
 20
65.578014999685024
 30
0.0
 11
61.779803518452397
 21
65.578014999684967
 31
0.0
  0
LINE
  5
43FD
  8
0
 10
53.77980351845234
 20
105.37801499968501
 30
0.0
 11
61.779803518452397
 21
105.37801499968489
 31
0.0
  0
LINE
  5
43FE
  8
0
 10
60.57980351845238
 20
106.5780149996849
 30
0.0
 11
61.779803518452397
 21
105.37801499968489
 31
0.0
  0
LINE
  5
43FF
  8
0
 10
53.779803518452397
 20
105.37801499968489
 30
0.0
 11
54.9798035184524
 21
106.5780149996849
 31
0.0
  0
LINE
  5
4400
  8
0
 10
53.77980351845234
 20
63.578014999684967
 30
0.0
 11
53.77980351845239
 21
76.57801499968491
 31
0.0
  0
LINE
  5
4401
  8
3
 10
54.45630351845228
 20
65.578014999685024
 30
0.0
 11
54.45630351845228
 21
76.57801499968491
 31
0.0
  0
LINE
  5
4402
  8
3
 10
61.103303518452492
 20
65.578014999684967
 30
0.0
 11
61.103303518452492
 21
76.578014999684939
 31
0.0
  0
LINE
  5
4403
  8
0
 10
61.779803518452383
 20
63.578014999684967
 30
0.0
 11
61.77980351845234
 21
76.57801499968491
 31
0.0
  0
LINE
  5
4404
  8
0
 10
54.9798035184524
 20
106.5780149996849
 30
0.0
 11
60.57980351845238
 21
106.5780149996849
 31
0.0
  0
LINE
  5
4405
  8
0
 10
52.279803518452461
 20
54.57801499968496
 30
0.0
 11
52.279803518452503
 21
58.578014999684967
 31
0.0
  0
LINE
  5
4406
  8
0
 10
63.279803518452482
 20
54.57801499968496
 30
0.0
 11
63.279803518452489
 21
58.578014999684967
 31
0.0
  0
ARC
  5
4407
  8
0
 10
52.150638393854877
 20
79.611107859436856
 30
0.0
 40
3.3225695729499729
 50
55.615752531961263
 51
115.61575253217561
  0
ARC
  5
4408
  8
0
 10
57.779803518454337
 20
70.514234015994475
 30
0.0
 40
12.41944341639239
 50
72.412046225996932
 51
107.5879537740046
  0
LINE
  5
4409
  8
0
 10
50.274250018988539
 20
82.353120848786091
 30
0.0
 11
51.529803518454798
 21
83.07801499968491
 31
0.0
  0
LINE
  5
440A
  8
0
 10
50.274250018988539
 20
77.30290915058373
 30
0.0
 11
51.529803518454798
 21
76.57801499968491
 31
0.0
  0
ARC
  5
440B
  8
0
 10
52.150638393854877
 20
80.04492213993295
 30
0.0
 40
3.3225695729499729
 50
244.38424746782439
 51
304.38424746803872
  0
ARC
  5
440C
  8
0
 10
57.779803518454337
 20
89.141795983375346
 30
0.0
 40
12.41944341639239
 50
252.4120462259954
 51
287.5879537740031
  0
LINE
  5
440D
  8
0
 10
50.274250018988539
 20
82.353120848786091
 30
0.0
 11
50.274250018988539
 21
77.30290915058373
 31
0.0
  0
LINE
  5
440E
  8
0
 10
54.027026768722799
 20
82.353120848786091
 30
0.0
 11
54.02702676872098
 21
77.302909150585265
 31
0.0
  0
LINE
  5
440F
  8
0
 10
61.532580268184063
 20
82.353120848786091
 30
0.0
 11
61.532580268185882
 21
77.302909150585265
 31
0.0
  0
LINE
  5
4410
  8
0
 10
65.285357017918329
 20
82.353120848786091
 30
0.0
 11
65.285357017918329
 21
77.30290915058373
 31
0.0
  0
ARC
  5
4411
  8
0
 10
63.408968643051999
 20
80.04492213993295
 30
0.0
 40
3.3225695729499729
 50
235.61575253196131
 51
295.61575253217552
  0
LINE
  5
4412
  8
0
 10
65.285357017918329
 20
77.30290915058373
 30
0.0
 11
64.02980351845207
 21
76.57801499968491
 31
0.0
  0
LINE
  5
4413
  8
0
 10
65.285357017918329
 20
82.353120848786091
 30
0.0
 11
64.02980351845207
 21
83.07801499968491
 31
0.0
  0
ARC
  5
4414
  8
0
 10
63.408968643051999
 20
79.611107859436856
 30
0.0
 40
3.3225695729499729
 50
64.384247467824224
 51
124.38424746803869
  0
LINE
  5
4415
  8
0
 10
51.529803518453647
 20
83.07801499968491
 30
0.0
 11
64.029803518451843
 21
83.07801499968491
 31
0.0
  0
LINE
  5
4416
  8
0
 10
64.02980351845207
 20
76.57801499968491
 30
0.0
 11
51.529803518455033
 21
76.57801499968491
 31
0.0
  0
LINE
  5
4417
  8
0
 10
61.77980351845234
 20
83.07801499968491
 30
0.0
 11
61.779803518452397
 21
105.37801499968489
 31
0.0
  0
LINE
  5
4418
  8
3
 10
61.103303518452492
 20
83.07801499968491
 30
0.0
 11
61.103303518452492
 21
106.0545149996848
 31
0.0
  0
LINE
  5
4419
  8
3
 10
54.45630351845228
 20
83.07801499968491
 30
0.0
 11
54.45630351845228
 21
106.0545149996849
 31
0.0
  0
LINE
  5
441A
  8
0
 10
53.77980351845239
 20
83.07801499968491
 30
0.0
 11
53.779803518452397
 21
105.37801499968489
 31
0.0
  0
CIRCLE
  5
441B
  8
0
 10
57.77980351845234
 20
178.68386236513521
 30
0.0
 40
4.0
  0
CIRCLE
  5
441C
  8
3
 10
57.77980351845234
 20
178.68386236513521
 30
0.0
 40
3.3235000000000001
  0
CIRCLE
  5
441D
  8
0
 10
57.77980351845234
 20
178.68386236513521
 30
0.0
 40
6.25
  0
LINE
  5
441E
  8
0
 10
50.274250018987537
 20
178.68386236513521
 30
0.0
 11
54.027026768719921
 21
172.1838623651355
 31
0.0
  0
LINE
  5
441F
  8
0
 10
54.027026768719921
 20
185.18386236513501
 30
0.0
 11
50.274250018987537
 21
178.68386236513521
 31
0.0
  0
LINE
  5
4420
  8
0
 10
61.532580268184716
 20
185.18386236513501
 30
0.0
 11
54.027026768719921
 21
185.18386236513501
 31
0.0
  0
LINE
  5
4421
  8
0
 10
65.285357017917093
 20
178.68386236513521
 30
0.0
 11
61.532580268184716
 21
185.18386236513501
 31
0.0
  0
LINE
  5
4422
  8
0
 10
61.532580268184716
 20
172.1838623651355
 30
0.0
 11
65.285357017917093
 21
178.68386236513521
 31
0.0
  0
LINE
  5
4423
  8
0
 10
54.027026768719921
 20
172.1838623651355
 30
0.0
 11
61.532580268184716
 21
172.1838623651355
 31
0.0
  0
CIRCLE
  5
4424
  8
0
 10
57.77980351845234
 20
178.68386236513521
 30
0.0
 40
14.99999999999997
  0
CIRCLE
  5
4425
  8
0
 10
57.77980351845234
 20
178.68386236513521
 30
0.0
 40
20.850443051075668
  0
CIRCLE
  5
4426
  8
0
 10
57.77980351845234
 20
178.68386236513521
 30
0.0
 40
27.5
  0
CIRCLE
  5
4427
  8
0
 10
57.77980351845234
 20
178.68386236513521
 30
0.0
 40
33.5
  0
LINE
  5
4428
  8
0
 10
24.279803518452379
 20
30.578014999684971
 30
0.0
 11
24.279803518452351
 21
27.578014999684939
 31
0.0
  0
LINE
  5
4429
  8
0
 10
17.77980351845229
 20
30.578014999684971
 30
0.0
 11
17.779803518452258
 21
39.422719667974611
 31
0.0
  0
LINE
  5
442A
  8
0
 10
24.279803518452351
 20
42.609518766219537
 30
0.0
 11
24.279803518452351
 21
43.45090584696694
 31
0.0
  0
LINE
  5
442B
  8
0
 10
24.279803518452351
 20
42.609518766219537
 30
0.0
 11
18.420824439143392
 21
40.356065274177659
 31
0.0
  0
LINE
  5
442C
  8
0
 10
30.279803518452351
 20
46.980543728284893
 30
0.0
 11
24.844327336064278
 21
44.351106099451201
 31
0.0
  0
LINE
  5
442D
  8
0
 10
36.929360467376682
 20
49.876753597945083
 30
0.0
 11
31.051704404984239
 21
48.49976517855881
 31
0.0
  0
LINE
  5
442E
  8
0
 10
42.779803518452347
 20
52.980543728284879
 30
0.0
 11
37.619639968662312
 21
51.299683443493741
 31
0.0
  0
LINE
  5
442F
  8
0
 10
42.779803518452383
 20
53.578014999684932
 30
0.0
 11
42.779803518452383
 21
52.9805437282849
 31
0.0
  0
LINE
  5
4430
  8
0
 10
30.279803518452329
 20
46.980543728284879
 30
0.0
 11
30.279803518452329
 21
47.526127261037587
 31
0.0
  0
LINE
  5
4431
  8
0
 10
36.929360467376682
 20
49.876753597945061
 30
0.0
 11
36.929360467376682
 21
50.348855797347447
 31
0.0
  0
ARC
  5
4432
  8
0
 10
43.77980351845239
 20
53.578014999684967
 30
0.0
 40
1.0
 50
90.0
 51
180.0000000000008
  0
ARC
  5
4433
  8
0
 10
37.929360467376682
 20
50.348855797347447
 30
0.0
 40
1.0
 50
108.0423872583583
 51
180.0
  0
ARC
  5
4434
  8
0
 10
31.279803518452329
 20
47.526127261037587
 30
0.0
 40
1.0
 50
103.1851843997528
 51
180.0
  0
ARC
  5
4435
  8
0
 10
18.779803518452258
 20
39.422719667974611
 30
0.0
 40
1.0
 50
111.03751102542159
 51
180.0
  0
ARC
  5
4436
  8
0
 10
25.279803518452351
 20
43.45090584696694
 30
0.0
 40
1.0
 50
115.8155979716511
 51
180.0
  0
LINE
  5
4437
  8
0
 10
91.279803518452354
 20
27.578014999684939
 30
0.0
 11
24.279803518452351
 21
27.57801499968501
 31
0.0
  0
ARC
  5
4438
  8
0
 10
90.279803518452354
 20
43.45090584696694
 30
0.0
 40
1.0
 50
0.0
 51
64.184402028349112
  0
ARC
  5
4439
  8
0
 10
96.779803518452454
 20
39.422719667974611
 30
0.0
 40
1.0
 50
0.0
 51
68.962488974578207
  0
ARC
  5
443A
  8
0
 10
84.279803518452383
 20
47.526127261037587
 30
0.0
 40
1.0
 50
0.0
 51
76.814815600247385
  0
ARC
  5
443B
  8
0
 10
77.630246569528012
 20
50.348855797347447
 30
0.0
 40
1.0
 50
0.0
 51
71.957612741641725
  0
ARC
  5
443C
  8
0
 10
71.779803518452326
 20
53.578014999684967
 30
0.0
 40
1.0
 50
359.99999999999881
 51
90.0
  0
LINE
  5
443D
  8
0
 10
78.630246569528012
 20
49.876753597945061
 30
0.0
 11
78.630246569528012
 21
50.348855797347447
 31
0.0
  0
LINE
  5
443E
  8
0
 10
85.279803518452383
 20
46.980543728284879
 30
0.0
 11
85.279803518452383
 21
47.526127261037587
 31
0.0
  0
LINE
  5
443F
  8
0
 10
72.779803518452312
 20
53.578014999684932
 30
0.0
 11
72.779803518452312
 21
52.9805437282849
 31
0.0
  0
LINE
  5
4440
  8
0
 10
72.77980351845234
 20
52.980543728284879
 30
0.0
 11
77.939967068242382
 21
51.299683443493741
 31
0.0
  0
LINE
  5
4441
  8
0
 10
72.779803518452283
 20
52.980543728284879
 30
0.0
 11
42.779803518452347
 21
52.98054372828485
 31
0.0
  0
LINE
  5
4442
  8
0
 10
78.630246569528012
 20
49.876753597945083
 30
0.0
 11
84.507902631920444
 21
48.49976517855881
 31
0.0
  0
LINE
  5
4443
  8
0
 10
85.279803518452354
 20
46.980543728284893
 30
0.0
 11
90.715279700840412
 21
44.351106099451201
 31
0.0
  0
LINE
  5
4444
  8
0
 10
91.279803518452354
 20
42.609518766219537
 30
0.0
 11
97.138782597761306
 21
40.356065274177659
 31
0.0
  0
LINE
  5
4445
  8
0
 10
91.279803518452354
 20
42.609518766219537
 30
0.0
 11
91.279803518452354
 21
43.45090584696694
 31
0.0
  0
LINE
  5
4446
  8
0
 10
71.779803518452326
 20
54.57801499968496
 30
0.0
 11
43.77980351845239
 21
54.57801499968496
 31
0.0
  0
LINE
  5
4447
  8
0
 10
78.630246569528111
 20
49.876753597945083
 30
0.0
 11
36.929360467376682
 21
49.876753597945061
 31
0.0
  0
LINE
  5
4448
  8
0
 10
85.279803518452354
 20
46.980543728284879
 30
0.0
 11
30.279803518452329
 21
46.980543728284893
 31
0.0
  0
LINE
  5
4449
  8
0
 10
91.279803518452354
 20
42.609518766219537
 30
0.0
 11
24.279803518452351
 21
42.609518766219537
 31
0.0
  0
LINE
  5
444A
  8
1
 10
103.49408923273811
 20
178.68386236513521
 30
0.0
 11
12.06551780416657
 21
178.68386236513521
 31
0.0
  0
LINE
  5
444B
  8
1
 10
57.77980351845234
 20
224.39814807942099
 30
0.0
 11
57.77980351845234
 21
132.96957665084949
 31
0.0
  0
CIRCLE
  5
444C
  8
0
 10
57.77980351845234
 20
178.68386236513521
 30
0.0
 40
40.00000000000005
  0
LINE
  5
444D
  8
0
 10
91.279803518452326
 20
30.578014999684971
 30
0.0
 11
91.279803518452354
 21
27.578014999684939
 31
0.0
  0
LINE
  5
444E
  8
0
 10
97.779803518452425
 20
30.578014999684971
 30
0.0
 11
97.779803518452425
 21
39.422719667974611
 31
0.0
  0
LINE
  5
444F
  8
0
 10
97.779803518452425
 20
30.57801499968495
 30
0.0
 11
17.77980351845229
 21
30.578014999684981
 31
0.0
  0
LINE
  5
4454
  8
0
 10
185.55759042163811
 20
54.57801499968496
 30
0.0
 11
185.55759042163811
 21
58.578014999685081
 31
0.0
  0
LINE
  5
4455
  8
0
 10
174.55759042163811
 20
54.57801499968496
 30
0.0
 11
174.55759042163811
 21
58.578014999685081
 31
0.0
  0
LINE
  5
4456
  8
0
 10
177.2575904216379
 20
106.5780149996849
 30
0.0
 11
182.85759042163801
 21
106.5780149996849
 31
0.0
  0
LINE
  5
4457
  8
0
 10
184.057590421638
 20
63.578014999684932
 30
0.0
 11
184.057590421638
 21
76.57801499968491
 31
0.0
  0
LINE
  5
4458
  8
3
 10
183.38109042163811
 20
65.578014999684967
 30
0.0
 11
183.38109042163811
 21
76.57801499968491
 31
0.0
  0
LINE
  5
4459
  8
3
 10
176.73409042163789
 20
65.578014999685024
 30
0.0
 11
176.73409042163789
 21
76.57801499968491
 31
0.0
  0
LINE
  5
445A
  8
0
 10
176.057590421638
 20
63.578014999684932
 30
0.0
 11
176.057590421638
 21
76.57801499968491
 31
0.0
  0
LINE
  5
445B
  8
0
 10
176.057590421638
 20
105.37801499968489
 30
0.0
 11
177.2575904216379
 21
106.5780149996849
 31
0.0
  0
LINE
  5
445C
  8
0
 10
182.85759042163801
 20
106.5780149996849
 30
0.0
 11
184.057590421638
 21
105.37801499968489
 31
0.0
  0
LINE
  5
445D
  8
0
 10
176.057590421638
 20
105.37801499968501
 30
0.0
 11
184.057590421638
 21
105.37801499968489
 31
0.0
  0
LINE
  5
445E
  8
0
 10
176.057590421638
 20
65.578014999685024
 30
0.0
 11
184.057590421638
 21
65.578014999684967
 31
0.0
  0
LINE
  5
445F
  8
3
 10
176.73409042163789
 20
65.578014999685024
 30
0.0
 11
176.057590421638
 21
64.40628262836492
 31
0.0
  0
LINE
  5
4460
  8
3
 10
183.38109042163811
 20
65.578014999685024
 30
0.0
 11
184.057590421638
 21
64.40628262836492
 31
0.0
  0
LINE
  5
4461
  8
0
 10
186.55759042163811
 20
82.933677432386844
 30
0.0
 11
186.307590421637
 21
83.07801499968491
 31
0.0
  0
ARC
  5
4462
  8
0
 10
183.30759042163811
 20
73.546525297138146
 30
0.0
 40
9.3871521352487513
 50
69.743841999583196
 51
110.2561580004166
  0
ARC
  5
4463
  8
0
 10
183.30759042163811
 20
86.109504702231661
 30
0.0
 40
9.3871521352487513
 50
249.7438419995832
 51
290.25615800041658
  0
LINE
  5
4464
  8
0
 10
186.55759042163811
 20
76.722352566982977
 30
0.0
 11
186.307590421637
 21
76.57801499968491
 31
0.0
  0
LINE
  5
4465
  8
0
 10
186.55759042163811
 20
82.933677432386844
 30
0.0
 11
186.55759042163811
 21
76.722352566982977
 31
0.0
  0
LINE
  5
4466
  8
0
 10
180.05759042163839
 20
82.353120848785693
 30
0.0
 11
180.05759042163839
 21
77.30290915058373
 31
0.0
  0
LINE
  5
4467
  8
0
 10
173.55759042163859
 20
82.933677432386844
 30
0.0
 11
173.55759042163859
 21
76.722352566982977
 31
0.0
  0
LINE
  5
4468
  8
0
 10
173.55759042163859
 20
76.722352566982977
 30
0.0
 11
173.80759042163959
 21
76.57801499968491
 31
0.0
  0
ARC
  5
4469
  8
0
 10
176.80759042163859
 20
86.109504702231661
 30
0.0
 40
9.3871521352487513
 50
249.7438419995832
 51
290.25615800041669
  0
ARC
  5
446A
  8
0
 10
176.80759042163859
 20
73.546525297138146
 30
0.0
 40
9.3871521352487513
 50
69.743841999583196
 51
110.2561580004166
  0
LINE
  5
446B
  8
0
 10
173.55759042163859
 20
82.933677432386844
 30
0.0
 11
173.80759042163959
 21
83.07801499968491
 31
0.0
  0
LINE
  5
446C
  8
0
 10
173.80759042163959
 20
83.07801499968491
 30
0.0
 11
186.307590421637
 21
83.07801499968491
 31
0.0
  0
LINE
  5
446D
  8
0
 10
186.307590421637
 20
76.57801499968491
 30
0.0
 11
173.80759042163959
 21
76.57801499968491
 31
0.0
  0
ARC
  5
446E
  8
0
 10
173.995412595147
 20
59.84442269480229
 30
0.0
 40
3.5781518477924039
 50
55.615752531961178
 51
115.6157525321737
  0
ARC
  5
446F
  8
0
 10
180.05759042163899
 20
50.047789324940929
 30
0.0
 40
13.374785217653811
 50
72.412046225997088
 51
107.5879537740046
  0
LINE
  5
4470
  8
0
 10
171.97468665298311
 20
62.797359760255432
 30
0.0
 11
173.32682119086999
 21
63.578014999684967
 31
0.0
  0
LINE
  5
4471
  8
0
 10
171.97468665298311
 20
59.35867023911463
 30
0.0
 11
173.32682119086999
 21
58.578014999685081
 31
0.0
  0
ARC
  5
4472
  8
0
 10
173.995412595147
 20
62.311607304567751
 30
0.0
 40
3.5781518477924039
 50
244.3842474678259
 51
304.38424746803878
  0
ARC
  5
4473
  8
0
 10
180.05759042163899
 20
72.108240674429112
 30
0.0
 40
13.374785217653811
 50
252.4120462259954
 51
287.58795377400293
  0
LINE
  5
4474
  8
0
 10
171.97468665298311
 20
62.797359760255432
 30
0.0
 11
171.97468665298311
 21
59.35867023911463
 31
0.0
  0
LINE
  5
4475
  8
0
 10
176.01613853731229
 20
62.79735976025426
 30
0.0
 11
176.01613853731061
 21
59.3586702391163
 31
0.0
  0
LINE
  5
4476
  8
0
 10
184.09904230596359
 20
62.797359760255958
 30
0.0
 11
184.09904230596541
 21
59.3586702391163
 31
0.0
  0
LINE
  5
4477
  8
0
 10
188.14049419029271
 20
62.797359760255461
 30
0.0
 11
188.14049419029271
 21
59.35867023911463
 31
0.0
  0
ARC
  5
4478
  8
0
 10
186.11976824812891
 20
62.311607304567751
 30
0.0
 40
3.5781518477924039
 50
235.61575253196119
 51
295.6157525321737
  0
LINE
  5
4479
  8
0
 10
188.14049419029271
 20
59.35867023911463
 30
0.0
 11
186.788359652406
 21
58.578014999685081
 31
0.0
  0
LINE
  5
447A
  8
0
 10
188.14049419029271
 20
62.797359760255432
 30
0.0
 11
186.788359652406
 21
63.578014999684967
 31
0.0
  0
ARC
  5
447B
  8
0
 10
186.11976824812891
 20
59.84442269480229
 30
0.0
 40
3.5781518477924039
 50
64.384247467825787
 51
124.38424746803869
  0
LINE
  5
447C
  8
0
 10
173.3268211908688
 20
63.578014999684967
 30
0.0
 11
186.7883596524058
 21
63.578014999684967
 31
0.0
  0
LINE
  5
447D
  8
0
 10
186.788359652406
 20
58.578014999685081
 30
0.0
 11
173.32682119087011
 21
58.578014999685081
 31
0.0
  0
LINE
  5
447E
  8
3
 10
183.38109042163811
 20
83.078014999684939
 30
0.0
 11
183.38109042163811
 21
106.0545149996848
 31
0.0
  0
LINE
  5
447F
  8
0
 10
184.057590421638
 20
83.07801499968491
 30
0.0
 11
184.057590421638
 21
105.37801499968489
 31
0.0
  0
LINE
  5
4480
  8
3
 10
176.73409042163789
 20
83.07801499968491
 30
0.0
 11
176.73409042163789
 21
106.0545149996849
 31
0.0
  0
LINE
  5
4481
  8
0
 10
176.057590421638
 20
83.078014999684939
 30
0.0
 11
176.057590421638
 21
105.37801499968489
 31
0.0
  0
LINE
  5
4482
  8
0
 10
220.05759042163811
 20
30.57801499968495
 30
0.0
 11
140.05759042163791
 21
30.578014999684981
 31
0.0
  0
LINE
  5
4483
  8
0
 10
220.05759042163811
 20
30.578014999684971
 30
0.0
 11
220.05759042163811
 21
39.422719667974611
 31
0.0
  0
LINE
  5
4484
  8
0
 10
213.557590421638
 20
30.578014999684971
 30
0.0
 11
213.557590421638
 21
27.578014999684939
 31
0.0
  0
LINE
  5
4485
  8
0
 10
213.557590421638
 20
42.609518766219537
 30
0.0
 11
146.557590421638
 21
42.609518766219537
 31
0.0
  0
LINE
  5
4486
  8
0
 10
207.557590421638
 20
46.980543728284879
 30
0.0
 11
152.55759042163791
 21
46.980543728284893
 31
0.0
  0
LINE
  5
4487
  8
0
 10
200.90803347271381
 20
49.876753597945083
 30
0.0
 11
159.2071473705623
 21
49.876753597945061
 31
0.0
  0
LINE
  5
4488
  8
0
 10
194.057590421638
 20
54.57801499968496
 30
0.0
 11
166.057590421638
 21
54.57801499968496
 31
0.0
  0
LINE
  5
4489
  8
0
 10
213.557590421638
 20
42.609518766219537
 30
0.0
 11
213.557590421638
 21
43.45090584696694
 31
0.0
  0
LINE
  5
448A
  8
0
 10
213.557590421638
 20
42.609518766219537
 30
0.0
 11
219.41656950094691
 21
40.356065274177659
 31
0.0
  0
LINE
  5
448B
  8
0
 10
207.557590421638
 20
46.980543728284893
 30
0.0
 11
212.9930666040261
 21
44.351106099451201
 31
0.0
  0
LINE
  5
448C
  8
0
 10
200.9080334727137
 20
49.876753597945083
 30
0.0
 11
206.7856895351062
 21
48.49976517855881
 31
0.0
  0
LINE
  5
448D
  8
0
 10
195.05759042163791
 20
52.980543728284879
 30
0.0
 11
165.057590421638
 21
52.98054372828485
 31
0.0
  0
LINE
  5
448E
  8
0
 10
195.057590421638
 20
52.980543728284879
 30
0.0
 11
200.21775397142801
 21
51.299683443493741
 31
0.0
  0
LINE
  5
448F
  8
0
 10
195.057590421638
 20
53.578014999684932
 30
0.0
 11
195.057590421638
 21
52.9805437282849
 31
0.0
  0
LINE
  5
4490
  8
0
 10
207.557590421638
 20
46.980543728284879
 30
0.0
 11
207.557590421638
 21
47.526127261037587
 31
0.0
  0
LINE
  5
4491
  8
0
 10
200.9080334727137
 20
49.876753597945061
 30
0.0
 11
200.9080334727137
 21
50.348855797347447
 31
0.0
  0
ARC
  5
4492
  8
0
 10
194.057590421638
 20
53.578014999684967
 30
0.0
 40
1.0
 50
359.99999999999881
 51
90.0
  0
ARC
  5
4493
  8
0
 10
199.90803347271361
 20
50.348855797347447
 30
0.0
 40
1.0
 50
0.0
 51
71.957612741642507
  0
ARC
  5
4494
  8
0
 10
206.557590421638
 20
47.526127261037587
 30
0.0
 40
1.0
 50
0.0
 51
76.814815600247385
  0
ARC
  5
4495
  8
0
 10
219.05759042163811
 20
39.422719667974611
 30
0.0
 40
1.0
 50
0.0
 51
68.962488974579117
  0
ARC
  5
4496
  8
0
 10
212.557590421638
 20
43.45090584696694
 30
0.0
 40
1.0
 50
0.0
 51
64.184402028349112
  0
LINE
  5
4497
  8
0
 10
213.557590421638
 20
27.578014999684939
 30
0.0
 11
146.557590421638
 21
27.57801499968501
 31
0.0
  0
ARC
  5
4498
  8
0
 10
147.557590421638
 20
43.45090584696694
 30
0.0
 40
1.0
 50
115.8155979716509
 51
180.0
  0
ARC
  5
4499
  8
0
 10
141.05759042163791
 20
39.422719667974611
 30
0.0
 40
1.0
 50
111.0375110254208
 51
180.0
  0
ARC
  5
449A
  8
0
 10
153.55759042163791
 20
47.526127261037587
 30
0.0
 40
1.0
 50
103.1851843997526
 51
180.0
  0
ARC
  5
449B
  8
0
 10
160.2071473705623
 20
50.348855797347447
 30
0.0
 40
1.0
 50
108.04238725835749
 51
180.0
  0
ARC
  5
449C
  8
0
 10
166.057590421638
 20
53.578014999684967
 30
0.0
 40
1.0
 50
90.0
 51
180.00000000000119
  0
LINE
  5
449D
  8
0
 10
159.2071473705623
 20
49.876753597945061
 30
0.0
 11
159.2071473705623
 21
50.348855797347447
 31
0.0
  0
LINE
  5
449E
  8
0
 10
152.55759042163791
 20
46.980543728284879
 30
0.0
 11
152.55759042163791
 21
47.526127261037587
 31
0.0
  0
LINE
  5
449F
  8
0
 10
165.057590421638
 20
53.578014999684932
 30
0.0
 11
165.057590421638
 21
52.9805437282849
 31
0.0
  0
LINE
  5
44A0
  8
0
 10
165.057590421638
 20
52.980543728284879
 30
0.0
 11
159.89742687184801
 21
51.299683443493741
 31
0.0
  0
LINE
  5
44A1
  8
0
 10
159.2071473705623
 20
49.876753597945083
 30
0.0
 11
153.32949130816991
 21
48.49976517855881
 31
0.0
  0
LINE
  5
44A2
  8
0
 10
152.557590421638
 20
46.980543728284893
 30
0.0
 11
147.1221142392499
 21
44.351106099451201
 31
0.0
  0
LINE
  5
44A3
  8
0
 10
146.557590421638
 20
42.609518766219537
 30
0.0
 11
140.698611342329
 21
40.356065274177659
 31
0.0
  0
LINE
  5
44A4
  8
0
 10
146.557590421638
 20
42.609518766219537
 30
0.0
 11
146.557590421638
 21
43.45090584696694
 31
0.0
  0
LINE
  5
44A5
  8
0
 10
140.05759042163791
 20
30.578014999684971
 30
0.0
 11
140.05759042163791
 21
39.422719667974611
 31
0.0
  0
LINE
  5
44A6
  8
0
 10
146.557590421638
 20
30.578014999684971
 30
0.0
 11
146.557590421638
 21
27.578014999684939
 31
0.0
  0
LINE
  5
44A7
  8
1
 10
180.057590421638
 20
22.57801499968496
 30
0.0
 11
180.057590421638
 21
111.5780149996849
 31
0.0
  0
LINE
  5
4635
  8
0
 10
50.779803518452333
 20
182.7253142494626
 30
0.0
 11
50.779803518452361
 21
179.55950671215251
 31
0.0
  0
LINE
  5
4636
  8
0
 10
50.779803518452368
 20
177.808218018118
 30
0.0
 11
50.779803518452361
 21
174.64241048080791
 31
0.0
  0
LINE
  5
4637
  8
0
 10
64.779803518452354
 20
182.72531424946271
 30
0.0
 11
64.779803518452354
 21
179.55950671215251
 31
0.0
  0
LINE
  5
4638
  8
0
 10
64.779803518452354
 20
177.808218018118
 30
0.0
 11
64.77980351845234
 21
174.64241048080791
 31
0.0
  0
LINE
  5
4639
  8
0
 10
50.779803518452361
 20
174.64241048080791
 30
0.0
 11
53.521473269255068
 21
173.0595067121528
 31
0.0
  0
LINE
  5
463A
  8
0
 10
55.038133767649711
 20
172.18386236513541
 30
0.0
 11
57.77980351845234
 21
170.6009585964805
 31
0.0
  0
LINE
  5
463B
  8
0
 10
57.77980351845234
 20
186.76676613378999
 30
0.0
 11
60.521473269255033
 21
185.18386236513501
 31
0.0
  0
LINE
  5
463C
  8
0
 10
62.038133767649477
 20
184.30821801811771
 30
0.0
 11
64.779803518452354
 21
182.7253142494626
 31
0.0
  0
LINE
  5
463D
  8
0
 10
64.779803518452354
 20
174.64241048080791
 30
0.0
 11
62.038133767649519
 21
173.0595067121528
 31
0.0
  0
LINE
  5
463E
  8
0
 10
60.521473269254983
 20
172.1838623651355
 30
0.0
 11
57.77980351845234
 21
170.6009585964805
 31
0.0
  0
LINE
  5
463F
  8
0
 10
57.779803518452361
 20
186.7667661337901
 30
0.0
 11
55.038133767649683
 21
185.18386236513501
 31
0.0
  0
LINE
  5
4640
  8
0
 10
53.521473269255033
 20
184.3082180181176
 30
0.0
 11
50.779803518452361
 21
182.7253142494626
 31
0.0
  0
ARC
  5
4641
  8
0
 10
57.77980351845234
 20
178.68386236513521
 30
0.0
 40
6.7307692307680309
 50
74.953241639825194
 51
105.04675836017471
  0
ARC
  5
4642
  8
0
 10
57.77980351845234
 20
178.68386236513521
 30
0.0
 40
6.7307692307680309
 50
134.95324163982431
 51
165.04675836017699
  0
ARC
  5
4643
  8
0
 10
57.77980351845234
 20
178.68386236513521
 30
0.0
 40
6.7307692307680309
 50
194.95324163982269
 51
225.04675836017569
  0
ARC
  5
4644
  8
0
 10
57.77980351845234
 20
178.68386236513521
 30
0.0
 40
6.7307692307680309
 50
254.9532416398261
 51
285.0467583601739
  0
ARC
  5
4645
  8
0
 10
57.77980351845234
 20
178.68386236513521
 30
0.0
 40
6.7307692307680309
 50
314.95324163982212
 51
345.04675836017702
  0
ARC
  5
4646
  8
0
 10
57.77980351845234
 20
178.68386236513521
 30
0.0
 40
6.7307692307680309
 50
14.95324163982302
 51
45.046758360177847
  0
TEXT
  5
484C
  8
0
 62
     3
 10
0.0
 20
0.0
 30
0.0
 40
10.0
  1
LVAR80S8A
  7
STANDARD1
  0
ENDSEC
  0
EOF
