  0
SECTION
  2
HEADER
  9
$ACADVER
  1
AC1009
  9
$INSBASE
 10
0.0
 20
0.0
 30
0.0
  9
$EXTMIN
 10
0.0
 20
-2.960436562073669
 30
0.0
  9
$EXTMAX
 10
217.35728610764309
 20
229.27938789685001
 30
0.0
  9
$LIMMIN
 10
0.0
 20
0.0
  9
$LIMMAX
 10
375.0
 20
270.0
  9
$ORTHOMODE
 70
     1
  9
$REGENMODE
 70
     1
  9
$FILLMODE
 70
     1
  9
$QTEXTMODE
 70
     0
  9
$MIRRTEXT
 70
     0
  9
$DRAGMODE
 70
     2
  9
$LTSCALE
 40
6.0
  9
$OSMODE
 70
    37
  9
$ATTMODE
 70
     1
  9
$TEXTSIZE
 40
0.2
  9
$TRACEWID
 40
0.05
  9
$TEXTSTYLE
  7
STANDARD
  9
$CLAYER
  8
0
  9
$CELTYPE
  6
BYLAYER
  9
$CECOLOR
 62
   256
  9
$DIMSCALE
 40
1.0
  9
$DIMASZ
 40
3.0
  9
$DIMEXO
 40
1.0
  9
$DIMDLI
 40
6.0
  9
$DIMRND
 40
0.0
  9
$DIMDLE
 40
0.0
  9
$DIMEXE
 40
1.0
  9
$DIMTP
 40
495.0
  9
$DIMTM
 40
0.0
  9
$DIMTXT
 40
3.0
  9
$DIMCEN
 40
0.0
  9
$DIMTSZ
 40
0.0
  9
$DIMTOL
 70
     0
  9
$DIMLIM
 70
     0
  9
$DIMTIH
 70
     0
  9
$DIMTOH
 70
     0
  9
$DIMSE1
 70
     0
  9
$DIMSE2
 70
     0
  9
$DIMTAD
 70
     1
  9
$DIMZIN
 70
     0
  9
$DIMBLK
  1

  9
$DIMASO
 70
     0
  9
$DIMSHO
 70
     0
  9
$DIMPOST
  1

  9
$DIMAPOST
  1

  9
$DIMALT
 70
     0
  9
$DIMALTD
 70
     2
  9
$DIMALTF
 40
25.399999999999999
  9
$DIMLFAC
 40
1.0
  9
$DIMTOFL
 70
     1
  9
$DIMTVP
 40
0.0
  9
$DIMTIX
 70
     1
  9
$DIMSOXD
 70
     0
  9
$DIMSAH
 70
     0
  9
$DIMBLK1
  1

  9
$DIMBLK2
  1

  9
$DIMSTYLE
  2
STANDARD
  9
$DIMCLRD
 70
     0
  9
$DIMCLRE
 70
     0
  9
$DIMCLRT
 70
     4
  9
$DIMTFAC
 40
1.0
  9
$DIMGAP
 40
1.0
  9
$LUNITS
 70
     2
  9
$LUPREC
 70
     4
  9
$SKETCHINC
 40
0.1
  9
$FILLETRAD
 40
2.0
  9
$AUNITS
 70
     0
  9
$AUPREC
 70
     0
  9
$MENU
  1
C:\R13\WIN\SUPPORT\ACAD-I
  9
$ELEVATION
 40
0.0
  9
$PELEVATION
 40
0.0
  9
$THICKNESS
 40
0.0
  9
$LIMCHECK
 70
     0
  9
$BLIPMODE
 70
     0
  9
$CHAMFERA
 40
0.0
  9
$CHAMFERB
 40
0.0
  9
$SKPOLY
 70
     0
  9
$TDCREATE
 40
2451962.4541029292
  9
$TDUPDATE
 40
2456598.7208583448
  9
$TDINDWG
 40
0.0483649769
  9
$TDUSRTIMER
 40
2456598.0563642359
  9
$USRTIMER
 70
     1
  9
$ANGBASE
 50
0.0
  9
$ANGDIR
 70
     0
  9
$PDMODE
 70
     0
  9
$PDSIZE
 40
0.0
  9
$PLINEWID
 40
0.0
  9
$COORDS
 70
     1
  9
$SPLFRAME
 70
     0
  9
$SPLINETYPE
 70
     6
  9
$SPLINESEGS
 70
     8
  9
$ATTDIA
 70
     0
  9
$ATTREQ
 70
     1
  9
$HANDLING
 70
     1
  9
$HANDSEED
  5
5165
  9
$SURFTAB1
 70
     6
  9
$SURFTAB2
 70
     6
  9
$SURFTYPE
 70
     6
  9
$SURFU
 70
     6
  9
$SURFV
 70
     6
  9
$UCSNAME
  2

  9
$UCSORG
 10
0.0
 20
0.0
 30
0.0
  9
$UCSXDIR
 10
1.0
 20
0.0
 30
0.0
  9
$UCSYDIR
 10
0.0
 20
1.0
 30
0.0
  9
$PUCSNAME
  2

  9
$PUCSORG
 10
0.0
 20
0.0
 30
0.0
  9
$PUCSXDIR
 10
1.0
 20
0.0
 30
0.0
  9
$PUCSYDIR
 10
0.0
 20
1.0
 30
0.0
  9
$USERI1
 70
     4
  9
$USERI2
 70
     1
  9
$USERI3
 70
     0
  9
$USERI4
 70
     0
  9
$USERI5
 70
     0
  9
$USERR1
 40
1.0
  9
$USERR2
 40
3.0
  9
$USERR3
 40
3.0
  9
$USERR4
 40
3.0
  9
$USERR5
 40
10.0
  9
$WORLDVIEW
 70
     1
  9
$SHADEDGE
 70
     3
  9
$SHADEDIF
 70
    70
  9
$TILEMODE
 70
     1
  9
$MAXACTVP
 70
    16
  9
$PLIMCHECK
 70
     0
  9
$PEXTMIN
 10
1.0000000000000000E+020
 20
1.0000000000000000E+020
 30
1.0000000000000000E+020
  9
$PEXTMAX
 10
-1.0000000000000000E+020
 20
-1.0000000000000000E+020
 30
-1.0000000000000000E+020
  9
$PLIMMIN
 10
0.0
 20
0.0
  9
$PLIMMAX
 10
12.0
 20
9.0
  9
$UNITMODE
 70
     0
  9
$VISRETAIN
 70
     0
  9
$PLINEGEN
 70
     0
  9
$PSLTSCALE
 70
     0
  0
ENDSEC
  0
SECTION
  2
TABLES
  0
TABLE
  2
VPORT
 70
     1
  0
VPORT
  2
*ACTIVE
 70
     0
 10
0.0
 20
0.0
 11
1.0
 21
1.0
 12
187.49427839065231
 22
177.52205812711131
 13
0.0
 23
0.0
 14
10.0
 24
10.0
 15
10.0
 25
10.0
 16
0.0
 26
0.0
 36
1.0
 17
0.0
 27
0.0
 37
0.0
 40
364.13085016302909
 41
1.755244755244755
 42
50.0
 43
0.0
 44
0.0
 50
0.0
 51
0.0
 71
    16
 72
   100
 73
     1
 74
     0
 75
     0
 76
     0
 77
     0
 78
     0
  0
ENDTAB
  0
TABLE
  2
LTYPE
 70
     3
  0
LTYPE
  2
CONTINUOUS
 70
     0
  3
Solid Line
 72
    65
 73
     0
 40
0.0
  0
LTYPE
  2
PHANTOM2
 70
     0
  3
___ _ _ ___ _ _ ___ _ _ ___ _ _
 72
    65
 73
     6
 40
1.25
 49
0.625
 49
-0.125
 49
0.125
 49
-0.125
 49
0.125
 49
-0.125
  0
LTYPE
  2
CENTER
 70
     0
  3
____ _ ____ _ ____ _ ____ _ ____ _ ____ _ ____
 72
    65
 73
     4
 40
2.0
 49
1.25
 49
-0.25
 49
0.25
 49
-0.25
  0
ENDTAB
  0
TABLE
  2
LAYER
 70
     3
  0
LAYER
  2
0
 70
     0
 62
     7
  6
CONTINUOUS
  0
LAYER
  2
1
 70
     0
 62
     1
  6
CENTER
  0
LAYER
  2
3
 70
     0
 62
     3
  6
CONTINUOUS
  0
ENDTAB
  0
TABLE
  2
STYLE
 70
     3
  0
STYLE
  2
STANDARD
 70
     0
 40
0.0
 41
1.0
 50
0.0
 71
     0
 42
0.2
  3
SIMPLEX
  4
BIGFONT
  0
STYLE
  2
ANNOTATIVE
 70
     0
 40
0.0
 41
1.0
 50
0.0
 71
     0
 42
0.2
  3
txt
  4

  0
STYLE
  2
STANDARD1
 70
     0
 40
0.0
 41
1.0
 50
0.0
 71
     0
 42
3.0
  3
txt
  4

  0
ENDTAB
  0
TABLE
  2
VIEW
 70
     0
  0
ENDTAB
  0
TABLE
  2
UCS
 70
     0
  0
ENDTAB
  0
TABLE
  2
APPID
 70
    29
  0
APPID
  2
ACAD
 70
     0
  0
APPID
  2
ACADANNOTATIVE
 70
     0
  0
APPID
  2
GENIUS_GENOREF_13
 70
     0
  0
APPID
  2
GENIUS_GENOENT_13
 70
     0
  0
APPID
  2
GENIUS_GENBH_13
 70
     0
  0
APPID
  2
GENIUS_GENOBJ_13
 70
     0
  0
APPID
  2
GENIUS_GENODEF_13
 70
     0
  0
APPID
  2
GENIUS_GENOLIS_13
 70
     0
  0
APPID
  2
GENIUS_GENOBJ-NBEHI-BHF_13
 70
     0
  0
APPID
  2
GENIUS_GENOBJ-NBEHI-BHB_13
 70
     0
  0
APPID
  2
GENIUS_GENOBJ-F-PART_13
 70
     0
  0
APPID
  2
GENIUS_GEFSTDP_13
 70
     0
  0
APPID
  2
GENIUS_GENOBJ-N-RSSYM_13
 70
     0
  0
APPID
  2
GENIUS_GENSYMENT_13
 70
     0
  0
APPID
  2
GENIUS_GENOBJ-N-TIT_13
 70
     0
  0
APPID
  2
GENIUS_GENTITLE_13
 70
     0
  0
APPID
  2
GENIUS_GENZVEED_13
 70
     0
  0
APPID
  2
GENIUS_GENOBJ-N-LEADER_13
 70
     0
  0
APPID
  2
GENIUS_GENOBJ-N-FIL_13
 70
     0
  0
APPID
  2
GENIUS_GENOBJ-N-SEC_13
 70
     0
  0
APPID
  2
GENIUS_GENOBJ-N-CRS_13
 70
     0
  0
APPID
  2
GENIUS_GENOBJ-N-ZOO_13
 70
     0
  0
APPID
  2
GENIUS_GENZOO_13
 70
     0
  0
APPID
  2
GENIUS_GENOBJ-F-TOL_13
 70
     0
  0
APPID
  2
GENIUS_GENFIL_13
 70
     0
  0
APPID
  2
GENIUS_GENOBJ-N-CHA_13
 70
     0
  0
APPID
  2
ACAD_EXEMPT_FROM_CAD_STANDARDS
 70
     0
  0
APPID
  2
ACAD_MLEADERVER
 70
     0
  0
APPID
  2
ACAD_NAV_VCDISPLAY
 70
     0
  0
ENDTAB
  0
TABLE
  2
DIMSTYLE
 70
     2
  0
DIMSTYLE
  2
STANDARD
 70
     0
  3

  4

  5

  6

  7

 40
1.0
 41
0.18
 42
0.0625
 43
0.38
 44
0.18
 45
0.0
 46
0.0
 47
0.0
 48
0.0
140
0.18
141
0.09
142
0.0
143
25.399999999999999
144
1.0
145
0.0
146
1.0
147
0.09
 71
     0
 72
     0
 73
     1
 74
     1
 75
     0
 76
     0
 77
     0
 78
     0
170
     0
171
     2
172
     0
173
     0
174
     0
175
     0
176
     0
177
     0
178
     0
  0
DIMSTYLE
  2
ANNOTATIVE
 70
     0
  3

  4

  5

  6

  7

 40
1.0
 41
0.18
 42
0.0625
 43
0.38
 44
0.18
 45
0.0
 46
0.0
 47
0.0
 48
0.0
140
0.18
141
0.09
142
0.0
143
25.399999999999999
144
1.0
145
0.0
146
1.0
147
0.09
 71
     0
 72
     0
 73
     1
 74
     1
 75
     0
 76
     0
 77
     0
 78
     0
170
     0
171
     2
172
     0
173
     0
174
     0
175
     0
176
     0
177
     0
178
     0
  0
ENDTAB
  0
ENDSEC
  0
SECTION
  2
BLOCKS
  0
BLOCK
  8
0
  2
$MODEL_SPACE
 70
     0
 10
0.0
 20
0.0
 30
0.0
  3
$MODEL_SPACE
  1

  0
ENDBLK
  5
502C
  8
0
  0
BLOCK
 67
     1
  8
0
  2
$PAPER_SPACE
 70
     0
 10
0.0
 20
0.0
 30
0.0
  3
$PAPER_SPACE
  1

  0
ENDBLK
  5
5028
 67
     1
  8
0
  0
ENDSEC
  0
SECTION
  2
ENTITIES
  0
LINE
  5
4C6F
  8
0
 10
183.35728610764281
 20
89.459254817113887
 30
0.0
 11
183.35728610764301
 21
109.4592548171139
 31
0.0
  0
LINE
  5
4C70
  8
3
 10
182.41028610764309
 20
89.459254817113887
 30
0.0
 11
182.41028610764309
 21
110.4062548171139
 31
0.0
  0
LINE
  5
4C71
  8
0
 10
171.35728610764289
 20
89.459254817113887
 30
0.0
 11
171.35728610764301
 21
109.459254817114
 31
0.0
  0
LINE
  5
4C72
  8
3
 10
172.30428610764289
 20
89.459254817113887
 30
0.0
 11
172.30428610764301
 21
110.4062548171139
 31
0.0
  0
LINE
  5
4C73
  8
3
 10
172.30428610764289
 20
70.459254817113901
 30
0.0
 11
171.35728610764289
 21
68.819002702346211
 31
0.0
  0
LINE
  5
4C74
  8
0
 10
173.35728610764301
 20
111.459254817114
 30
0.0
 11
171.35728610764301
 21
109.459254817114
 31
0.0
  0
LINE
  5
4C75
  8
3
 10
172.30428610764289
 20
70.459254817113901
 30
0.0
 11
172.30428610764289
 21
79.459254817114015
 31
0.0
  0
LINE
  5
4C76
  8
0
 10
171.35728610764289
 20
68.459254817113901
 30
0.0
 11
171.35728610764289
 21
79.459254817114015
 31
0.0
  0
LINE
  5
4C77
  8
3
 10
182.4102861076428
 20
70.459254817113901
 30
0.0
 11
183.35728610764281
 21
68.819002702346211
 31
0.0
  0
LINE
  5
4C78
  8
0
 10
183.35728610764281
 20
70.459254817113901
 30
0.0
 11
171.35728610764289
 21
70.459254817113901
 31
0.0
  0
LINE
  5
4C79
  8
0
 10
171.35728610764301
 20
109.459254817114
 30
0.0
 11
183.35728610764301
 21
109.4592548171139
 31
0.0
  0
LINE
  5
4C7A
  8
0
 10
181.35728610764301
 20
111.4592548171139
 30
0.0
 11
183.35728610764301
 21
109.4592548171139
 31
0.0
  0
LINE
  5
4C7B
  8
3
 10
182.410286107643
 20
70.459254817113901
 30
0.0
 11
182.41028610764309
 21
79.459254817114015
 31
0.0
  0
LINE
  5
4C7C
  8
0
 10
183.35728610764281
 20
68.459254817113901
 30
0.0
 11
183.35728610764281
 21
79.459254817114015
 31
0.0
  0
LINE
  5
4C7D
  8
0
 10
173.35728610764301
 20
111.459254817114
 30
0.0
 11
181.35728610764301
 21
111.4592548171139
 31
0.0
  0
LINE
  5
4C7E
  8
0
 10
177.35728610763971
 20
88.322073906488072
 30
0.0
 11
177.35728610764281
 21
80.596435727739845
 31
0.0
  0
LINE
  5
4C7F
  8
0
 10
186.35728610764281
 20
79.459254817114015
 30
0.0
 11
168.35728610764289
 21
79.459254817114015
 31
0.0
  0
LINE
  5
4C80
  8
0
 10
168.35728610764289
 20
89.459254817113887
 30
0.0
 11
186.35728610764281
 21
89.459254817113887
 31
0.0
  0
LINE
  5
4C81
  8
0
 10
167.85728610764289
 20
89.170579682519005
 30
0.0
 11
168.35728610764289
 21
89.459254817113887
 31
0.0
  0
ARC
  5
4C82
  8
0
 10
172.60728610764281
 20
75.450895792525884
 30
0.0
 40
13.719683889993171
 50
69.743841999613053
 51
110.2561580003869
  0
LINE
  5
4C83
  8
0
 10
168.35728610764289
 20
79.459254817114015
 30
0.0
 11
167.85728610764289
 21
79.819726721434094
 31
0.0
  0
LINE
  5
4C84
  8
0
 10
167.85728610764289
 20
79.819726721434094
 30
0.0
 11
167.85728610764289
 21
89.170579682519005
 31
0.0
  0
ARC
  5
4C85
  8
0
 10
172.60728610764281
 20
93.467613841702018
 30
0.0
 40
13.719683889993171
 50
249.7438419996115
 51
290.25615800038702
  0
ARC
  5
4C86
  8
0
 10
182.10728610764281
 20
93.467613841702018
 30
0.0
 40
13.719683889993171
 50
249.7438419996115
 51
290.25615800038702
  0
LINE
  5
4C87
  8
0
 10
186.85728610764281
 20
79.819726721434094
 30
0.0
 11
186.85728610764281
 21
89.170579682519005
 31
0.0
  0
LINE
  5
4C88
  8
0
 10
186.35728610764281
 20
79.459254817114015
 30
0.0
 11
186.85728610764281
 21
79.819726721434094
 31
0.0
  0
ARC
  5
4C89
  8
0
 10
182.10728610764281
 20
75.450895792525884
 30
0.0
 40
13.719683889993171
 50
69.743841999613053
 51
110.2561580003869
  0
LINE
  5
4C8A
  8
0
 10
186.85728610764281
 20
89.170579682519005
 30
0.0
 11
186.35728610764281
 21
89.459254817113887
 31
0.0
  0
LINE
  5
4C8B
  8
0
 10
182.85728610764301
 20
59.45925481711356
 30
0.0
 11
182.85728610764301
 21
63.45925481711356
 31
0.0
  0
LINE
  5
4C8C
  8
0
 10
171.85728610764301
 20
59.45925481711356
 30
0.0
 11
171.85728610764301
 21
63.45925481711356
 31
0.0
  0
ARC
  5
4C8D
  8
0
 10
171.29510828115201
 20
64.725662512230883
 30
0.0
 40
3.5781518477924039
 50
55.615752531961178
 51
115.61575253217271
  0
ARC
  5
4C8E
  8
0
 10
177.357286107644
 20
54.929029142369473
 30
0.0
 40
13.374785217653811
 50
72.412046225995169
 51
107.5879537740048
  0
LINE
  5
4C8F
  8
0
 10
169.27438233898809
 20
67.678599577683926
 30
0.0
 11
170.626516876875
 21
68.45925481711356
 31
0.0
  0
LINE
  5
4C90
  8
0
 10
169.27438233898809
 20
64.239910056543067
 30
0.0
 11
170.626516876875
 21
63.45925481711356
 31
0.0
  0
ARC
  5
4C91
  8
0
 10
171.29510828115201
 20
67.192847121996223
 30
0.0
 40
3.5781518477924039
 50
244.38424746782729
 51
304.38424746803872
  0
ARC
  5
4C92
  8
0
 10
177.357286107644
 20
76.989480491857648
 30
0.0
 40
13.374785217653811
 50
252.4120462259952
 51
287.5879537740048
  0
LINE
  5
4C93
  8
0
 10
169.27438233898809
 20
67.678599577683926
 30
0.0
 11
169.27438233898809
 21
64.239910056543067
 31
0.0
  0
LINE
  5
4C94
  8
0
 10
173.3158342233173
 20
67.678599577682675
 30
0.0
 11
173.31583422331551
 21
64.239910056544886
 31
0.0
  0
LINE
  5
4C95
  8
0
 10
181.3987379919684
 20
67.678599577684494
 30
0.0
 11
181.39873799197039
 21
64.239910056544886
 31
0.0
  0
LINE
  5
4C96
  8
0
 10
185.44018987629769
 20
67.678599577684054
 30
0.0
 11
185.44018987629769
 21
64.239910056543067
 31
0.0
  0
ARC
  5
4C97
  8
0
 10
183.41946393413389
 20
67.192847121996223
 30
0.0
 40
3.5781518477924039
 50
235.61575253196131
 51
295.61575253217262
  0
LINE
  5
4C98
  8
0
 10
185.44018987629769
 20
64.239910056543067
 30
0.0
 11
184.08805533841101
 21
63.45925481711356
 31
0.0
  0
LINE
  5
4C99
  8
0
 10
185.44018987629769
 20
67.678599577683926
 30
0.0
 11
184.08805533841101
 21
68.45925481711356
 31
0.0
  0
ARC
  5
4C9A
  8
0
 10
183.41946393413389
 20
64.725662512230883
 30
0.0
 40
3.5781518477924039
 50
64.384247467827308
 51
124.38424746803879
  0
LINE
  5
4C9B
  8
0
 10
170.62651687687369
 20
68.45925481711356
 30
0.0
 11
184.0880553384107
 21
68.45925481711356
 31
0.0
  0
LINE
  5
4C9C
  8
0
 10
184.08805533841101
 20
63.45925481711356
 30
0.0
 11
170.6265168768752
 21
63.45925481711356
 31
0.0
  0
LINE
  5
4C9D
  8
0
 10
49.079499204457271
 20
89.459254817113788
 30
0.0
 11
49.079499204457292
 21
109.459254817114
 31
0.0
  0
LINE
  5
4C9E
  8
3
 10
50.026499204457252
 20
89.459254817113788
 30
0.0
 11
50.026499204457302
 21
110.4062548171139
 31
0.0
  0
LINE
  5
4C9F
  8
3
 10
60.132499204457332
 20
89.459254817113887
 30
0.0
 11
60.132499204457361
 21
110.4062548171139
 31
0.0
  0
LINE
  5
4CA0
  8
0
 10
61.079499204457292
 20
89.459254817113788
 30
0.0
 11
61.079499204457292
 21
109.4592548171139
 31
0.0
  0
LINE
  5
4CA1
  8
0
 10
60.564326761754572
 20
88.322073906487944
 30
0.0
 11
60.564326761758679
 21
80.59643572773939
 31
0.0
  0
LINE
  5
4CA2
  8
0
 10
66.04915431906042
 20
88.322073906487944
 30
0.0
 11
66.04915431906042
 21
80.596435727739618
 31
0.0
  0
LINE
  5
4CA3
  8
0
 10
49.594671647160197
 20
88.322073906487944
 30
0.0
 11
49.594671647156098
 21
80.59643572773939
 31
0.0
  0
LINE
  5
4CA4
  8
0
 10
44.109844089854349
 20
88.322073906487944
 30
0.0
 11
44.109844089854349
 21
80.596435727739618
 31
0.0
  0
LINE
  5
4CA5
  8
0
 10
44.109844089854349
 20
80.596435727739731
 30
0.0
 11
46.07949920445602
 21
79.459254817113901
 31
0.0
  0
ARC
  5
4CA6
  8
0
 10
46.852257868505014
 20
84.603993173717186
 30
0.0
 40
4.8560632220084567
 50
244.3842474680873
 51
304.3842474680165
  0
ARC
  5
4CA7
  8
0
 10
55.079499204457392
 20
97.899424175694193
 30
0.0
 40
18.15149422398537
 50
252.41204622603641
 51
287.5879537739637
  0
ARC
  5
4CA8
  8
0
 10
63.306740540409777
 20
84.603993173717186
 30
0.0
 40
4.8560632220084567
 50
235.6157525319833
 51
295.61575253191262
  0
LINE
  5
4CA9
  8
0
 10
66.04915431906042
 20
80.596435727739731
 30
0.0
 11
64.079499204458756
 21
79.459254817113901
 31
0.0
  0
LINE
  5
4CAA
  8
0
 10
46.07949920445602
 20
79.459254817113901
 30
0.0
 11
64.079499204458756
 21
79.459254817113901
 31
0.0
  0
LINE
  5
4CAB
  8
0
 10
46.07949920445602
 20
89.459254817113788
 30
0.0
 11
64.079499204458756
 21
89.459254817113788
 31
0.0
  0
LINE
  5
4CAC
  8
0
 10
66.04915431906042
 20
88.322073906487944
 30
0.0
 11
64.079499204458756
 21
89.459254817113788
 31
0.0
  0
ARC
  5
4CAD
  8
0
 10
63.306740540409777
 20
84.314516460510504
 30
0.0
 40
4.8560632220084567
 50
64.384247468087224
 51
124.3842474680165
  0
ARC
  5
4CAE
  8
0
 10
55.079499204457392
 20
71.019085458533482
 30
0.0
 40
18.15149422398537
 50
72.412046226036338
 51
107.5879537739636
  0
ARC
  5
4CAF
  8
0
 10
46.852257868505014
 20
84.314516460510504
 30
0.0
 40
4.8560632220084567
 50
55.615752531983382
 51
115.6157525319127
  0
LINE
  5
4CB0
  8
0
 10
44.109844089854349
 20
88.322073906487944
 30
0.0
 11
46.07949920445602
 21
89.459254817113788
 31
0.0
  0
LINE
  5
4CB1
  8
0
 10
51.079499204457292
 20
111.459254817114
 30
0.0
 11
59.079499204457292
 21
111.4592548171139
 31
0.0
  0
LINE
  5
4CB2
  8
0
 10
61.079499204457257
 20
68.459254817113901
 30
0.0
 11
61.079499204457257
 21
79.459254817113901
 31
0.0
  0
LINE
  5
4CB3
  8
3
 10
60.132499204457289
 20
70.459254817113901
 30
0.0
 11
60.132499204457289
 21
79.459254817113901
 31
0.0
  0
LINE
  5
4CB4
  8
3
 10
50.026499204457252
 20
70.459254817113901
 30
0.0
 11
50.026499204457252
 21
79.459254817114015
 31
0.0
  0
LINE
  5
4CB5
  8
0
 10
49.079499204457257
 20
68.459254817113901
 30
0.0
 11
49.079499204457271
 21
79.459254817113901
 31
0.0
  0
LINE
  5
4CB6
  8
0
 10
51.079499204457292
 20
111.459254817114
 30
0.0
 11
49.079499204457292
 21
109.459254817114
 31
0.0
  0
LINE
  5
4CB7
  8
0
 10
59.079499204457292
 20
111.4592548171139
 30
0.0
 11
61.079499204457292
 21
109.4592548171139
 31
0.0
  0
LINE
  5
4CB8
  8
0
 10
49.079499204457292
 20
109.459254817114
 30
0.0
 11
61.07949920445737
 21
109.4592548171139
 31
0.0
  0
LINE
  5
4CB9
  8
0
 10
61.079499204457257
 20
70.459254817113901
 30
0.0
 11
49.079499204457257
 21
70.459254817113901
 31
0.0
  0
LINE
  5
4CBA
  8
3
 10
50.026499204457252
 20
70.459254817113901
 30
0.0
 11
49.079499204457257
 21
68.819002702346211
 31
0.0
  0
LINE
  5
4CBB
  8
3
 10
60.132499204457247
 20
70.459254817113901
 30
0.0
 11
61.079499204457257
 21
68.819002702346211
 31
0.0
  0
ARC
  5
4CBC
  8
0
 10
58.579499204456901
 20
73.723936035240968
 30
0.0
 40
10.10924076103746
 50
249.74384199958331
 51
290.25615800041669
  0
LINE
  5
4CBD
  8
0
 10
62.079499204457022
 20
63.614695274203527
 30
0.0
 11
61.810268435225069
 21
63.459254817113333
 31
0.0
  0
LINE
  5
4CBE
  8
0
 10
48.079499204457022
 20
63.614695274203527
 30
0.0
 11
48.348729973688997
 21
63.459254817113333
 31
0.0
  0
ARC
  5
4CBF
  8
0
 10
51.579499204457122
 20
73.723936035240968
 30
0.0
 40
10.10924076103746
 50
249.74384199958331
 51
290.25615800041669
  0
LINE
  5
4CC0
  8
0
 10
61.810268435225069
 20
63.459254817113333
 30
0.0
 11
48.348729973688997
 21
63.459254817113333
 31
0.0
  0
ARC
  5
4CC1
  8
0
 10
58.579499204456901
 20
58.194573598985698
 30
0.0
 40
10.10924076103746
 50
69.743841999583282
 51
110.2561580004167
  0
LINE
  5
4CC2
  8
0
 10
62.079499204457022
 20
68.303814360023125
 30
0.0
 11
61.810268435225069
 21
68.459254817113333
 31
0.0
  0
LINE
  5
4CC3
  8
0
 10
48.079499204457022
 20
68.303814360023125
 30
0.0
 11
48.348729973688997
 21
68.459254817113333
 31
0.0
  0
ARC
  5
4CC4
  8
0
 10
51.579499204457122
 20
58.194573598985698
 30
0.0
 40
10.10924076103746
 50
69.743841999583282
 51
110.2561580004167
  0
LINE
  5
4CC5
  8
0
 10
61.810268435225069
 20
68.459254817113333
 30
0.0
 11
48.348729973688997
 21
68.459254817113333
 31
0.0
  0
LINE
  5
4CC6
  8
0
 10
62.079499204457022
 20
68.303814360023125
 30
0.0
 11
62.079499204457022
 21
63.614695274203527
 31
0.0
  0
LINE
  5
4CC7
  8
0
 10
48.079499204457022
 20
68.303814360023125
 30
0.0
 11
48.079499204457022
 21
63.614695274203527
 31
0.0
  0
LINE
  5
4CC8
  8
0
 10
55.079499204457022
 20
67.678599577683926
 30
0.0
 11
55.079499204457022
 21
64.23991005654284
 31
0.0
  0
LINE
  5
4CC9
  8
0
 10
49.579499204457129
 20
59.45925481711356
 30
0.0
 11
49.579499204457129
 21
63.459254817113333
 31
0.0
  0
LINE
  5
4CCA
  8
0
 10
60.57949920445715
 20
59.45925481711356
 30
0.0
 11
60.57949920445715
 21
63.459254817113333
 31
0.0
  0
LINE
  5
4CCB
  8
0
 10
44.109844089854391
 20
183.5651021825642
 30
0.0
 11
49.594671647155899
 21
174.06510218256409
 31
0.0
  0
LINE
  5
4CCC
  8
0
 10
49.594671647156019
 20
193.0651021825642
 30
0.0
 11
44.109844089854391
 21
183.5651021825642
 31
0.0
  0
LINE
  5
4CCD
  8
0
 10
60.564326761758821
 20
193.0651021825642
 30
0.0
 11
49.594671647156019
 21
193.0651021825642
 31
0.0
  0
LINE
  5
4CCE
  8
0
 10
66.049154319060108
 20
183.5651021825642
 30
0.0
 11
60.564326761758821
 21
193.0651021825642
 31
0.0
  0
LINE
  5
4CCF
  8
0
 10
60.564326761758593
 20
174.06510218256409
 30
0.0
 11
66.049154319060108
 21
183.5651021825642
 31
0.0
  0
CIRCLE
  5
4CD0
  8
3
 10
55.079499204457321
 20
183.5651021825642
 30
0.0
 40
5.052999999999999
  0
CIRCLE
  5
4CD1
  8
0
 10
55.079499204457321
 20
183.5651021825642
 30
0.0
 40
6.0
  0
CIRCLE
  5
4CD2
  8
0
 10
55.079499204457321
 20
183.5651021825642
 30
0.0
 40
9.0
  0
LINE
  5
4CD3
  8
0
 10
49.594671647155899
 20
174.06510218256409
 30
0.0
 11
60.564326761758593
 21
174.06510218256409
 31
0.0
  0
LINE
  5
4CD4
  8
0
 10
217.35728610764301
 20
35.459254817114008
 30
0.0
 11
137.35728610764289
 21
35.459254817114008
 31
0.0
  0
LINE
  5
4CD5
  8
0
 10
217.35728610764301
 20
35.459254817114008
 30
0.0
 11
217.35728610764309
 21
44.303959485403531
 31
0.0
  0
LINE
  5
4CD6
  8
0
 10
210.85728610764281
 20
35.459254817114008
 30
0.0
 11
210.85728610764281
 21
32.459254817113901
 31
0.0
  0
LINE
  5
4CD7
  8
0
 10
210.85728610764281
 20
47.490758583648592
 30
0.0
 11
143.85728610764289
 21
47.490758583648592
 31
0.0
  0
LINE
  5
4CD8
  8
0
 10
204.85728610764289
 20
51.861783545713926
 30
0.0
 11
149.85728610764289
 21
51.861783545713926
 31
0.0
  0
LINE
  5
4CD9
  8
0
 10
198.20772915871871
 20
54.757993415374131
 30
0.0
 11
156.50684305656731
 21
54.757993415374131
 31
0.0
  0
LINE
  5
4CDA
  8
0
 10
191.35728610764281
 20
59.459254817114022
 30
0.0
 11
163.35728610764289
 21
59.459254817114022
 31
0.0
  0
LINE
  5
4CDB
  8
0
 10
210.85728610764281
 20
47.490758583648592
 30
0.0
 11
210.85728610764281
 21
48.332145664395973
 31
0.0
  0
LINE
  5
4CDC
  8
0
 10
210.85728610764281
 20
47.490758583648592
 30
0.0
 11
216.71626518695189
 21
45.237305091606693
 31
0.0
  0
LINE
  5
4CDD
  8
0
 10
204.85728610764289
 20
51.861783545713926
 30
0.0
 11
210.29276229003099
 21
49.232345916880142
 31
0.0
  0
LINE
  5
4CDE
  8
0
 10
198.20772915871851
 20
54.757993415374131
 30
0.0
 11
204.0853852211111
 21
53.381004995987837
 31
0.0
  0
LINE
  5
4CDF
  8
0
 10
192.35728610764281
 20
57.861783545713941
 30
0.0
 11
162.35728610764289
 21
57.86178354571382
 31
0.0
  0
LINE
  5
4CE0
  8
0
 10
192.35728610764281
 20
57.861783545713941
 30
0.0
 11
197.51744965743279
 21
56.180923260922782
 31
0.0
  0
LINE
  5
4CE1
  8
0
 10
192.35728610764281
 20
58.459254817113901
 30
0.0
 11
192.35728610764281
 21
57.861783545713941
 31
0.0
  0
LINE
  5
4CE2
  8
0
 10
204.85728610764289
 20
51.861783545713926
 30
0.0
 11
204.85728610764289
 21
52.407367078466557
 31
0.0
  0
LINE
  5
4CE3
  8
0
 10
198.20772915871851
 20
54.757993415374131
 30
0.0
 11
198.20772915871851
 21
55.230095614776459
 31
0.0
  0
ARC
  5
4CE4
  8
0
 10
191.35728610764281
 20
58.459254817114008
 30
0.0
 40
1.0
 50
359.99999999999881
 51
90.0
  0
ARC
  5
4CE5
  8
0
 10
197.20772915871851
 20
55.230095614776459
 30
0.0
 40
1.0
 50
0.0
 51
71.957612741642507
  0
ARC
  5
4CE6
  8
0
 10
203.85728610764289
 20
52.407367078466557
 30
0.0
 40
1.0
 50
0.0
 51
76.814815600247385
  0
ARC
  5
4CE7
  8
0
 10
216.35728610764309
 20
44.303959485403531
 30
0.0
 40
1.0
 50
0.0
 51
68.962488974577454
  0
ARC
  5
4CE8
  8
0
 10
209.85728610764301
 20
48.332145664395973
 30
0.0
 40
1.0
 50
0.0
 51
64.184402028349112
  0
LINE
  5
4CE9
  8
0
 10
210.85728610764281
 20
32.459254817113901
 30
0.0
 11
143.85728610764289
 21
32.459254817114008
 31
0.0
  0
ARC
  5
4CEA
  8
0
 10
144.85728610764289
 20
48.332145664395973
 30
0.0
 40
1.0
 50
115.8155979716509
 51
180.0
  0
ARC
  5
4CEB
  8
0
 10
138.35728610764281
 20
44.303959485403531
 30
0.0
 40
1.0
 50
111.0375110254224
 51
180.0
  0
ARC
  5
4CEC
  8
0
 10
150.85728610764289
 20
52.407367078466557
 30
0.0
 40
1.0
 50
103.1851843997526
 51
180.0
  0
ARC
  5
4CED
  8
0
 10
157.50684305656719
 20
55.230095614776459
 30
0.0
 40
1.0
 50
108.04238725835749
 51
180.0
  0
ARC
  5
4CEE
  8
0
 10
163.35728610764289
 20
58.459254817114008
 30
0.0
 40
1.0
 50
90.0
 51
180.0000000000008
  0
LINE
  5
4CEF
  8
0
 10
156.50684305656731
 20
54.757993415374131
 30
0.0
 11
156.50684305656731
 21
55.230095614776459
 31
0.0
  0
LINE
  5
4CF0
  8
0
 10
149.85728610764289
 20
51.861783545713926
 30
0.0
 11
149.85728610764289
 21
52.407367078466557
 31
0.0
  0
LINE
  5
4CF1
  8
0
 10
162.35728610764289
 20
58.459254817113901
 30
0.0
 11
162.35728610764289
 21
57.861783545713941
 31
0.0
  0
LINE
  5
4CF2
  8
0
 10
162.35728610764289
 20
57.861783545713941
 30
0.0
 11
157.19712255785291
 21
56.180923260922782
 31
0.0
  0
LINE
  5
4CF3
  8
0
 10
156.50684305656731
 20
54.757993415374131
 30
0.0
 11
150.6291869941748
 21
53.381004995987837
 31
0.0
  0
LINE
  5
4CF4
  8
0
 10
149.85728610764289
 20
51.861783545713926
 30
0.0
 11
144.42180992525491
 21
49.232345916880142
 31
0.0
  0
LINE
  5
4CF5
  8
0
 10
143.85728610764289
 20
47.490758583648592
 30
0.0
 11
137.9983070283339
 21
45.237305091606693
 31
0.0
  0
LINE
  5
4CF6
  8
0
 10
143.85728610764289
 20
47.490758583648592
 30
0.0
 11
143.85728610764289
 21
48.332145664395973
 31
0.0
  0
LINE
  5
4CF7
  8
0
 10
137.35728610764289
 20
35.459254817114008
 30
0.0
 11
137.35728610764281
 21
44.303959485403531
 31
0.0
  0
LINE
  5
4CF8
  8
0
 10
143.85728610764301
 20
35.459254817114008
 30
0.0
 11
143.85728610764289
 21
32.459254817113901
 31
0.0
  0
LINE
  5
4CF9
  8
1
 10
177.35728610764281
 20
27.459254817114019
 30
0.0
 11
177.35728610764281
 21
116.459254817114
 31
0.0
  0
LINE
  5
4CFA
  8
1
 10
55.079499204457321
 20
27.459254817114019
 30
0.0
 11
55.079499204457321
 21
116.459254817114
 31
0.0
  0
CIRCLE
  5
4CFB
  8
0
 10
55.079499204457321
 20
183.5651021825642
 30
0.0
 40
14.99999999999997
  0
CIRCLE
  5
4CFC
  8
0
 10
55.079499204457321
 20
183.5651021825642
 30
0.0
 40
20.850443051075668
  0
CIRCLE
  5
4CFD
  8
0
 10
55.079499204457321
 20
183.5651021825642
 30
0.0
 40
27.5
  0
CIRCLE
  5
4CFE
  8
0
 10
55.079499204457321
 20
183.5651021825642
 30
0.0
 40
33.5
  0
LINE
  5
4CFF
  8
0
 10
21.57949920445731
 20
35.459254817114008
 30
0.0
 11
21.57949920445731
 21
32.459254817113901
 31
0.0
  0
LINE
  5
4D00
  8
0
 10
15.07949920445725
 20
35.459254817114008
 30
0.0
 11
15.07949920445718
 21
44.303959485403531
 31
0.0
  0
LINE
  5
4D01
  8
0
 10
21.57949920445731
 20
47.490758583648592
 30
0.0
 11
21.57949920445731
 21
48.332145664395973
 31
0.0
  0
LINE
  5
4D02
  8
0
 10
21.57949920445731
 20
47.490758583648592
 30
0.0
 11
15.72052012514837
 21
45.237305091606693
 31
0.0
  0
LINE
  5
4D03
  8
0
 10
27.57949920445731
 20
51.861783545713926
 30
0.0
 11
22.144023022069241
 21
49.232345916880142
 31
0.0
  0
LINE
  5
4D04
  8
0
 10
34.229056153381642
 20
54.757993415374131
 30
0.0
 11
28.351400090989159
 21
53.381004995987837
 31
0.0
  0
LINE
  5
4D05
  8
0
 10
40.079499204457314
 20
57.861783545713941
 30
0.0
 11
34.919335654667293
 21
56.180923260922782
 31
0.0
  0
LINE
  5
4D06
  8
0
 10
40.079499204457314
 20
58.459254817113901
 30
0.0
 11
40.079499204457314
 21
57.861783545713941
 31
0.0
  0
LINE
  5
4D07
  8
0
 10
27.57949920445731
 20
51.861783545713926
 30
0.0
 11
27.57949920445731
 21
52.407367078466557
 31
0.0
  0
LINE
  5
4D08
  8
0
 10
34.229056153381642
 20
54.757993415374131
 30
0.0
 11
34.229056153381642
 21
55.230095614776459
 31
0.0
  0
ARC
  5
4D09
  8
0
 10
41.079499204457292
 20
58.459254817114008
 30
0.0
 40
1.0
 50
90.0
 51
180.0000000000008
  0
ARC
  5
4D0A
  8
0
 10
35.229056153381642
 20
55.230095614776459
 30
0.0
 40
1.0
 50
108.0423872583583
 51
180.0
  0
ARC
  5
4D0B
  8
0
 10
28.57949920445731
 20
52.407367078466557
 30
0.0
 40
1.0
 50
103.185184399753
 51
180.0
  0
ARC
  5
4D0C
  8
0
 10
16.079499204457189
 20
44.303959485403531
 30
0.0
 40
1.0
 50
111.03751102542159
 51
180.0
  0
ARC
  5
4D0D
  8
0
 10
22.57949920445731
 20
48.332145664395973
 30
0.0
 40
1.0
 50
115.8155979716511
 51
180.0
  0
LINE
  5
4D0E
  8
0
 10
88.579499204457306
 20
32.459254817113901
 30
0.0
 11
21.57949920445731
 21
32.459254817114008
 31
0.0
  0
ARC
  5
4D0F
  8
0
 10
87.579499204457306
 20
48.332145664395973
 30
0.0
 40
1.0
 50
0.0
 51
64.184402028349112
  0
ARC
  5
4D10
  8
0
 10
94.079499204457392
 20
44.303959485403531
 30
0.0
 40
1.0
 50
0.0
 51
68.962488974578207
  0
ARC
  5
4D11
  8
0
 10
81.579499204457335
 20
52.407367078466557
 30
0.0
 40
1.0
 50
0.0
 51
76.814815600247385
  0
ARC
  5
4D12
  8
0
 10
74.929942255532978
 20
55.230095614776459
 30
0.0
 40
1.0
 50
0.0
 51
71.957612741641725
  0
ARC
  5
4D13
  8
0
 10
69.07949920445725
 20
58.459254817114008
 30
0.0
 40
1.0
 50
359.99999999999881
 51
90.0
  0
LINE
  5
4D14
  8
0
 10
75.92994225553295
 20
54.757993415374131
 30
0.0
 11
75.92994225553295
 21
55.230095614776459
 31
0.0
  0
LINE
  5
4D15
  8
0
 10
82.579499204457335
 20
51.861783545713926
 30
0.0
 11
82.579499204457335
 21
52.407367078466557
 31
0.0
  0
LINE
  5
4D16
  8
0
 10
70.079499204457278
 20
58.459254817113901
 30
0.0
 11
70.079499204457278
 21
57.861783545713941
 31
0.0
  0
LINE
  5
4D17
  8
0
 10
70.079499204457292
 20
57.861783545713941
 30
0.0
 11
75.239662754247362
 21
56.180923260922782
 31
0.0
  0
LINE
  5
4D18
  8
0
 10
70.079499204457235
 20
57.861783545713941
 30
0.0
 11
40.079499204457314
 21
57.86178354571382
 31
0.0
  0
LINE
  5
4D19
  8
0
 10
75.92994225553295
 20
54.757993415374131
 30
0.0
 11
81.807598317925425
 21
53.381004995987837
 31
0.0
  0
LINE
  5
4D1A
  8
0
 10
82.579499204457306
 20
51.861783545713926
 30
0.0
 11
88.014975386845393
 21
49.232345916880142
 31
0.0
  0
LINE
  5
4D1B
  8
0
 10
88.579499204457306
 20
47.490758583648592
 30
0.0
 11
94.438478283766287
 21
45.237305091606693
 31
0.0
  0
LINE
  5
4D1C
  8
0
 10
88.579499204457306
 20
47.490758583648592
 30
0.0
 11
88.579499204457306
 21
48.332145664395973
 31
0.0
  0
LINE
  5
4D1D
  8
0
 10
69.07949920445725
 20
59.459254817114022
 30
0.0
 11
41.079499204457292
 21
59.459254817114022
 31
0.0
  0
LINE
  5
4D1E
  8
0
 10
75.929942255533064
 20
54.757993415374131
 30
0.0
 11
34.229056153381642
 21
54.757993415374131
 31
0.0
  0
LINE
  5
4D1F
  8
0
 10
82.579499204457306
 20
51.861783545713926
 30
0.0
 11
27.57949920445731
 21
51.861783545713926
 31
0.0
  0
LINE
  5
4D20
  8
0
 10
88.579499204457306
 20
47.490758583648592
 30
0.0
 11
21.57949920445731
 21
47.490758583648592
 31
0.0
  0
LINE
  5
4D21
  8
1
 10
100.7937849187431
 20
183.5651021825642
 30
0.0
 11
9.3652134901715272
 21
183.5651021825642
 31
0.0
  0
LINE
  5
4D22
  8
1
 10
55.079499204457321
 20
229.27938789685001
 30
0.0
 11
55.079499204457321
 21
137.85081646827851
 31
0.0
  0
CIRCLE
  5
4D23
  8
0
 10
55.079499204457321
 20
183.5651021825642
 30
0.0
 40
40.00000000000005
  0
LINE
  5
4D24
  8
0
 10
88.579499204457278
 20
35.459254817114008
 30
0.0
 11
88.579499204457306
 21
32.459254817113901
 31
0.0
  0
LINE
  5
4D25
  8
0
 10
95.079499204457363
 20
35.459254817114008
 30
0.0
 11
95.079499204457392
 21
44.303959485403531
 31
0.0
  0
LINE
  5
4D26
  8
0
 10
95.079499204457363
 20
35.459254817114008
 30
0.0
 11
15.07949920445725
 21
35.459254817114008
 31
0.0
  0
TEXT
  5
50AC
  8
0
 62
     3
 10
0.0
 20
0.0
 30
0.0
 40
10.0
  1
LVAR80S12A
  7
STANDARD1
  0
ENDSEC
  0
EOF
