  0
SECTION
  2
HEADER
  9
$ACADVER
  1
AC1009
  9
$INSBASE
 10
0.0
 20
0.0
 30
0.0
  9
$EXTMIN
 10
0.0
 20
-2.960436562073669
 30
0.0
  9
$EXTMAX
 10
262.8521030699942
 20
415.9664783855535
 30
0.0
  9
$LIMMIN
 10
0.0
 20
0.0
  9
$LIMMAX
 10
375.0
 20
270.0
  9
$ORTHOMODE
 70
     1
  9
$REGENMODE
 70
     1
  9
$FILLMODE
 70
     1
  9
$QTEXTMODE
 70
     0
  9
$MIRRTEXT
 70
     0
  9
$DRAGMODE
 70
     2
  9
$LTSCALE
 40
6.0
  9
$OSMODE
 70
  3071
  9
$ATTMODE
 70
     1
  9
$TEXTSIZE
 40
0.2
  9
$TRACEWID
 40
0.05
  9
$TEXTSTYLE
  7
STANDARD
  9
$CLAYER
  8
0
  9
$CELTYPE
  6
BYLAYER
  9
$CECOLOR
 62
   256
  9
$DIMSCALE
 40
1.0
  9
$DIMASZ
 40
3.0
  9
$DIMEXO
 40
1.0
  9
$DIMDLI
 40
6.0
  9
$DIMRND
 40
0.0
  9
$DIMDLE
 40
0.0
  9
$DIMEXE
 40
1.0
  9
$DIMTP
 40
495.0
  9
$DIMTM
 40
0.0
  9
$DIMTXT
 40
3.0
  9
$DIMCEN
 40
0.0
  9
$DIMTSZ
 40
0.0
  9
$DIMTOL
 70
     0
  9
$DIMLIM
 70
     0
  9
$DIMTIH
 70
     0
  9
$DIMTOH
 70
     0
  9
$DIMSE1
 70
     0
  9
$DIMSE2
 70
     0
  9
$DIMTAD
 70
     1
  9
$DIMZIN
 70
     0
  9
$DIMBLK
  1

  9
$DIMASO
 70
     0
  9
$DIMSHO
 70
     0
  9
$DIMPOST
  1

  9
$DIMAPOST
  1

  9
$DIMALT
 70
     0
  9
$DIMALTD
 70
     2
  9
$DIMALTF
 40
25.399999999999999
  9
$DIMLFAC
 40
1.0
  9
$DIMTOFL
 70
     1
  9
$DIMTVP
 40
0.0
  9
$DIMTIX
 70
     1
  9
$DIMSOXD
 70
     0
  9
$DIMSAH
 70
     0
  9
$DIMBLK1
  1

  9
$DIMBLK2
  1

  9
$DIMSTYLE
  2
STANDARD
  9
$DIMCLRD
 70
     0
  9
$DIMCLRE
 70
     0
  9
$DIMCLRT
 70
     4
  9
$DIMTFAC
 40
1.0
  9
$DIMGAP
 40
1.0
  9
$LUNITS
 70
     2
  9
$LUPREC
 70
     4
  9
$SKETCHINC
 40
0.1
  9
$FILLETRAD
 40
2.0
  9
$AUNITS
 70
     0
  9
$AUPREC
 70
     0
  9
$MENU
  1
C:\R13\WIN\SUPPORT\ACAD-I
  9
$ELEVATION
 40
0.0
  9
$PELEVATION
 40
0.0
  9
$THICKNESS
 40
0.0
  9
$LIMCHECK
 70
     0
  9
$BLIPMODE
 70
     0
  9
$CHAMFERA
 40
0.0
  9
$CHAMFERB
 40
0.0
  9
$SKPOLY
 70
     0
  9
$TDCREATE
 40
2451962.4661610071
  9
$TDUPDATE
 40
2456597.6145846192
  9
$TDINDWG
 40
0.1025198727
  9
$TDUSRTIMER
 40
2456556.212266806
  9
$USRTIMER
 70
     1
  9
$ANGBASE
 50
0.0
  9
$ANGDIR
 70
     0
  9
$PDMODE
 70
     0
  9
$PDSIZE
 40
0.0
  9
$PLINEWID
 40
0.0
  9
$COORDS
 70
     1
  9
$SPLFRAME
 70
     0
  9
$SPLINETYPE
 70
     6
  9
$SPLINESEGS
 70
     8
  9
$ATTDIA
 70
     0
  9
$ATTREQ
 70
     1
  9
$HANDLING
 70
     1
  9
$HANDSEED
  5
672E
  9
$SURFTAB1
 70
     6
  9
$SURFTAB2
 70
     6
  9
$SURFTYPE
 70
     6
  9
$SURFU
 70
     6
  9
$SURFV
 70
     6
  9
$UCSNAME
  2

  9
$UCSORG
 10
0.0
 20
0.0
 30
0.0
  9
$UCSXDIR
 10
1.0
 20
0.0
 30
0.0
  9
$UCSYDIR
 10
0.0
 20
1.0
 30
0.0
  9
$PUCSNAME
  2

  9
$PUCSORG
 10
0.0
 20
0.0
 30
0.0
  9
$PUCSXDIR
 10
1.0
 20
0.0
 30
0.0
  9
$PUCSYDIR
 10
0.0
 20
1.0
 30
0.0
  9
$USERI1
 70
     4
  9
$USERI2
 70
     1
  9
$USERI3
 70
     0
  9
$USERI4
 70
     0
  9
$USERI5
 70
     0
  9
$USERR1
 40
1.0
  9
$USERR2
 40
3.0
  9
$USERR3
 40
3.0
  9
$USERR4
 40
3.0
  9
$USERR5
 40
10.0
  9
$WORLDVIEW
 70
     1
  9
$SHADEDGE
 70
     3
  9
$SHADEDIF
 70
    70
  9
$TILEMODE
 70
     1
  9
$MAXACTVP
 70
    16
  9
$PLIMCHECK
 70
     0
  9
$PEXTMIN
 10
1.0000000000000000E+020
 20
1.0000000000000000E+020
 30
1.0000000000000000E+020
  9
$PEXTMAX
 10
-1.0000000000000000E+020
 20
-1.0000000000000000E+020
 30
-1.0000000000000000E+020
  9
$PLIMMIN
 10
0.0
 20
0.0
  9
$PLIMMAX
 10
12.0
 20
9.0
  9
$UNITMODE
 70
     0
  9
$VISRETAIN
 70
     0
  9
$PLINEGEN
 70
     0
  9
$PSLTSCALE
 70
     0
  0
ENDSEC
  0
SECTION
  2
TABLES
  0
TABLE
  2
VPORT
 70
     1
  0
VPORT
  2
*ACTIVE
 70
     0
 10
0.0
 20
0.0
 11
1.0
 21
1.0
 12
187.49427839065231
 22
207.4144597328785
 13
0.0
 23
0.0
 14
10.0
 24
10.0
 15
10.0
 25
10.0
 16
0.0
 26
0.0
 36
1.0
 17
0.0
 27
0.0
 37
0.0
 40
425.57259083950328
 41
2.304913294797688
 42
50.0
 43
0.0
 44
0.0
 50
0.0
 51
0.0
 71
    16
 72
   100
 73
     1
 74
     0
 75
     0
 76
     0
 77
     0
 78
     0
  0
ENDTAB
  0
TABLE
  2
LTYPE
 70
     3
  0
LTYPE
  2
CONTINUOUS
 70
     0
  3
Solid Line
 72
    65
 73
     0
 40
0.0
  0
LTYPE
  2
PHANTOM2
 70
     0
  3
___ _ _ ___ _ _ ___ _ _ ___ _ _
 72
    65
 73
     6
 40
1.25
 49
0.625
 49
-0.125
 49
0.125
 49
-0.125
 49
0.125
 49
-0.125
  0
LTYPE
  2
CENTER
 70
     0
  3
____ _ ____ _ ____ _ ____ _ ____ _ ____ _ ____
 72
    65
 73
     4
 40
2.0
 49
1.25
 49
-0.25
 49
0.25
 49
-0.25
  0
ENDTAB
  0
TABLE
  2
LAYER
 70
     3
  0
LAYER
  2
0
 70
     0
 62
     7
  6
CONTINUOUS
  0
LAYER
  2
1
 70
     0
 62
     1
  6
CENTER
  0
LAYER
  2
3
 70
     0
 62
     3
  6
CONTINUOUS
  0
ENDTAB
  0
TABLE
  2
STYLE
 70
     3
  0
STYLE
  2
STANDARD
 70
     0
 40
0.0
 41
1.0
 50
0.0
 71
     0
 42
0.2
  3
SIMPLEX
  4
BIGFONT
  0
STYLE
  2
ANNOTATIVE
 70
     0
 40
0.0
 41
1.0
 50
0.0
 71
     0
 42
0.2
  3
txt
  4

  0
STYLE
  2
STANDARD1
 70
     0
 40
0.0
 41
1.0
 50
0.0
 71
     0
 42
3.0
  3
txt
  4

  0
ENDTAB
  0
TABLE
  2
VIEW
 70
     0
  0
ENDTAB
  0
TABLE
  2
UCS
 70
     0
  0
ENDTAB
  0
TABLE
  2
APPID
 70
    29
  0
APPID
  2
ACAD
 70
     0
  0
APPID
  2
ACADANNOTATIVE
 70
     0
  0
APPID
  2
GENIUS_GENOREF_13
 70
     0
  0
APPID
  2
GENIUS_GENOENT_13
 70
     0
  0
APPID
  2
GENIUS_GENBH_13
 70
     0
  0
APPID
  2
GENIUS_GENOBJ_13
 70
     0
  0
APPID
  2
GENIUS_GENODEF_13
 70
     0
  0
APPID
  2
GENIUS_GENOLIS_13
 70
     0
  0
APPID
  2
GENIUS_GENOBJ-NBEHI-BHF_13
 70
     0
  0
APPID
  2
GENIUS_GENOBJ-NBEHI-BHB_13
 70
     0
  0
APPID
  2
GENIUS_GENOBJ-F-PART_13
 70
     0
  0
APPID
  2
GENIUS_GEFSTDP_13
 70
     0
  0
APPID
  2
GENIUS_GENOBJ-N-RSSYM_13
 70
     0
  0
APPID
  2
GENIUS_GENSYMENT_13
 70
     0
  0
APPID
  2
GENIUS_GENOBJ-N-TIT_13
 70
     0
  0
APPID
  2
GENIUS_GENTITLE_13
 70
     0
  0
APPID
  2
GENIUS_GENZVEED_13
 70
     0
  0
APPID
  2
GENIUS_GENOBJ-N-LEADER_13
 70
     0
  0
APPID
  2
GENIUS_GENOBJ-N-FIL_13
 70
     0
  0
APPID
  2
GENIUS_GENOBJ-N-SEC_13
 70
     0
  0
APPID
  2
GENIUS_GENOBJ-N-CRS_13
 70
     0
  0
APPID
  2
GENIUS_GENOBJ-N-ZOO_13
 70
     0
  0
APPID
  2
GENIUS_GENZOO_13
 70
     0
  0
APPID
  2
GENIUS_GENOBJ-F-TOL_13
 70
     0
  0
APPID
  2
GENIUS_GENFIL_13
 70
     0
  0
APPID
  2
GENIUS_GENOBJ-N-CHA_13
 70
     0
  0
APPID
  2
ACAD_EXEMPT_FROM_CAD_STANDARDS
 70
     0
  0
APPID
  2
ACAD_MLEADERVER
 70
     0
  0
APPID
  2
ACAD_NAV_VCDISPLAY
 70
     0
  0
ENDTAB
  0
TABLE
  2
DIMSTYLE
 70
     2
  0
DIMSTYLE
  2
STANDARD
 70
     0
  3

  4

  5

  6

  7

 40
1.0
 41
0.18
 42
0.0625
 43
0.38
 44
0.18
 45
0.0
 46
0.0
 47
0.0
 48
0.0
140
0.18
141
0.09
142
0.0
143
25.399999999999999
144
1.0
145
0.0
146
1.0
147
0.09
 71
     0
 72
     0
 73
     1
 74
     1
 75
     0
 76
     0
 77
     0
 78
     0
170
     0
171
     2
172
     0
173
     0
174
     0
175
     0
176
     0
177
     0
178
     0
  0
DIMSTYLE
  2
ANNOTATIVE
 70
     0
  3

  4

  5

  6

  7

 40
1.0
 41
0.18
 42
0.0625
 43
0.38
 44
0.18
 45
0.0
 46
0.0
 47
0.0
 48
0.0
140
0.18
141
0.09
142
0.0
143
25.399999999999999
144
1.0
145
0.0
146
1.0
147
0.09
 71
     0
 72
     0
 73
     1
 74
     1
 75
     0
 76
     0
 77
     0
 78
     0
170
     0
171
     2
172
     0
173
     0
174
     0
175
     0
176
     0
177
     0
178
     0
  0
ENDTAB
  0
ENDSEC
  0
SECTION
  2
BLOCKS
  0
BLOCK
  8
0
  2
$MODEL_SPACE
 70
     0
 10
0.0
 20
0.0
 30
0.0
  3
$MODEL_SPACE
  1

  0
ENDBLK
  5
6651
  8
0
  0
BLOCK
 67
     1
  8
0
  2
$PAPER_SPACE
 70
     0
 10
0.0
 20
0.0
 30
0.0
  3
$PAPER_SPACE
  1

  0
ENDBLK
  5
664D
 67
     1
  8
0
  0
ENDSEC
  0
SECTION
  2
ENTITIES
  0
ARC
  5
6266
  8
0
 10
222.8521030699942
 20
75.24816216230623
 30
0.0
 40
12.25
 50
31.065080896359529
 51
46.062160114263293
  0
ARC
  5
6267
  8
0
 10
222.8521030699942
 20
75.24816216230623
 30
0.0
 40
12.25
 50
133.93783988573671
 51
148.93491910364051
  0
LINE
  5
6268
  8
0
 10
214.3521030699942
 20
90.569301544508804
 30
0.0
 11
214.3521030699942
 21
84.069301544522887
 31
0.0
  0
LINE
  5
6269
  8
0
 10
231.3521030699942
 20
90.569301544508804
 30
0.0
 11
231.3521030699942
 21
84.069301544494692
 31
0.0
  0
LINE
  5
626A
  8
0
 10
213.852103069994
 20
298.56930154456609
 30
0.0
 11
231.852103069994
 21
298.56930154456609
 31
0.0
  0
LINE
  5
626B
  8
0
 10
234.8521030699942
 20
100.2806264099401
 30
0.0
 11
234.8521030699942
 21
124.5693015445661
 31
0.0
  0
LINE
  5
626C
  8
3
 10
233.22810306999421
 20
105.5693015445661
 30
0.0
 11
233.22810306999421
 21
124.5693015445661
 31
0.0
  0
LINE
  5
626D
  8
3
 10
212.4761030699942
 20
105.5693015445661
 30
0.0
 11
212.4761030699942
 21
124.5693015445661
 31
0.0
  0
LINE
  5
626E
  8
0
 10
210.8521030699942
 20
100.2806264098779
 30
0.0
 11
210.8521030699942
 21
124.5693015445661
 31
0.0
  0
LINE
  5
626F
  8
0
 10
210.852103069994
 20
295.56930154456649
 30
0.0
 11
213.852103069994
 21
298.56930154456609
 31
0.0
  0
LINE
  5
6270
  8
0
 10
231.852103069994
 20
298.56930154456609
 30
0.0
 11
234.852103069994
 21
295.56930154456609
 31
0.0
  0
LINE
  5
6271
  8
0
 10
210.852103069994
 20
295.56930154456649
 30
0.0
 11
234.852103069994
 21
295.56930154456609
 31
0.0
  0
LINE
  5
6272
  8
0
 10
234.8521030699942
 20
105.5693015445661
 30
0.0
 11
210.8521030699942
 21
105.5693015445661
 31
0.0
  0
LINE
  5
6273
  8
3
 10
212.4761030699942
 20
105.5693015445661
 30
0.0
 11
210.8521030699942
 21
102.7564510330742
 31
0.0
  0
LINE
  5
6274
  8
3
 10
233.22810306999421
 20
105.5693015445661
 30
0.0
 11
234.8521030699942
 21
102.7564510330742
 31
0.0
  0
LINE
  5
6275
  8
0
 10
234.35210306994031
 20
90.569301544566059
 30
0.0
 11
211.35210307015589
 21
90.569301544566059
 31
0.0
  0
LINE
  5
6276
  8
0
 10
211.35210307004809
 20
100.5693015445661
 30
0.0
 11
234.35210306994031
 21
100.5693015445661
 31
0.0
  0
ARC
  5
6277
  8
0
 10
233.24440791546161
 20
94.146651814280403
 30
0.0
 40
6.1339745957208196
 50
64.384247469840446
 51
124.38424747120121
  0
LINE
  5
6278
  8
0
 10
236.70850953062109
 20
99.208829640171885
 30
0.0
 11
234.35210306994031
 21
100.5693015445661
 31
0.0
  0
LINE
  5
6279
  8
0
 10
236.70850953062109
 20
91.929773448960304
 30
0.0
 11
234.35210306994031
 21
90.569301544566059
 31
0.0
  0
ARC
  5
627A
  8
0
 10
233.24440791546161
 20
96.991951274851743
 30
0.0
 40
6.1339745957208196
 50
235.61575252879609
 51
295.61575253015963
  0
LINE
  5
627B
  8
0
 10
236.70850953059929
 20
99.208829640171885
 30
0.0
 11
236.70850953059929
 21
91.929773448947543
 31
0.0
  0
LINE
  5
627C
  8
0
 10
229.7803063003235
 20
99.208829640171885
 30
0.0
 11
229.7803063003235
 21
91.929773448960304
 31
0.0
  0
LINE
  5
627D
  8
0
 10
215.9238998397727
 20
99.208829640171885
 30
0.0
 11
215.9238998397727
 21
91.929773448960304
 31
0.0
  0
LINE
  5
627E
  8
0
 10
208.99569660949689
 20
99.208829640171885
 30
0.0
 11
208.99569660949689
 21
91.929773448947543
 31
0.0
  0
ARC
  5
627F
  8
0
 10
222.85210307004809
 20
113.78617990727049
 30
0.0
 40
22.928203228139491
 50
252.41204622431411
 51
287.58795377568589
  0
ARC
  5
6280
  8
0
 10
212.4597982246346
 20
96.991951274851743
 30
0.0
 40
6.1339745957208196
 50
244.3842474698404
 51
304.38424747120399
  0
LINE
  5
6281
  8
0
 10
208.99569660947509
 20
91.929773448960304
 30
0.0
 11
211.35210307015589
 21
90.569301544566059
 31
0.0
  0
LINE
  5
6282
  8
0
 10
208.99569660947509
 20
99.208829640171885
 30
0.0
 11
211.35210307015589
 21
100.5693015445661
 31
0.0
  0
ARC
  5
6283
  8
0
 10
212.4597982246346
 20
94.146651814280403
 30
0.0
 40
6.1339745957208196
 50
55.615752528798723
 51
115.6157525301595
  0
ARC
  5
6284
  8
0
 10
222.85210307004809
 20
77.35242318186171
 30
0.0
 40
22.928203228139491
 50
72.412046224314139
 51
107.5879537756858
  0
LINE
  5
6285
  8
0
 10
214.3521030699942
 20
84.069301544494692
 30
0.0
 11
231.3521030699942
 21
84.069301544494692
 31
0.0
  0
LINE
  5
6286
  8
0
 10
204.85210308464499
 20
142.99195128383479
 30
0.0
 11
204.85210308464499
 21
125.1466518052968
 31
0.0
  0
LINE
  5
6287
  8
0
 10
205.8521030699942
 20
143.56930154456609
 30
0.0
 11
204.85210308464499
 21
142.99195128383479
 31
0.0
  0
ARC
  5
6288
  8
0
 10
213.8521030773195
 20
116.99676077652271
 30
0.0
 40
25.995190507312159
 50
69.743841999652659
 51
110.2561580003473
  0
ARC
  5
6289
  8
0
 10
213.8521030773195
 20
151.14184231260899
 30
0.0
 40
25.995190507312159
 50
249.74384199965269
 51
290.2561580003474
  0
LINE
  5
628A
  8
0
 10
205.8521030699942
 20
124.5693015445661
 30
0.0
 11
204.85210308464499
 21
125.1466518052968
 31
0.0
  0
LINE
  5
628B
  8
0
 10
239.852103069994
 20
124.5693015445661
 30
0.0
 11
240.85210305534321
 21
125.1466518052968
 31
0.0
  0
ARC
  5
628C
  8
0
 10
231.8521030626687
 20
151.14184231260899
 30
0.0
 40
25.995190507312159
 50
249.74384199965269
 51
290.2561580003474
  0
ARC
  5
628D
  8
0
 10
231.8521030626687
 20
116.99676077652271
 30
0.0
 40
25.995190507312159
 50
69.743841999652659
 51
110.2561580003473
  0
LINE
  5
628E
  8
0
 10
239.852103069994
 20
143.56930154456609
 30
0.0
 11
240.85210305534321
 21
142.99195128383479
 31
0.0
  0
LINE
  5
628F
  8
0
 10
205.8521030699942
 20
143.56930154456609
 30
0.0
 11
239.852103069994
 21
143.56930154456609
 31
0.0
  0
LINE
  5
6290
  8
0
 10
240.85210305534321
 20
142.99195128383479
 30
0.0
 11
240.85210305534321
 21
125.1466518052968
 31
0.0
  0
LINE
  5
6291
  8
0
 10
205.8521030699942
 20
124.5693015445661
 30
0.0
 11
239.852103069994
 21
124.5693015445661
 31
0.0
  0
LINE
  5
6292
  8
0
 10
222.8521030699942
 20
141.38425613056251
 30
0.0
 11
222.8521030699942
 21
126.7543469585691
 31
0.0
  0
LINE
  5
6293
  8
0
 10
234.8521030699942
 20
143.56930154456609
 30
0.0
 11
234.852103069994
 21
295.56930154456609
 31
0.0
  0
LINE
  5
6294
  8
3
 10
233.22810306999421
 20
143.56930154456609
 30
0.0
 11
233.22810306999389
 21
297.19330154456588
 31
0.0
  0
LINE
  5
6295
  8
0
 10
210.8521030699942
 20
143.56930154456609
 30
0.0
 11
210.852103069994
 21
295.56930154456649
 31
0.0
  0
LINE
  5
6296
  8
3
 10
212.4761030699942
 20
143.5693015445656
 30
0.0
 11
212.476103069994
 21
297.19330154456628
 31
0.0
  0
LINE
  5
6297
  8
0
 10
213.852103069994
 20
298.56930154456609
 30
0.0
 11
231.852103069994
 21
298.56930154456609
 31
0.0
  0
LINE
  5
6298
  8
0
 10
210.852103069994
 20
295.56930154456649
 30
0.0
 11
213.852103069994
 21
298.56930154456609
 31
0.0
  0
LINE
  5
6299
  8
0
 10
231.852103069994
 20
298.56930154456609
 30
0.0
 11
234.852103069994
 21
295.56930154456609
 31
0.0
  0
LINE
  5
629A
  8
0
 10
210.852103069994
 20
295.56930154456649
 30
0.0
 11
234.852103069994
 21
295.56930154456609
 31
0.0
  0
LINE
  5
629B
  8
0
 10
234.8521030699942
 20
143.56930154456609
 30
0.0
 11
234.852103069994
 21
295.56930154456609
 31
0.0
  0
LINE
  5
629C
  8
3
 10
233.22810306999421
 20
143.56930154456609
 30
0.0
 11
233.22810306999389
 21
297.19330154456588
 31
0.0
  0
LINE
  5
629D
  8
0
 10
210.8521030699942
 20
143.56930154456609
 30
0.0
 11
210.852103069994
 21
295.56930154456649
 31
0.0
  0
LINE
  5
629E
  8
3
 10
212.4761030699942
 20
143.5693015445656
 30
0.0
 11
212.476103069994
 21
297.19330154456628
 31
0.0
  0
LINE
  5
629F
  8
0
 10
189.3521030699942
 20
57.569301544566542
 30
0.0
 11
189.3521030699942
 21
54.569301544566528
 31
0.0
  0
LINE
  5
62A0
  8
0
 10
182.8521030699942
 20
57.569301544566542
 30
0.0
 11
182.8521030699942
 21
66.41400621285608
 31
0.0
  0
LINE
  5
62A1
  8
0
 10
189.3521030699942
 20
69.600805311101112
 30
0.0
 11
189.3521030699942
 21
70.442192391848266
 31
0.0
  0
LINE
  5
62A2
  8
0
 10
189.3521030699942
 20
69.600805311101112
 30
0.0
 11
183.49312399068521
 21
67.347351819059213
 31
0.0
  0
LINE
  5
62A3
  8
0
 10
195.3521030699942
 20
73.971830273166461
 30
0.0
 11
189.91662688760599
 21
71.342392644332691
 31
0.0
  0
LINE
  5
62A4
  8
0
 10
202.0016600189185
 20
76.868040142826658
 30
0.0
 11
196.12400395652611
 21
75.491051723440492
 31
0.0
  0
LINE
  5
62A5
  8
0
 10
207.8521030699942
 20
79.971830273166461
 30
0.0
 11
202.69193952020419
 21
78.290969988375053
 31
0.0
  0
LINE
  5
62A6
  8
0
 10
207.8521030699942
 20
80.569301544566542
 30
0.0
 11
207.8521030699942
 21
79.971830273166461
 31
0.0
  0
LINE
  5
62A7
  8
0
 10
195.3521030699942
 20
73.971830273166461
 30
0.0
 11
195.3521030699942
 21
74.517413805919418
 31
0.0
  0
LINE
  5
62A8
  8
0
 10
202.0016600189185
 20
76.868040142826658
 30
0.0
 11
202.0016600189185
 21
77.340142342228987
 31
0.0
  0
ARC
  5
62A9
  8
0
 10
208.8521030699942
 20
80.569301544566542
 30
0.0
 40
1.0
 50
90.0
 51
180.00000000000099
  0
ARC
  5
62AA
  8
0
 10
203.0016600189185
 20
77.340142342228987
 30
0.0
 40
1.0
 50
108.0423872583581
 51
180.0
  0
ARC
  5
62AB
  8
0
 10
196.3521030699942
 20
74.517413805919418
 30
0.0
 40
1.0
 50
103.1851843997529
 51
180.0
  0
ARC
  5
62AC
  8
0
 10
183.8521030699942
 20
66.41400621285608
 30
0.0
 40
1.0
 50
111.03751102542169
 51
180.0
  0
ARC
  5
62AD
  8
0
 10
190.3521030699942
 20
70.442192391848266
 30
0.0
 40
1.0
 50
115.8155979716511
 51
180.0
  0
LINE
  5
62AE
  8
0
 10
256.3521030699942
 20
54.569301544566528
 30
0.0
 11
189.3521030699942
 21
54.569301544566528
 31
0.0
  0
ARC
  5
62AF
  8
0
 10
255.3521030699942
 20
70.442192391848266
 30
0.0
 40
1.0
 50
0.0
 51
64.18440202834887
  0
ARC
  5
62B0
  8
0
 10
261.8521030699942
 20
66.41400621285608
 30
0.0
 40
1.0
 50
0.0
 51
68.962488974578235
  0
ARC
  5
62B1
  8
0
 10
249.3521030699942
 20
74.517413805919418
 30
0.0
 40
1.0
 50
0.0
 51
76.814815600247044
  0
ARC
  5
62B2
  8
0
 10
242.7025461210699
 20
77.340142342228987
 30
0.0
 40
1.0
 50
0.0
 51
71.957612741641853
  0
ARC
  5
62B3
  8
0
 10
236.8521030699942
 20
80.569301544566542
 30
0.0
 40
1.0
 50
359.99999999999892
 51
90.0
  0
LINE
  5
62B4
  8
0
 10
243.7025461210699
 20
76.868040142826658
 30
0.0
 11
243.7025461210699
 21
77.340142342228987
 31
0.0
  0
LINE
  5
62B5
  8
0
 10
250.3521030699942
 20
73.971830273166461
 30
0.0
 11
250.3521030699942
 21
74.517413805919418
 31
0.0
  0
LINE
  5
62B6
  8
0
 10
237.8521030699942
 20
80.569301544566542
 30
0.0
 11
237.8521030699942
 21
79.971830273166461
 31
0.0
  0
LINE
  5
62B7
  8
0
 10
237.8521030699942
 20
79.971830273166461
 30
0.0
 11
243.01226661978421
 21
78.290969988375053
 31
0.0
  0
LINE
  5
62B8
  8
0
 10
237.8521030699942
 20
79.971830273166461
 30
0.0
 11
207.8521030699942
 21
79.971830273166461
 31
0.0
  0
LINE
  5
62B9
  8
0
 10
243.7025461210699
 20
76.868040142826658
 30
0.0
 11
249.58020218346221
 21
75.491051723440492
 31
0.0
  0
LINE
  5
62BA
  8
0
 10
250.3521030699942
 20
73.971830273166461
 30
0.0
 11
255.7875792523823
 21
71.342392644332691
 31
0.0
  0
LINE
  5
62BB
  8
0
 10
256.3521030699942
 20
69.600805311101112
 30
0.0
 11
262.21108214930308
 21
67.347351819059213
 31
0.0
  0
LINE
  5
62BC
  8
0
 10
256.3521030699942
 20
69.600805311101112
 30
0.0
 11
256.3521030699942
 21
70.442192391848266
 31
0.0
  0
LINE
  5
62BD
  8
0
 10
236.8521030699942
 20
81.569301544566542
 30
0.0
 11
208.8521030699942
 21
81.569301544566542
 31
0.0
  0
LINE
  5
62BE
  8
0
 10
243.7025461210699
 20
76.868040142826658
 30
0.0
 11
202.0016600189185
 21
76.868040142826658
 31
0.0
  0
LINE
  5
62BF
  8
0
 10
250.3521030699942
 20
73.971830273166461
 30
0.0
 11
195.3521030699942
 21
73.971830273166461
 31
0.0
  0
LINE
  5
62C0
  8
0
 10
256.3521030699942
 20
69.600805311101112
 30
0.0
 11
189.3521030699942
 21
69.600805311101112
 31
0.0
  0
LINE
  5
62C1
  8
0
 10
256.3521030699942
 20
57.569301544566542
 30
0.0
 11
256.3521030699942
 21
54.569301544566528
 31
0.0
  0
LINE
  5
62C2
  8
0
 10
262.8521030699942
 20
57.569301544566542
 30
0.0
 11
262.8521030699942
 21
66.41400621285608
 31
0.0
  0
LINE
  5
62C3
  8
0
 10
262.8521030699942
 20
57.569301544566542
 30
0.0
 11
182.8521030699942
 21
57.569301544566542
 31
0.0
  0
LINE
  5
62C4
  8
1
 10
222.852103069994
 20
303.56930154456609
 30
0.0
 11
222.8521030699942
 21
49.569301544566528
 31
0.0
  0
CIRCLE
  5
62C5
  8
3
 10
91.062414615988445
 20
370.25219267126818
 30
0.0
 40
10.375999999999999
  0
CIRCLE
  5
62C6
  8
0
 10
91.062414615988445
 20
370.25219267126818
 30
0.0
 40
12.0
  0
CIRCLE
  5
62C7
  8
0
 10
91.062414615988445
 20
370.25219267126818
 30
0.0
 40
17.0
  0
LINE
  5
62C8
  8
0
 10
80.67010977902828
 20
388.25219265661713
 30
0.0
 11
101.4547194698534
 21
388.25219265661713
 31
0.0
  0
LINE
  5
62C9
  8
0
 10
101.45471945294589
 20
388.25219265660257
 30
0.0
 11
111.8470242983621
 21
370.25219265661713
 31
0.0
  0
LINE
  5
62CA
  8
0
 10
111.8470242898893
 20
370.2521926712709
 30
0.0
 11
101.4547194444803
 21
352.2521926712709
 31
0.0
  0
LINE
  5
62CB
  8
0
 10
101.454719452935
 20
352.25219268592468
 30
0.0
 11
80.670109762109846
 21
352.25219268592468
 31
0.0
  0
LINE
  5
62CC
  8
0
 10
80.670109779030085
 20
352.25219268592468
 30
0.0
 11
70.277804933613879
 21
370.25219268592468
 31
0.0
  0
LINE
  5
62CD
  8
0
 10
70.277804942086732
 20
370.2521926712709
 30
0.0
 11
80.670109787495662
 21
388.2521926712709
 31
0.0
  0
ARC
  5
62CE
  8
0
 10
91.062414615990747
 20
75.248162162306699
 30
0.0
 40
12.25
 50
31.065080896359529
 51
46.062160114264479
  0
LINE
  5
62CF
  8
3
 10
101.4384146159905
 20
105.5693015445665
 30
0.0
 11
103.0624146159907
 21
102.7564510330746
 31
0.0
  0
LINE
  5
62D0
  8
3
 10
80.686414615990543
 20
105.5693015445665
 30
0.0
 11
79.062414615990733
 21
102.7564510330746
 31
0.0
  0
LINE
  5
62D1
  8
0
 10
103.0624146159907
 20
105.5693015445665
 30
0.0
 11
79.062414615990733
 21
105.5693015445665
 31
0.0
  0
LINE
  5
62D2
  8
0
 10
79.062414615990733
 20
295.569301544567
 30
0.0
 11
103.0624146159907
 21
295.56930154456649
 31
0.0
  0
LINE
  5
62D3
  8
0
 10
100.0624146159907
 20
298.56930154456649
 30
0.0
 11
103.0624146159907
 21
295.56930154456649
 31
0.0
  0
LINE
  5
62D4
  8
0
 10
79.062414615990733
 20
295.569301544567
 30
0.0
 11
82.062414615990733
 21
298.569301544567
 31
0.0
  0
LINE
  5
62D5
  8
0
 10
79.062414615990733
 20
100.2806264099528
 30
0.0
 11
79.062414615990733
 21
124.5693015445661
 31
0.0
  0
LINE
  5
62D6
  8
3
 10
80.686414615990543
 20
105.5693015445665
 30
0.0
 11
80.686414615990543
 21
124.5693015445661
 31
0.0
  0
LINE
  5
62D7
  8
3
 10
101.43841461599069
 20
105.5693015445665
 30
0.0
 11
101.43841461599069
 21
124.5693015445661
 31
0.0
  0
LINE
  5
62D8
  8
0
 10
103.0624146159907
 20
100.2806264099912
 30
0.0
 11
103.0624146159907
 21
124.5693015445661
 31
0.0
  0
LINE
  5
62D9
  8
0
 10
82.062414615990733
 20
298.569301544567
 30
0.0
 11
100.0624146159907
 21
298.56930154456649
 31
0.0
  0
LINE
  5
62DA
  8
0
 10
99.562414615990733
 20
90.569301544509244
 30
0.0
 11
99.562414615990733
 21
84.069301544495147
 31
0.0
  0
LINE
  5
62DB
  8
0
 10
82.562414615990718
 20
90.569301544509244
 30
0.0
 11
82.562414615990718
 21
84.069301544523341
 31
0.0
  0
LINE
  5
62DC
  8
0
 10
102.5624146160239
 20
90.569301544489676
 30
0.0
 11
79.56241461595755
 21
90.569301544528344
 31
0.0
  0
LINE
  5
62DD
  8
0
 10
79.56241461595755
 20
100.5693015445283
 30
0.0
 11
102.5624146160239
 21
100.569301544567
 31
0.0
  0
ARC
  5
62DE
  8
0
 10
85.062414616023943
 20
82.950499392629567
 30
0.0
 40
17.330127017333279
 50
69.74384199763081
 51
110.2561580023692
  0
LINE
  5
62DF
  8
0
 10
79.062414616008937
 20
100.2806264099633
 30
0.0
 11
79.562414616023943
 21
100.569301544567
 31
0.0
  0
LINE
  5
62E0
  8
0
 10
79.062414616008937
 20
90.857976679093298
 30
0.0
 11
79.562414616023943
 21
90.569301544489676
 31
0.0
  0
ARC
  5
62E1
  8
0
 10
85.062414616023943
 20
108.18810369642659
 30
0.0
 40
17.330127017333279
 50
249.7438419976308
 51
290.2561580023692
  0
LINE
  5
62E2
  8
0
 10
79.062414616008937
 20
100.2806264099633
 30
0.0
 11
79.062414616023943
 21
90.857976679084686
 31
0.0
  0
LINE
  5
62E3
  8
0
 10
91.062414616023943
 20
91.92977344892256
 30
0.0
 11
91.062414616023943
 21
99.208829640134127
 31
0.0
  0
LINE
  5
62E4
  8
0
 10
103.06241461603889
 20
100.2806264099633
 30
0.0
 11
103.0624146160239
 21
90.857976679084686
 31
0.0
  0
ARC
  5
62E5
  8
0
 10
97.062414616023943
 20
108.18810369642659
 30
0.0
 40
17.330127017333279
 50
249.7438419976308
 51
290.2561580023692
  0
LINE
  5
62E6
  8
0
 10
103.06241461603889
 20
90.857976679093298
 30
0.0
 11
102.5624146160239
 21
90.569301544489676
 31
0.0
  0
LINE
  5
62E7
  8
0
 10
103.06241461603889
 20
100.2806264099633
 30
0.0
 11
102.5624146160239
 21
100.569301544567
 31
0.0
  0
ARC
  5
62E8
  8
0
 10
97.062414616023943
 20
82.950499392629567
 30
0.0
 40
17.330127017333279
 50
69.74384199763081
 51
110.2561580023692
  0
ARC
  5
62E9
  8
0
 10
91.062414615990747
 20
75.248162162306699
 30
0.0
 40
12.25
 50
133.93783988554779
 51
148.93491910364051
  0
LINE
  5
62EA
  8
0
 10
82.562414615990718
 20
84.069301544523341
 30
0.0
 11
99.562414615990733
 21
84.069301544495147
 31
0.0
  0
LINE
  5
62EB
  8
0
 10
111.8470242898884
 20
141.38425613056299
 30
0.0
 11
111.8470242898884
 21
126.75434695857
 31
0.0
  0
LINE
  5
62EC
  8
0
 10
108.0624146159891
 20
143.56930154456609
 30
0.0
 11
111.8470242898884
 21
141.38425613056299
 31
0.0
  0
ARC
  5
62ED
  8
0
 10
106.6508718714135
 20
133.79098939698201
 30
0.0
 40
9.2009618868538041
 50
64.384247467924951
 51
124.38424746794441
  0
ARC
  5
62EE
  8
0
 10
106.6508718714135
 20
134.34761369215099
 30
0.0
 40
9.2009618868538041
 50
235.61575253205561
 51
295.61575253207508
  0
LINE
  5
62EF
  8
0
 10
108.0624146159891
 20
124.5693015445661
 30
0.0
 11
111.8470242898884
 21
126.75434695857
 31
0.0
  0
LINE
  5
62F0
  8
0
 10
74.062414615989368
 20
124.5693015445661
 30
0.0
 11
70.277804942090143
 21
126.75434695857
 31
0.0
  0
ARC
  5
62F1
  8
0
 10
75.473957360564981
 20
134.34761369215099
 30
0.0
 40
9.2009618868538041
 50
244.38424746792489
 51
304.38424746794442
  0
ARC
  5
62F2
  8
0
 10
91.062414615991216
 20
159.53895662281431
 30
0.0
 40
34.392304817516766
 50
252.41204622606429
 51
287.58795377393722
  0
ARC
  5
62F3
  8
0
 10
75.473957360564981
 20
133.79098939698201
 30
0.0
 40
9.2009618868538041
 50
55.615752532055602
 51
115.61575253207501
  0
ARC
  5
62F4
  8
0
 10
91.062414615991216
 20
108.5996464663187
 30
0.0
 40
34.392304817516766
 50
72.412046226062699
 51
107.5879537739373
  0
LINE
  5
62F5
  8
0
 10
101.4547194529425
 20
141.38425613056299
 30
0.0
 11
101.4547194529425
 21
126.75434695857
 31
0.0
  0
LINE
  5
62F6
  8
0
 10
80.670109779040345
 20
141.38425613056299
 30
0.0
 11
80.670109779040345
 21
126.75434695857
 31
0.0
  0
LINE
  5
62F7
  8
0
 10
74.062414615989368
 20
143.56930154456609
 30
0.0
 11
70.277804942090143
 21
141.38425613056299
 31
0.0
  0
LINE
  5
62F8
  8
0
 10
70.277804942090143
 20
141.38425613056299
 30
0.0
 11
70.277804942090143
 21
126.75434695857
 31
0.0
  0
LINE
  5
62F9
  8
0
 10
74.062414615989155
 20
124.5693015445661
 30
0.0
 11
108.0624146159891
 21
124.5693015445661
 31
0.0
  0
LINE
  5
62FA
  8
0
 10
74.062414615989368
 20
143.56930154456609
 30
0.0
 11
108.0624146159891
 21
143.56930154456609
 31
0.0
  0
LINE
  5
62FB
  8
0
 10
103.0624146159907
 20
143.56930154456609
 30
0.0
 11
103.0624146159907
 21
295.56930154456649
 31
0.0
  0
LINE
  5
62FC
  8
3
 10
101.43841461599069
 20
143.56930154456609
 30
0.0
 11
101.43841461599069
 21
297.19330154456679
 31
0.0
  0
LINE
  5
62FD
  8
3
 10
80.686414615990543
 20
143.56930154456609
 30
0.0
 11
80.686414615990543
 21
297.19330154456679
 31
0.0
  0
LINE
  5
62FE
  8
0
 10
79.062414615990733
 20
143.56930154456609
 30
0.0
 11
79.062414615990733
 21
295.569301544567
 31
0.0
  0
LINE
  5
62FF
  8
0
 10
131.06241461598839
 20
57.569301544566542
 30
0.0
 11
51.062414615988459
 21
57.569301544566542
 31
0.0
  0
LINE
  5
6300
  8
0
 10
131.06241461598839
 20
57.569301544566542
 30
0.0
 11
131.06241461598839
 21
66.41400621285608
 31
0.0
  0
LINE
  5
6301
  8
0
 10
124.5624146159884
 20
57.569301544566542
 30
0.0
 11
124.5624146159884
 21
54.569301544566528
 31
0.0
  0
CIRCLE
  5
6302
  8
0
 10
91.062414615988445
 20
370.25219267126818
 30
0.0
 40
40.00000000000005
  0
LINE
  5
6303
  8
1
 10
91.062414615988445
 20
415.9664783855535
 30
0.0
 11
91.062414615988445
 21
324.53790695698189
 31
0.0
  0
LINE
  5
6304
  8
1
 10
136.7767003302742
 20
370.25219267126818
 30
0.0
 11
45.34812890170268
 21
370.25219267126818
 31
0.0
  0
LINE
  5
6305
  8
0
 10
124.5624146159884
 20
69.600805311101112
 30
0.0
 11
57.562414615988473
 21
69.600805311101112
 31
0.0
  0
LINE
  5
6306
  8
0
 10
118.5624146159884
 20
73.971830273166461
 30
0.0
 11
63.562414615988459
 21
73.971830273166461
 31
0.0
  0
LINE
  5
6307
  8
0
 10
111.9128576670641
 20
76.868040142826658
 30
0.0
 11
70.211971564912801
 21
76.868040142826658
 31
0.0
  0
LINE
  5
6308
  8
0
 10
105.0624146159884
 20
81.569301544566542
 30
0.0
 11
77.062414615988459
 21
81.569301544566542
 31
0.0
  0
LINE
  5
6309
  8
0
 10
124.5624146159884
 20
69.600805311101112
 30
0.0
 11
124.5624146159884
 21
70.442192391848266
 31
0.0
  0
LINE
  5
630A
  8
0
 10
124.5624146159884
 20
69.600805311101112
 30
0.0
 11
130.42139369529741
 21
67.347351819059213
 31
0.0
  0
LINE
  5
630B
  8
0
 10
118.5624146159884
 20
73.971830273166461
 30
0.0
 11
123.9978907983766
 21
71.342392644332691
 31
0.0
  0
LINE
  5
630C
  8
0
 10
111.9128576670641
 20
76.868040142826658
 30
0.0
 11
117.79051372945651
 21
75.491051723440492
 31
0.0
  0
LINE
  5
630D
  8
0
 10
106.0624146159884
 20
79.971830273166461
 30
0.0
 11
76.062414615988459
 21
79.971830273166461
 31
0.0
  0
LINE
  5
630E
  8
0
 10
106.0624146159884
 20
79.971830273166461
 30
0.0
 11
111.2225781657785
 21
78.290969988375053
 31
0.0
  0
LINE
  5
630F
  8
0
 10
106.0624146159884
 20
80.569301544566542
 30
0.0
 11
106.0624146159884
 21
79.971830273166461
 31
0.0
  0
LINE
  5
6310
  8
0
 10
118.5624146159884
 20
73.971830273166461
 30
0.0
 11
118.5624146159884
 21
74.517413805919418
 31
0.0
  0
LINE
  5
6311
  8
0
 10
111.9128576670641
 20
76.868040142826658
 30
0.0
 11
111.9128576670641
 21
77.340142342228987
 31
0.0
  0
ARC
  5
6312
  8
0
 10
105.0624146159884
 20
80.569301544566542
 30
0.0
 40
1.0
 50
359.99999999999892
 51
90.0
  0
ARC
  5
6313
  8
0
 10
110.9128576670641
 20
77.340142342228987
 30
0.0
 40
1.0
 50
0.0
 51
71.957612741641853
  0
ARC
  5
6314
  8
0
 10
117.5624146159885
 20
74.517413805919418
 30
0.0
 40
1.0
 50
0.0
 51
76.814815600247044
  0
ARC
  5
6315
  8
0
 10
130.0624146159885
 20
66.41400621285608
 30
0.0
 40
1.0
 50
0.0
 51
68.962488974578235
  0
ARC
  5
6316
  8
0
 10
123.5624146159884
 20
70.442192391848266
 30
0.0
 40
1.0
 50
0.0
 51
64.18440202834887
  0
LINE
  5
6317
  8
0
 10
124.5624146159884
 20
54.569301544566528
 30
0.0
 11
57.562414615988473
 21
54.569301544566528
 31
0.0
  0
ARC
  5
6318
  8
0
 10
58.562414615988459
 20
70.442192391848266
 30
0.0
 40
1.0
 50
115.8155979716511
 51
180.0
  0
ARC
  5
6319
  8
0
 10
52.062414615988459
 20
66.41400621285608
 30
0.0
 40
1.0
 50
111.03751102542169
 51
180.0
  0
ARC
  5
631A
  8
0
 10
64.562414615988459
 20
74.517413805919418
 30
0.0
 40
1.0
 50
103.1851843997529
 51
180.0
  0
ARC
  5
631B
  8
0
 10
71.211971564912801
 20
77.340142342228987
 30
0.0
 40
1.0
 50
108.0423872583581
 51
180.0
  0
ARC
  5
631C
  8
0
 10
77.062414615988459
 20
80.569301544566542
 30
0.0
 40
1.0
 50
90.0
 51
180.00000000000099
  0
LINE
  5
631D
  8
0
 10
70.211971564912801
 20
76.868040142826658
 30
0.0
 11
70.211971564912801
 21
77.340142342228987
 31
0.0
  0
LINE
  5
631E
  8
0
 10
63.562414615988459
 20
73.971830273166461
 30
0.0
 11
63.562414615988459
 21
74.517413805919418
 31
0.0
  0
LINE
  5
631F
  8
0
 10
76.062414615988459
 20
80.569301544566542
 30
0.0
 11
76.062414615988459
 21
79.971830273166461
 31
0.0
  0
LINE
  5
6320
  8
0
 10
76.062414615988459
 20
79.971830273166461
 30
0.0
 11
70.90225106619846
 21
78.290969988375053
 31
0.0
  0
LINE
  5
6321
  8
0
 10
70.211971564912801
 20
76.868040142826658
 30
0.0
 11
64.33431550252044
 21
75.491051723440492
 31
0.0
  0
LINE
  5
6322
  8
0
 10
63.562414615988459
 20
73.971830273166461
 30
0.0
 11
58.12693843360033
 21
71.342392644332691
 31
0.0
  0
LINE
  5
6323
  8
0
 10
57.562414615988473
 20
69.600805311101112
 30
0.0
 11
51.703435536679542
 21
67.347351819059213
 31
0.0
  0
LINE
  5
6324
  8
0
 10
57.562414615988473
 20
69.600805311101112
 30
0.0
 11
57.562414615988473
 21
70.442192391848266
 31
0.0
  0
LINE
  5
6325
  8
0
 10
51.062414615988459
 20
57.569301544566542
 30
0.0
 11
51.062414615988459
 21
66.41400621285608
 31
0.0
  0
LINE
  5
6326
  8
0
 10
57.562414615988473
 20
57.569301544566542
 30
0.0
 11
57.562414615988473
 21
54.569301544566528
 31
0.0
  0
CIRCLE
  5
6327
  8
0
 10
91.062414615988445
 20
370.25219267126818
 30
0.0
 40
33.5
  0
CIRCLE
  5
6328
  8
0
 10
91.062414615988445
 20
370.25219267126818
 30
0.0
 40
27.5
  0
CIRCLE
  5
6329
  8
0
 10
91.062414615988445
 20
370.25219267126818
 30
0.0
 40
20.850443051075668
  0
ARC
  5
632A
  8
0
 10
91.062414615985503
 20
75.239567725763891
 30
0.0
 40
12.25
 50
133.87987710304881
 51
148.88797918026799
  0
LINE
  5
632B
  8
1
 10
91.062414615988445
 20
49.569301544566528
 30
0.0
 11
91.062414615990747
 21
303.56930154456649
 31
0.0
  0
TEXT
  5
66D1
  8
0
 62
     3
 10
0.0
 20
0.0
 30
0.0
 40
10.0
  1
LVAR80L24C
  7
STANDARD1
  0
ENDSEC
  0
EOF
