  0
SECTION
  2
HEADER
  9
$ACADVER
  1
AC1009
  9
$INSBASE
 10
0.0
 20
0.0
 30
0.0
  9
$EXTMIN
 10
0.0
 20
-2.960436562073669
 30
0.0
  9
$EXTMAX
 10
229.33906349549679
 20
231.73872743404451
 30
0.0
  9
$LIMMIN
 10
0.0
 20
0.0
  9
$LIMMAX
 10
375.0
 20
270.0
  9
$ORTHOMODE
 70
     1
  9
$REGENMODE
 70
     1
  9
$FILLMODE
 70
     1
  9
$QTEXTMODE
 70
     0
  9
$MIRRTEXT
 70
     0
  9
$DRAGMODE
 70
     2
  9
$LTSCALE
 40
6.0
  9
$OSMODE
 70
  3071
  9
$ATTMODE
 70
     1
  9
$TEXTSIZE
 40
0.2
  9
$TRACEWID
 40
0.05
  9
$TEXTSTYLE
  7
STANDARD
  9
$CLAYER
  8
0
  9
$CELTYPE
  6
BYLAYER
  9
$CECOLOR
 62
   256
  9
$DIMSCALE
 40
1.0
  9
$DIMASZ
 40
3.0
  9
$DIMEXO
 40
1.0
  9
$DIMDLI
 40
6.0
  9
$DIMRND
 40
0.0
  9
$DIMDLE
 40
0.0
  9
$DIMEXE
 40
1.0
  9
$DIMTP
 40
495.0
  9
$DIMTM
 40
0.0
  9
$DIMTXT
 40
3.0
  9
$DIMCEN
 40
0.0
  9
$DIMTSZ
 40
0.0
  9
$DIMTOL
 70
     0
  9
$DIMLIM
 70
     0
  9
$DIMTIH
 70
     0
  9
$DIMTOH
 70
     0
  9
$DIMSE1
 70
     0
  9
$DIMSE2
 70
     0
  9
$DIMTAD
 70
     1
  9
$DIMZIN
 70
     0
  9
$DIMBLK
  1

  9
$DIMASO
 70
     0
  9
$DIMSHO
 70
     0
  9
$DIMPOST
  1

  9
$DIMAPOST
  1

  9
$DIMALT
 70
     0
  9
$DIMALTD
 70
     2
  9
$DIMALTF
 40
25.399999999999999
  9
$DIMLFAC
 40
1.0
  9
$DIMTOFL
 70
     1
  9
$DIMTVP
 40
0.0
  9
$DIMTIX
 70
     1
  9
$DIMSOXD
 70
     0
  9
$DIMSAH
 70
     0
  9
$DIMBLK1
  1

  9
$DIMBLK2
  1

  9
$DIMSTYLE
  2
STANDARD
  9
$DIMCLRD
 70
     0
  9
$DIMCLRE
 70
     0
  9
$DIMCLRT
 70
     4
  9
$DIMTFAC
 40
1.0
  9
$DIMGAP
 40
1.0
  9
$LUNITS
 70
     2
  9
$LUPREC
 70
     4
  9
$SKETCHINC
 40
0.1
  9
$FILLETRAD
 40
2.0
  9
$AUNITS
 70
     0
  9
$AUPREC
 70
     0
  9
$MENU
  1
C:\R13\WIN\SUPPORT\ACAD-I
  9
$ELEVATION
 40
0.0
  9
$PELEVATION
 40
0.0
  9
$THICKNESS
 40
0.0
  9
$LIMCHECK
 70
     0
  9
$BLIPMODE
 70
     0
  9
$CHAMFERA
 40
0.0
  9
$CHAMFERB
 40
0.0
  9
$SKPOLY
 70
     0
  9
$TDCREATE
 40
2451962.451897095
  9
$TDUPDATE
 40
2456597.6135559948
  9
$TDINDWG
 40
0.0501603356
  9
$TDUSRTIMER
 40
2456555.3495878582
  9
$USRTIMER
 70
     1
  9
$ANGBASE
 50
0.0
  9
$ANGDIR
 70
     0
  9
$PDMODE
 70
     0
  9
$PDSIZE
 40
0.0
  9
$PLINEWID
 40
0.0
  9
$COORDS
 70
     1
  9
$SPLFRAME
 70
     0
  9
$SPLINETYPE
 70
     6
  9
$SPLINESEGS
 70
     8
  9
$ATTDIA
 70
     0
  9
$ATTREQ
 70
     1
  9
$HANDLING
 70
     1
  9
$HANDSEED
  5
4AA7
  9
$SURFTAB1
 70
     6
  9
$SURFTAB2
 70
     6
  9
$SURFTYPE
 70
     6
  9
$SURFU
 70
     6
  9
$SURFV
 70
     6
  9
$UCSNAME
  2

  9
$UCSORG
 10
0.0
 20
0.0
 30
0.0
  9
$UCSXDIR
 10
1.0
 20
0.0
 30
0.0
  9
$UCSYDIR
 10
0.0
 20
1.0
 30
0.0
  9
$PUCSNAME
  2

  9
$PUCSORG
 10
0.0
 20
0.0
 30
0.0
  9
$PUCSXDIR
 10
1.0
 20
0.0
 30
0.0
  9
$PUCSYDIR
 10
0.0
 20
1.0
 30
0.0
  9
$USERI1
 70
     4
  9
$USERI2
 70
     1
  9
$USERI3
 70
     0
  9
$USERI4
 70
     0
  9
$USERI5
 70
     0
  9
$USERR1
 40
1.0
  9
$USERR2
 40
3.0
  9
$USERR3
 40
3.0
  9
$USERR4
 40
3.0
  9
$USERR5
 40
10.0
  9
$WORLDVIEW
 70
     1
  9
$SHADEDGE
 70
     3
  9
$SHADEDIF
 70
    70
  9
$TILEMODE
 70
     1
  9
$MAXACTVP
 70
    16
  9
$PLIMCHECK
 70
     0
  9
$PEXTMIN
 10
1.0000000000000000E+020
 20
1.0000000000000000E+020
 30
1.0000000000000000E+020
  9
$PEXTMAX
 10
-1.0000000000000000E+020
 20
-1.0000000000000000E+020
 30
-1.0000000000000000E+020
  9
$PLIMMIN
 10
0.0
 20
0.0
  9
$PLIMMAX
 10
12.0
 20
9.0
  9
$UNITMODE
 70
     0
  9
$VISRETAIN
 70
     0
  9
$PLINEGEN
 70
     0
  9
$PSLTSCALE
 70
     0
  0
ENDSEC
  0
SECTION
  2
TABLES
  0
TABLE
  2
VPORT
 70
     1
  0
VPORT
  2
*ACTIVE
 70
     0
 10
0.0
 20
0.0
 11
1.0
 21
1.0
 12
187.49427839065231
 22
134.10366293909439
 13
0.0
 23
0.0
 14
10.0
 24
10.0
 15
10.0
 25
10.0
 16
0.0
 26
0.0
 36
1.0
 17
0.0
 27
0.0
 37
0.0
 40
277.29405978699532
 41
2.304913294797688
 42
50.0
 43
0.0
 44
0.0
 50
0.0
 51
0.0
 71
    16
 72
   100
 73
     1
 74
     0
 75
     0
 76
     0
 77
     0
 78
     0
  0
ENDTAB
  0
TABLE
  2
LTYPE
 70
     3
  0
LTYPE
  2
CONTINUOUS
 70
     0
  3
Solid Line
 72
    65
 73
     0
 40
0.0
  0
LTYPE
  2
PHANTOM2
 70
     0
  3
___ _ _ ___ _ _ ___ _ _ ___ _ _
 72
    65
 73
     6
 40
1.25
 49
0.625
 49
-0.125
 49
0.125
 49
-0.125
 49
0.125
 49
-0.125
  0
LTYPE
  2
CENTER
 70
     0
  3
____ _ ____ _ ____ _ ____ _ ____ _ ____ _ ____
 72
    65
 73
     4
 40
2.0
 49
1.25
 49
-0.25
 49
0.25
 49
-0.25
  0
ENDTAB
  0
TABLE
  2
LAYER
 70
     3
  0
LAYER
  2
0
 70
     0
 62
     7
  6
CONTINUOUS
  0
LAYER
  2
1
 70
     0
 62
     1
  6
CENTER
  0
LAYER
  2
3
 70
     0
 62
     3
  6
CONTINUOUS
  0
ENDTAB
  0
TABLE
  2
STYLE
 70
     3
  0
STYLE
  2
STANDARD
 70
     0
 40
0.0
 41
1.0
 50
0.0
 71
     0
 42
0.2
  3
SIMPLEX
  4
BIGFONT
  0
STYLE
  2
ANNOTATIVE
 70
     0
 40
0.0
 41
1.0
 50
0.0
 71
     0
 42
0.2
  3
txt
  4

  0
STYLE
  2
STANDARD1
 70
     0
 40
0.0
 41
1.0
 50
0.0
 71
     0
 42
3.0
  3
txt
  4

  0
ENDTAB
  0
TABLE
  2
VIEW
 70
     0
  0
ENDTAB
  0
TABLE
  2
UCS
 70
     0
  0
ENDTAB
  0
TABLE
  2
APPID
 70
    29
  0
APPID
  2
ACAD
 70
     0
  0
APPID
  2
ACADANNOTATIVE
 70
     0
  0
APPID
  2
GENIUS_GENOREF_13
 70
     0
  0
APPID
  2
GENIUS_GENOENT_13
 70
     0
  0
APPID
  2
GENIUS_GENBH_13
 70
     0
  0
APPID
  2
GENIUS_GENOBJ_13
 70
     0
  0
APPID
  2
GENIUS_GENODEF_13
 70
     0
  0
APPID
  2
GENIUS_GENOLIS_13
 70
     0
  0
APPID
  2
GENIUS_GENOBJ-NBEHI-BHF_13
 70
     0
  0
APPID
  2
GENIUS_GENOBJ-NBEHI-BHB_13
 70
     0
  0
APPID
  2
GENIUS_GENOBJ-F-PART_13
 70
     0
  0
APPID
  2
GENIUS_GEFSTDP_13
 70
     0
  0
APPID
  2
GENIUS_GENOBJ-N-RSSYM_13
 70
     0
  0
APPID
  2
GENIUS_GENSYMENT_13
 70
     0
  0
APPID
  2
GENIUS_GENOBJ-N-TIT_13
 70
     0
  0
APPID
  2
GENIUS_GENTITLE_13
 70
     0
  0
APPID
  2
GENIUS_GENZVEED_13
 70
     0
  0
APPID
  2
GENIUS_GENOBJ-N-LEADER_13
 70
     0
  0
APPID
  2
GENIUS_GENOBJ-N-FIL_13
 70
     0
  0
APPID
  2
GENIUS_GENOBJ-N-SEC_13
 70
     0
  0
APPID
  2
GENIUS_GENOBJ-N-CRS_13
 70
     0
  0
APPID
  2
GENIUS_GENOBJ-N-ZOO_13
 70
     0
  0
APPID
  2
GENIUS_GENZOO_13
 70
     0
  0
APPID
  2
GENIUS_GENOBJ-F-TOL_13
 70
     0
  0
APPID
  2
GENIUS_GENFIL_13
 70
     0
  0
APPID
  2
GENIUS_GENOBJ-N-CHA_13
 70
     0
  0
APPID
  2
ACAD_EXEMPT_FROM_CAD_STANDARDS
 70
     0
  0
APPID
  2
ACAD_MLEADERVER
 70
     0
  0
APPID
  2
ACAD_NAV_VCDISPLAY
 70
     0
  0
ENDTAB
  0
TABLE
  2
DIMSTYLE
 70
     2
  0
DIMSTYLE
  2
STANDARD
 70
     0
  3

  4

  5

  6

  7

 40
1.0
 41
0.18
 42
0.0625
 43
0.38
 44
0.18
 45
0.0
 46
0.0
 47
0.0
 48
0.0
140
0.18
141
0.09
142
0.0
143
25.399999999999999
144
1.0
145
0.0
146
1.0
147
0.09
 71
     0
 72
     0
 73
     1
 74
     1
 75
     0
 76
     0
 77
     0
 78
     0
170
     0
171
     2
172
     0
173
     0
174
     0
175
     0
176
     0
177
     0
178
     0
  0
DIMSTYLE
  2
ANNOTATIVE
 70
     0
  3

  4

  5

  6

  7

 40
1.0
 41
0.18
 42
0.0625
 43
0.38
 44
0.18
 45
0.0
 46
0.0
 47
0.0
 48
0.0
140
0.18
141
0.09
142
0.0
143
25.399999999999999
144
1.0
145
0.0
146
1.0
147
0.09
 71
     0
 72
     0
 73
     1
 74
     1
 75
     0
 76
     0
 77
     0
 78
     0
170
     0
171
     2
172
     0
173
     0
174
     0
175
     0
176
     0
177
     0
178
     0
  0
ENDTAB
  0
ENDSEC
  0
SECTION
  2
BLOCKS
  0
BLOCK
  8
0
  2
$MODEL_SPACE
 70
     0
 10
0.0
 20
0.0
 30
0.0
  3
$MODEL_SPACE
  1

  0
ENDBLK
  5
49CA
  8
0
  0
BLOCK
 67
     1
  8
0
  2
$PAPER_SPACE
 70
     0
 10
0.0
 20
0.0
 30
0.0
  3
$PAPER_SPACE
  1

  0
ENDBLK
  5
49C6
 67
     1
  8
0
  0
ENDSEC
  0
SECTION
  2
ENTITIES
  0
LINE
  5
460F
  8
0
 10
107.061276592311
 20
22.918594354308372
 30
0.0
 11
27.061276592311
 21
22.918594354308372
 31
0.0
  0
LINE
  5
4610
  8
0
 10
107.061276592311
 20
22.918594354308372
 30
0.0
 11
107.0612765923111
 21
31.763299022598009
 31
0.0
  0
CIRCLE
  5
4612
  8
0
 10
67.06127659231106
 20
186.02444171975861
 30
0.0
 40
40.00000000000005
  0
LINE
  5
4613
  8
1
 10
67.06127659231106
 20
231.73872743404451
 30
0.0
 11
67.06127659231106
 21
140.31015600547289
 31
0.0
  0
LINE
  5
4614
  8
1
 10
112.7755623065968
 20
186.02444171975861
 30
0.0
 11
21.346990878025281
 21
186.02444171975861
 31
0.0
  0
LINE
  5
4615
  8
0
 10
100.561276592311
 20
34.950098120842931
 30
0.0
 11
33.56127659231106
 21
34.950098120842931
 31
0.0
  0
LINE
  5
4616
  8
0
 10
94.561276592311046
 20
39.321123082908287
 30
0.0
 11
39.56127659231106
 21
39.321123082908287
 31
0.0
  0
LINE
  5
4617
  8
0
 10
87.911719643386846
 20
42.217332952568469
 30
0.0
 11
46.210833541235381
 21
42.217332952568469
 31
0.0
  0
LINE
  5
4618
  8
0
 10
81.06127659231106
 20
46.918594354308368
 30
0.0
 11
53.06127659231106
 21
46.918594354308368
 31
0.0
  0
LINE
  5
4619
  8
0
 10
100.561276592311
 20
34.950098120842931
 30
0.0
 11
100.561276592311
 21
35.791485201590362
 31
0.0
  0
LINE
  5
461A
  8
0
 10
100.561276592311
 20
34.950098120842931
 30
0.0
 11
106.42025567162
 21
32.696644628801067
 31
0.0
  0
LINE
  5
461B
  8
0
 10
94.561276592311046
 20
39.321123082908287
 30
0.0
 11
99.996752774699104
 21
36.691685454074623
 31
0.0
  0
LINE
  5
461C
  8
0
 10
87.911719643386732
 20
42.217332952568469
 30
0.0
 11
93.789375705779207
 21
40.840344533182218
 31
0.0
  0
LINE
  5
461D
  8
0
 10
82.061276592311017
 20
45.321123082908287
 30
0.0
 11
52.06127659231106
 21
45.321123082908258
 31
0.0
  0
LINE
  5
461E
  8
0
 10
82.061276592311046
 20
45.321123082908287
 30
0.0
 11
87.221440142101059
 21
43.640262798117128
 31
0.0
  0
LINE
  5
461F
  8
0
 10
82.061276592311046
 20
45.918594354308333
 30
0.0
 11
82.061276592311046
 21
45.321123082908308
 31
0.0
  0
LINE
  5
4620
  8
0
 10
94.561276592311046
 20
39.321123082908287
 30
0.0
 11
94.561276592311046
 21
39.866706615660981
 31
0.0
  0
LINE
  5
4621
  8
0
 10
87.911719643386732
 20
42.217332952568469
 30
0.0
 11
87.911719643386732
 21
42.689435151970862
 31
0.0
  0
ARC
  5
4622
  8
0
 10
81.06127659231106
 20
45.918594354308347
 30
0.0
 40
1.0
 50
359.99999999999892
 51
90.0
  0
ARC
  5
4623
  8
0
 10
86.911719643386732
 20
42.689435151970862
 30
0.0
 40
1.0
 50
0.0
 51
71.957612741641853
  0
ARC
  5
4624
  8
0
 10
93.56127659231106
 20
39.866706615660981
 30
0.0
 40
1.0
 50
0.0
 51
76.814815600247044
  0
ARC
  5
4625
  8
0
 10
106.0612765923111
 20
31.763299022598009
 30
0.0
 40
1.0
 50
0.0
 51
68.962488974578235
  0
ARC
  5
4626
  8
0
 10
99.561276592311074
 20
35.791485201590362
 30
0.0
 40
1.0
 50
0.0
 51
64.18440202834887
  0
ARC
  5
4628
  8
0
 10
34.56127659231106
 20
35.791485201590362
 30
0.0
 40
1.0
 50
115.8155979716511
 51
180.0
  0
ARC
  5
4629
  8
0
 10
28.061276592310939
 20
31.763299022598009
 30
0.0
 40
1.0
 50
111.03751102542169
 51
180.0
  0
ARC
  5
462A
  8
0
 10
40.56127659231106
 20
39.866706615660981
 30
0.0
 40
1.0
 50
103.1851843997529
 51
180.0
  0
ARC
  5
462B
  8
0
 10
47.210833541235381
 20
42.689435151970862
 30
0.0
 40
1.0
 50
108.0423872583581
 51
180.0
  0
ARC
  5
462C
  8
0
 10
53.06127659231106
 20
45.918594354308347
 30
0.0
 40
1.0
 50
90.0
 51
180.00000000000099
  0
LINE
  5
462D
  8
0
 10
46.210833541235381
 20
42.217332952568469
 30
0.0
 11
46.210833541235381
 21
42.689435151970862
 31
0.0
  0
LINE
  5
462E
  8
0
 10
39.56127659231106
 20
39.321123082908287
 30
0.0
 11
39.56127659231106
 21
39.866706615660981
 31
0.0
  0
LINE
  5
462F
  8
0
 10
52.06127659231106
 20
45.918594354308333
 30
0.0
 11
52.06127659231106
 21
45.321123082908308
 31
0.0
  0
LINE
  5
4630
  8
0
 10
52.06127659231106
 20
45.321123082908287
 30
0.0
 11
46.901113042521047
 21
43.640262798117128
 31
0.0
  0
LINE
  5
4631
  8
0
 10
46.210833541235381
 20
42.217332952568469
 30
0.0
 11
40.333177478842899
 21
40.840344533182218
 31
0.0
  0
LINE
  5
4632
  8
0
 10
39.56127659231106
 20
39.321123082908287
 30
0.0
 11
34.125800409922988
 21
36.691685454074623
 31
0.0
  0
LINE
  5
4633
  8
0
 10
33.56127659231106
 20
34.950098120842931
 30
0.0
 11
27.702297513002119
 21
32.696644628801067
 31
0.0
  0
LINE
  5
4634
  8
0
 10
33.56127659231106
 20
34.950098120842931
 30
0.0
 11
33.56127659231106
 21
35.791485201590362
 31
0.0
  0
LINE
  5
4635
  8
0
 10
27.061276592311
 20
22.918594354308372
 30
0.0
 11
27.06127659231095
 21
31.763299022598009
 31
0.0
  0
CIRCLE
  5
4637
  8
0
 10
67.06127659231106
 20
186.02444171975861
 30
0.0
 40
33.5
  0
CIRCLE
  5
4638
  8
0
 10
67.06127659231106
 20
186.02444171975861
 30
0.0
 40
27.5
  0
CIRCLE
  5
4639
  8
0
 10
67.06127659231106
 20
186.02444171975861
 30
0.0
 40
20.850443051075668
  0
CIRCLE
  5
463A
  8
0
 10
67.06127659231106
 20
186.02444171975861
 30
0.0
 40
14.99999999999997
  0
LINE
  5
463B
  8
0
 10
63.308499842578613
 20
179.5244417197589
 30
0.0
 11
70.814053342043394
 21
179.5244417197589
 31
0.0
  0
LINE
  5
463C
  8
0
 10
70.814053342043394
 20
179.5244417197589
 30
0.0
 11
74.566830091775842
 21
186.02444171975861
 31
0.0
  0
LINE
  5
463D
  8
0
 10
74.566830091775842
 20
186.02444171975861
 30
0.0
 11
70.814053342043394
 21
192.52444171975841
 31
0.0
  0
LINE
  5
463E
  8
0
 10
70.814053342043394
 20
192.52444171975841
 30
0.0
 11
63.308499842578613
 21
192.52444171975841
 31
0.0
  0
LINE
  5
463F
  8
0
 10
63.308499842578613
 20
192.52444171975841
 30
0.0
 11
59.555723092846279
 21
186.02444171975861
 31
0.0
  0
LINE
  5
4640
  8
0
 10
59.555723092846279
 20
186.02444171975861
 30
0.0
 11
63.308499842578613
 21
179.5244417197589
 31
0.0
  0
CIRCLE
  5
4641
  8
0
 10
67.06127659231106
 20
186.02444171975861
 30
0.0
 40
6.25
  0
CIRCLE
  5
4642
  8
3
 10
67.06127659231106
 20
186.02444171975861
 30
0.0
 40
3.3235000000000001
  0
CIRCLE
  5
4643
  8
0
 10
67.06127659231106
 20
186.02444171975861
 30
0.0
 40
4.0
  0
LINE
  5
4644
  8
0
 10
63.06127659231106
 20
75.418594354308297
 30
0.0
 11
63.061276592311117
 21
122.71859435430839
 31
0.0
  0
LINE
  5
4645
  8
3
 10
63.737776592310972
 20
75.418594354308297
 30
0.0
 11
63.737776592310972
 21
123.3950943543082
 31
0.0
  0
LINE
  5
4646
  8
3
 10
70.384776592311184
 20
75.418594354308297
 30
0.0
 11
70.384776592311184
 21
123.3950943543082
 31
0.0
  0
LINE
  5
4647
  8
0
 10
71.06127659231106
 20
75.418594354308297
 30
0.0
 11
71.061276592311131
 21
122.71859435430819
 31
0.0
  0
LINE
  5
4648
  8
0
 10
73.311276592310762
 20
68.918594354308311
 30
0.0
 11
60.811276592313732
 21
68.918594354308311
 31
0.0
  0
LINE
  5
4649
  8
0
 10
60.811276592312367
 20
75.418594354308297
 30
0.0
 11
73.311276592310563
 21
75.418594354308297
 31
0.0
  0
ARC
  5
464A
  8
0
 10
72.690441716910684
 20
71.951687214060271
 30
0.0
 40
3.3225695729499729
 50
64.384247467824295
 51
124.38424746803869
  0
LINE
  5
464B
  8
0
 10
74.566830091777021
 20
74.693700203409477
 30
0.0
 11
73.311276592310762
 21
75.418594354308297
 31
0.0
  0
LINE
  5
464C
  8
0
 10
74.566830091777021
 20
69.643488505207131
 30
0.0
 11
73.311276592310762
 21
68.918594354308311
 31
0.0
  0
ARC
  5
464D
  8
0
 10
72.690441716910684
 20
72.385501494556337
 30
0.0
 40
3.3225695729499729
 50
235.61575253196131
 51
295.61575253217569
  0
LINE
  5
464E
  8
0
 10
74.566830091777021
 20
74.693700203409477
 30
0.0
 11
74.566830091777021
 21
69.643488505207131
 31
0.0
  0
LINE
  5
464F
  8
0
 10
70.814053342042754
 20
74.693700203409477
 30
0.0
 11
70.814053342044559
 21
69.643488505208651
 31
0.0
  0
LINE
  5
4650
  8
0
 10
63.308499842581512
 20
74.693700203409477
 30
0.0
 11
63.308499842579693
 21
69.643488505208651
 31
0.0
  0
LINE
  5
4651
  8
0
 10
59.555723092847252
 20
74.693700203409477
 30
0.0
 11
59.555723092847252
 21
69.643488505207131
 31
0.0
  0
ARC
  5
4652
  8
0
 10
67.06127659231305
 20
81.482375337998732
 30
0.0
 40
12.41944341639239
 50
252.4120462259954
 51
287.5879537740031
  0
ARC
  5
4653
  8
0
 10
61.432111467713568
 20
72.385501494556337
 30
0.0
 40
3.3225695729499729
 50
244.38424746782431
 51
304.38424746803872
  0
LINE
  5
4654
  8
0
 10
59.555723092847252
 20
69.643488505207131
 30
0.0
 11
60.81127659231349
 21
68.918594354308311
 31
0.0
  0
LINE
  5
4655
  8
0
 10
59.555723092847252
 20
74.693700203409477
 30
0.0
 11
60.81127659231349
 21
75.418594354308297
 31
0.0
  0
ARC
  5
4656
  8
0
 10
67.06127659231305
 20
62.85481337061789
 30
0.0
 40
12.41944341639239
 50
72.412046225996932
 51
107.5879537740046
  0
ARC
  5
4657
  8
0
 10
61.432111467713568
 20
71.951687214060271
 30
0.0
 40
3.3225695729499729
 50
55.615752531961313
 51
115.6157525321757
  0
LINE
  5
4658
  8
0
 10
72.561276592311174
 20
46.918594354308368
 30
0.0
 11
72.561276592311174
 21
50.918594354308368
 31
0.0
  0
LINE
  5
4659
  8
0
 10
61.561276592311167
 20
46.918594354308368
 30
0.0
 11
61.561276592311167
 21
50.918594354308368
 31
0.0
  0
LINE
  5
465A
  8
0
 10
64.261276592311106
 20
123.9185943543083
 30
0.0
 11
69.861276592311128
 21
123.9185943543083
 31
0.0
  0
LINE
  5
465B
  8
0
 10
71.06127659231106
 20
55.918594354308368
 30
0.0
 11
71.06127659231106
 21
68.918594354308311
 31
0.0
  0
LINE
  5
465C
  8
3
 10
70.384776592311184
 20
57.918594354308397
 30
0.0
 11
70.384776592311184
 21
68.918594354308354
 31
0.0
  0
LINE
  5
465D
  8
3
 10
63.737776592310972
 20
57.918594354308432
 30
0.0
 11
63.737776592310972
 21
68.918594354308311
 31
0.0
  0
LINE
  5
465E
  8
0
 10
63.06127659231106
 20
55.918594354308368
 30
0.0
 11
63.06127659231106
 21
68.918594354308311
 31
0.0
  0
LINE
  5
465F
  8
0
 10
63.061276592311117
 20
122.71859435430839
 30
0.0
 11
64.261276592311106
 21
123.9185943543083
 31
0.0
  0
LINE
  5
4660
  8
0
 10
69.861276592311128
 20
123.9185943543083
 30
0.0
 11
71.061276592311131
 21
122.71859435430819
 31
0.0
  0
LINE
  5
4661
  8
0
 10
63.06127659231106
 20
122.71859435430839
 30
0.0
 11
71.061276592311131
 21
122.71859435430819
 31
0.0
  0
LINE
  5
4662
  8
0
 10
63.06127659231106
 20
57.918594354308432
 30
0.0
 11
71.061276592311131
 21
57.918594354308347
 31
0.0
  0
LINE
  5
4663
  8
3
 10
63.737776592310972
 20
57.918594354308432
 30
0.0
 11
63.06127659231106
 21
56.746861982988321
 31
0.0
  0
LINE
  5
4664
  8
3
 10
70.384776592311141
 20
57.918594354308432
 30
0.0
 11
71.06127659231106
 21
56.746861982988321
 31
0.0
  0
LINE
  5
4665
  8
0
 10
67.06127659231106
 20
55.137939114878911
 30
0.0
 11
67.06127659231106
 21
51.69924959373779
 31
0.0
  0
LINE
  5
4666
  8
0
 10
60.06127659231106
 20
55.763153897218103
 30
0.0
 11
60.06127659231106
 21
51.074034811398583
 31
0.0
  0
LINE
  5
4667
  8
0
 10
74.06127659231106
 20
55.763153897218103
 30
0.0
 11
74.06127659231106
 21
51.074034811398583
 31
0.0
  0
LINE
  5
4668
  8
0
 10
73.792045823079093
 20
55.918594354308368
 30
0.0
 11
60.330507361543077
 21
55.918594354308368
 31
0.0
  0
ARC
  5
4669
  8
0
 10
63.561276592311167
 20
45.653913136180712
 30
0.0
 40
10.10924076103746
 50
69.743841999583083
 51
110.2561580004169
  0
LINE
  5
466A
  8
0
 10
60.06127659231106
 20
55.763153897218103
 30
0.0
 11
60.330507361543077
 21
55.918594354308368
 31
0.0
  0
LINE
  5
466B
  8
0
 10
74.06127659231106
 20
55.763153897218103
 30
0.0
 11
73.792045823079093
 21
55.918594354308368
 31
0.0
  0
ARC
  5
466C
  8
0
 10
70.561276592310946
 20
45.653913136180712
 30
0.0
 40
10.10924076103746
 50
69.743841999583083
 51
110.2561580004169
  0
LINE
  5
466D
  8
0
 10
73.792045823079093
 20
50.918594354308368
 30
0.0
 11
60.330507361543077
 21
50.918594354308368
 31
0.0
  0
ARC
  5
466E
  8
0
 10
63.561276592311167
 20
61.183275572435988
 30
0.0
 40
10.10924076103746
 50
249.74384199958311
 51
290.25615800041692
  0
LINE
  5
466F
  8
0
 10
60.06127659231106
 20
51.074034811398583
 30
0.0
 11
60.330507361543077
 21
50.918594354308368
 31
0.0
  0
LINE
  5
4670
  8
0
 10
74.06127659231106
 20
51.074034811398583
 30
0.0
 11
73.792045823079093
 21
50.918594354308368
 31
0.0
  0
ARC
  5
4671
  8
0
 10
70.561276592310946
 20
61.183275572435988
 30
0.0
 40
10.10924076103746
 50
249.74384199958311
 51
290.25615800041692
  0
LINE
  5
4672
  8
1
 10
67.06127659231106
 20
17.918594354308361
 30
0.0
 11
67.06127659231106
 21
128.91859435430831
 31
0.0
  0
LINE
  5
4673
  8
1
 10
189.33906349549659
 20
17.918594354308361
 30
0.0
 11
189.33906349549659
 21
128.91859435430831
 31
0.0
  0
LINE
  5
4675
  8
0
 10
149.3390634954967
 20
22.918594354308372
 30
0.0
 11
149.33906349549659
 21
31.763299022598009
 31
0.0
  0
LINE
  5
4676
  8
0
 10
155.8390634954967
 20
34.950098120842931
 30
0.0
 11
155.8390634954967
 21
35.791485201590362
 31
0.0
  0
LINE
  5
4677
  8
0
 10
155.8390634954967
 20
34.950098120842931
 30
0.0
 11
149.98008441618771
 21
32.696644628801067
 31
0.0
  0
LINE
  5
4678
  8
0
 10
161.8390634954967
 20
39.321123082908287
 30
0.0
 11
156.4035873131084
 21
36.691685454074623
 31
0.0
  0
LINE
  5
4679
  8
0
 10
168.488620444421
 20
42.217332952568469
 30
0.0
 11
162.6109643820285
 21
40.840344533182218
 31
0.0
  0
LINE
  5
467A
  8
0
 10
174.3390634954967
 20
45.321123082908287
 30
0.0
 11
169.17889994570669
 21
43.640262798117128
 31
0.0
  0
LINE
  5
467B
  8
0
 10
174.3390634954967
 20
45.918594354308333
 30
0.0
 11
174.3390634954967
 21
45.321123082908308
 31
0.0
  0
LINE
  5
467C
  8
0
 10
161.8390634954967
 20
39.321123082908287
 30
0.0
 11
161.8390634954967
 21
39.866706615660981
 31
0.0
  0
LINE
  5
467D
  8
0
 10
168.488620444421
 20
42.217332952568469
 30
0.0
 11
168.488620444421
 21
42.689435151970862
 31
0.0
  0
ARC
  5
467E
  8
0
 10
175.3390634954967
 20
45.918594354308347
 30
0.0
 40
1.0
 50
90.0
 51
180.00000000000099
  0
ARC
  5
467F
  8
0
 10
169.488620444421
 20
42.689435151970862
 30
0.0
 40
1.0
 50
108.0423872583581
 51
180.0
  0
ARC
  5
4680
  8
0
 10
162.8390634954967
 20
39.866706615660981
 30
0.0
 40
1.0
 50
103.1851843997529
 51
180.0
  0
ARC
  5
4681
  8
0
 10
150.33906349549659
 20
31.763299022598009
 30
0.0
 40
1.0
 50
111.03751102542169
 51
180.0
  0
ARC
  5
4682
  8
0
 10
156.8390634954967
 20
35.791485201590362
 30
0.0
 40
1.0
 50
115.8155979716511
 51
180.0
  0
ARC
  5
4684
  8
0
 10
221.8390634954967
 20
35.791485201590362
 30
0.0
 40
1.0
 50
0.0
 51
64.18440202834887
  0
ARC
  5
4685
  8
0
 10
228.33906349549679
 20
31.763299022598009
 30
0.0
 40
1.0
 50
0.0
 51
68.962488974578235
  0
ARC
  5
4686
  8
0
 10
215.8390634954967
 20
39.866706615660981
 30
0.0
 40
1.0
 50
0.0
 51
76.814815600247044
  0
ARC
  5
4687
  8
0
 10
209.1895065465724
 20
42.689435151970862
 30
0.0
 40
1.0
 50
0.0
 51
71.957612741641853
  0
ARC
  5
4688
  8
0
 10
203.3390634954967
 20
45.918594354308347
 30
0.0
 40
1.0
 50
359.99999999999892
 51
90.0
  0
LINE
  5
4689
  8
0
 10
210.1895065465724
 20
42.217332952568469
 30
0.0
 11
210.1895065465724
 21
42.689435151970862
 31
0.0
  0
LINE
  5
468A
  8
0
 10
216.8390634954967
 20
39.321123082908287
 30
0.0
 11
216.8390634954967
 21
39.866706615660981
 31
0.0
  0
LINE
  5
468B
  8
0
 10
204.3390634954967
 20
45.918594354308333
 30
0.0
 11
204.3390634954967
 21
45.321123082908308
 31
0.0
  0
LINE
  5
468C
  8
0
 10
204.3390634954967
 20
45.321123082908287
 30
0.0
 11
209.49922704528669
 21
43.640262798117128
 31
0.0
  0
LINE
  5
468D
  8
0
 10
204.3390634954967
 20
45.321123082908287
 30
0.0
 11
174.3390634954967
 21
45.321123082908258
 31
0.0
  0
LINE
  5
468E
  8
0
 10
210.1895065465724
 20
42.217332952568469
 30
0.0
 11
216.06716260896479
 21
40.840344533182218
 31
0.0
  0
LINE
  5
468F
  8
0
 10
216.8390634954967
 20
39.321123082908287
 30
0.0
 11
222.2745396778848
 21
36.691685454074623
 31
0.0
  0
LINE
  5
4690
  8
0
 10
222.8390634954967
 20
34.950098120842931
 30
0.0
 11
228.6980425748057
 21
32.696644628801067
 31
0.0
  0
LINE
  5
4691
  8
0
 10
222.8390634954967
 20
34.950098120842931
 30
0.0
 11
222.8390634954967
 21
35.791485201590362
 31
0.0
  0
LINE
  5
4692
  8
0
 10
203.3390634954967
 20
46.918594354308368
 30
0.0
 11
175.3390634954967
 21
46.918594354308368
 31
0.0
  0
LINE
  5
4693
  8
0
 10
210.18950654657249
 20
42.217332952568469
 30
0.0
 11
168.488620444421
 21
42.217332952568469
 31
0.0
  0
LINE
  5
4694
  8
0
 10
216.8390634954967
 20
39.321123082908287
 30
0.0
 11
161.8390634954967
 21
39.321123082908287
 31
0.0
  0
LINE
  5
4695
  8
0
 10
222.8390634954967
 20
34.950098120842931
 30
0.0
 11
155.8390634954967
 21
34.950098120842931
 31
0.0
  0
LINE
  5
4697
  8
0
 10
229.3390634954967
 20
22.918594354308372
 30
0.0
 11
229.33906349549679
 21
31.763299022598009
 31
0.0
  0
LINE
  5
4698
  8
0
 10
229.3390634954967
 20
22.918594354308372
 30
0.0
 11
149.3390634954967
 21
22.918594354308372
 31
0.0
  0
LINE
  5
4699
  8
0
 10
185.33906349549659
 20
75.418594354308354
 30
0.0
 11
185.33906349549659
 21
122.71859435430839
 31
0.0
  0
LINE
  5
469A
  8
3
 10
186.01556349549651
 20
75.418594354308297
 30
0.0
 11
186.01556349549651
 21
123.3950943543082
 31
0.0
  0
LINE
  5
469B
  8
0
 10
193.33906349549659
 20
75.418594354308297
 30
0.0
 11
193.33906349549659
 21
122.71859435430819
 31
0.0
  0
LINE
  5
469C
  8
3
 10
192.6625634954969
 20
75.418594354308354
 30
0.0
 11
192.6625634954969
 21
123.3950943543082
 31
0.0
  0
LINE
  5
469D
  8
0
 10
196.06983272626471
 20
50.918594354308482
 30
0.0
 11
182.60829426472901
 21
50.918594354308482
 31
0.0
  0
LINE
  5
469E
  8
0
 10
182.6082942647275
 20
55.918594354308368
 30
0.0
 11
196.06983272626439
 21
55.918594354308368
 31
0.0
  0
ARC
  5
469F
  8
0
 10
195.40124132198761
 20
52.185002049425691
 30
0.0
 40
3.5781518477924039
 50
64.384247467825773
 51
124.38424746803869
  0
LINE
  5
46A0
  8
0
 10
197.4219672641515
 20
55.13793911487884
 30
0.0
 11
196.06983272626471
 21
55.918594354308368
 31
0.0
  0
LINE
  5
46A1
  8
0
 10
197.4219672641515
 20
51.699249593738053
 30
0.0
 11
196.06983272626471
 21
50.918594354308482
 31
0.0
  0
ARC
  5
46A2
  8
0
 10
195.40124132198761
 20
54.652186659191159
 30
0.0
 40
3.5781518477924039
 50
235.61575253196131
 51
295.61575253217387
  0
LINE
  5
46A3
  8
0
 10
197.4219672641515
 20
55.137939114878847
 30
0.0
 11
197.4219672641515
 21
51.699249593738053
 31
0.0
  0
LINE
  5
46A4
  8
0
 10
193.3805153798223
 20
55.137939114879373
 30
0.0
 11
193.38051537982409
 21
51.699249593739687
 31
0.0
  0
LINE
  5
46A5
  8
0
 10
185.29761161117111
 20
55.137939114877653
 30
0.0
 11
185.2976116111692
 21
51.699249593739687
 31
0.0
  0
LINE
  5
46A6
  8
0
 10
181.2561597268419
 20
55.13793911487884
 30
0.0
 11
181.2561597268419
 21
51.699249593738053
 31
0.0
  0
ARC
  5
46A7
  8
0
 10
189.3390634954977
 20
64.448820029052499
 30
0.0
 40
13.374785217653811
 50
252.4120462259954
 51
287.5879537740031
  0
ARC
  5
46A8
  8
0
 10
183.27688566900571
 20
54.652186659191159
 30
0.0
 40
3.5781518477924039
 50
244.38424746782599
 51
304.38424746803872
  0
LINE
  5
46A9
  8
0
 10
181.2561597268419
 20
51.699249593738053
 30
0.0
 11
182.6082942647287
 21
50.918594354308482
 31
0.0
  0
LINE
  5
46AA
  8
0
 10
181.2561597268419
 20
55.13793911487884
 30
0.0
 11
182.6082942647287
 21
55.918594354308368
 31
0.0
  0
ARC
  5
46AB
  8
0
 10
189.3390634954977
 20
42.388368679564323
 30
0.0
 40
13.374785217653811
 50
72.412046225996932
 51
107.5879537740046
  0
ARC
  5
46AC
  8
0
 10
183.27688566900571
 20
52.185002049425691
 30
0.0
 40
3.5781518477924039
 50
55.615752531961313
 51
115.6157525321738
  0
LINE
  5
46AD
  8
0
 10
195.58906349549571
 20
68.918594354308311
 30
0.0
 11
183.08906349549841
 21
68.918594354308311
 31
0.0
  0
LINE
  5
46AE
  8
0
 10
183.08906349549841
 20
75.418594354308297
 30
0.0
 11
195.58906349549571
 21
75.418594354308297
 31
0.0
  0
LINE
  5
46AF
  8
0
 10
182.83906349549741
 20
75.274256787010231
 30
0.0
 11
183.08906349549841
 21
75.418594354308297
 31
0.0
  0
ARC
  5
46B0
  8
0
 10
186.08906349549741
 20
65.887104651761547
 30
0.0
 40
9.3871521352487513
 50
69.743841999583083
 51
110.2561580004169
  0
ARC
  5
46B1
  8
0
 10
186.08906349549741
 20
78.450084056855061
 30
0.0
 40
9.3871521352487513
 50
249.74384199958311
 51
290.25615800041692
  0
LINE
  5
46B2
  8
0
 10
182.83906349549741
 20
69.062931921606378
 30
0.0
 11
183.08906349549841
 21
68.918594354308311
 31
0.0
  0
LINE
  5
46B3
  8
0
 10
182.83906349549741
 20
75.274256787010231
 30
0.0
 11
182.83906349549741
 21
69.062931921606378
 31
0.0
  0
LINE
  5
46B4
  8
0
 10
189.3390634954971
 20
74.693700203409094
 30
0.0
 11
189.3390634954971
 21
69.643488505207131
 31
0.0
  0
LINE
  5
46B5
  8
0
 10
195.8390634954969
 20
75.274256787010231
 30
0.0
 11
195.8390634954969
 21
69.062931921606378
 31
0.0
  0
LINE
  5
46B6
  8
0
 10
195.8390634954969
 20
69.062931921606378
 30
0.0
 11
195.58906349549571
 21
68.918594354308311
 31
0.0
  0
ARC
  5
46B7
  8
0
 10
192.5890634954969
 20
78.450084056855061
 30
0.0
 40
9.3871521352487513
 50
249.74384199958311
 51
290.25615800041692
  0
ARC
  5
46B8
  8
0
 10
192.5890634954969
 20
65.887104651761547
 30
0.0
 40
9.3871521352487513
 50
69.743841999583083
 51
110.2561580004169
  0
LINE
  5
46B9
  8
0
 10
195.8390634954969
 20
75.274256787010231
 30
0.0
 11
195.58906349549571
 21
75.418594354308297
 31
0.0
  0
LINE
  5
46BA
  8
3
 10
192.66256349549681
 20
57.918594354308432
 30
0.0
 11
193.33906349549659
 21
56.746861982988321
 31
0.0
  0
LINE
  5
46BB
  8
3
 10
186.01556349549651
 20
57.918594354308432
 30
0.0
 11
185.33906349549659
 21
56.746861982988321
 31
0.0
  0
LINE
  5
46BC
  8
0
 10
185.33906349549659
 20
57.918594354308432
 30
0.0
 11
193.33906349549659
 21
57.918594354308347
 31
0.0
  0
LINE
  5
46BD
  8
0
 10
185.33906349549659
 20
122.71859435430839
 30
0.0
 11
193.33906349549659
 21
122.71859435430819
 31
0.0
  0
LINE
  5
46BE
  8
0
 10
192.13906349549671
 20
123.9185943543083
 30
0.0
 11
193.33906349549659
 21
122.71859435430819
 31
0.0
  0
LINE
  5
46BF
  8
0
 10
185.33906349549659
 20
122.71859435430839
 30
0.0
 11
186.53906349549661
 21
123.9185943543083
 31
0.0
  0
LINE
  5
46C0
  8
0
 10
185.33906349549659
 20
55.918594354308333
 30
0.0
 11
185.33906349549659
 21
68.918594354308311
 31
0.0
  0
LINE
  5
46C1
  8
3
 10
186.01556349549651
 20
57.918594354308432
 30
0.0
 11
186.01556349549651
 21
68.918594354308311
 31
0.0
  0
LINE
  5
46C2
  8
3
 10
192.6625634954969
 20
57.918594354308347
 30
0.0
 11
192.6625634954969
 21
68.918594354308311
 31
0.0
  0
LINE
  5
46C3
  8
0
 10
193.33906349549659
 20
55.918594354308333
 30
0.0
 11
193.33906349549659
 21
68.918594354308311
 31
0.0
  0
LINE
  5
46C4
  8
0
 10
186.53906349549661
 20
123.9185943543083
 30
0.0
 11
192.13906349549671
 21
123.9185943543083
 31
0.0
  0
LINE
  5
46C5
  8
0
 10
183.83906349549679
 20
46.918594354308368
 30
0.0
 11
183.83906349549679
 21
50.918594354308482
 31
0.0
  0
LINE
  5
46C6
  8
0
 10
194.83906349549679
 20
46.918594354308368
 30
0.0
 11
194.83906349549679
 21
50.918594354308482
 31
0.0
  0
LINE
  5
483E
  8
0
 10
60.06127659231106
 20
190.065893604086
 30
0.0
 11
60.06127659231106
 21
186.90008606677591
 31
0.0
  0
LINE
  5
483F
  8
0
 10
74.06127659231106
 20
190.065893604086
 30
0.0
 11
74.06127659231106
 21
186.90008606677591
 31
0.0
  0
LINE
  5
4846
  8
0
 10
60.06127659231106
 20
181.98298983543131
 30
0.0
 11
62.802946343113781
 21
180.4000860667762
 31
0.0
  0
LINE
  5
4847
  8
0
 10
67.06127659231106
 20
194.10734548841339
 30
0.0
 11
69.802946343113732
 21
192.52444171975841
 31
0.0
  0
LINE
  5
4848
  8
0
 10
74.06127659231106
 20
181.98298983543131
 30
0.0
 11
71.319606841508232
 21
180.4000860667762
 31
0.0
  0
LINE
  5
4849
  8
0
 10
67.061276592311074
 20
194.1073454884135
 30
0.0
 11
64.319606841508389
 21
192.52444171975841
 31
0.0
  0
ARC
  5
484C
  8
0
 10
67.06127659231106
 20
186.02444171975861
 30
0.0
 40
6.7307692307680309
 50
74.953241639825094
 51
105.04675836017491
  0
LINE
  5
484D
  8
0
 10
71.319606841508175
 20
191.64879737274109
 30
0.0
 11
74.06127659231106
 21
190.065893604086
 31
0.0
  0
LINE
  5
484E
  8
0
 10
74.06127659231106
 20
185.1487973727414
 30
0.0
 11
74.061276592311046
 21
181.98298983543131
 31
0.0
  0
ARC
  5
484F
  8
0
 10
67.06127659231106
 20
186.02444171975861
 30
0.0
 40
6.7307692307680309
 50
14.953241639822281
 51
45.046758360177769
  0
LINE
  5
4850
  8
0
 10
69.802946343113689
 20
179.5244417197589
 30
0.0
 11
67.061276592311046
 21
177.9415379511039
 31
0.0
  0
ARC
  5
4851
  8
0
 10
67.06127659231106
 20
186.02444171975861
 30
0.0
 40
6.7307692307680309
 50
314.95324163982258
 51
345.04675836017708
  0
ARC
  5
4852
  8
0
 10
67.06127659231106
 20
186.02444171975861
 30
0.0
 40
6.7307692307680309
 50
254.95324163982599
 51
285.04675836017401
  0
LINE
  5
4853
  8
0
 10
64.319606841508417
 20
179.52444171975881
 30
0.0
 11
67.061276592311046
 21
177.9415379511039
 31
0.0
  0
ARC
  5
4854
  8
0
 10
67.06127659231106
 20
186.02444171975861
 30
0.0
 40
6.7307692307680309
 50
194.95324163982309
 51
225.0467583601754
  0
LINE
  5
4855
  8
0
 10
60.061276592311081
 20
185.1487973727414
 30
0.0
 11
60.06127659231106
 21
181.98298983543131
 31
0.0
  0
ARC
  5
4856
  8
0
 10
67.06127659231106
 20
186.02444171975861
 30
0.0
 40
6.7307692307680309
 50
134.95324163982491
 51
165.04675836017651
  0
LINE
  5
4857
  8
0
 10
62.802946343113717
 20
191.648797372741
 30
0.0
 11
60.06127659231106
 21
190.065893604086
 31
0.0
  0
TEXT
  5
4A4A
  8
0
 62
     3
 10
0.0
 20
0.0
 30
0.0
 40
10.0
  1
LVA80S8B-SUS
  7
STANDARD1
  0
ENDSEC
  0
EOF
