  0
SECTION
  2
HEADER
  9
$ACADVER
  1
AC1009
  9
$INSBASE
 10
0.0
 20
0.0
 30
0.0
  9
$EXTMIN
 10
0.0
 20
-2.960436562073669
 30
0.0
  9
$EXTMAX
 10
287.80087892975041
 20
426.10265024160788
 30
0.0
  9
$LIMMIN
 10
0.0
 20
0.0
  9
$LIMMAX
 10
375.0
 20
270.0
  9
$ORTHOMODE
 70
     1
  9
$REGENMODE
 70
     1
  9
$FILLMODE
 70
     1
  9
$QTEXTMODE
 70
     0
  9
$MIRRTEXT
 70
     0
  9
$DRAGMODE
 70
     2
  9
$LTSCALE
 40
10.0
  9
$OSMODE
 70
  3071
  9
$ATTMODE
 70
     1
  9
$TEXTSIZE
 40
0.2
  9
$TRACEWID
 40
0.05
  9
$TEXTSTYLE
  7
STANDARD
  9
$CLAYER
  8
0
  9
$CELTYPE
  6
BYLAYER
  9
$CECOLOR
 62
   256
  9
$DIMSCALE
 40
1.0
  9
$DIMASZ
 40
3.0
  9
$DIMEXO
 40
1.0
  9
$DIMDLI
 40
6.0
  9
$DIMRND
 40
0.0
  9
$DIMDLE
 40
0.0
  9
$DIMEXE
 40
1.0
  9
$DIMTP
 40
495.0
  9
$DIMTM
 40
0.0
  9
$DIMTXT
 40
3.0
  9
$DIMCEN
 40
0.0
  9
$DIMTSZ
 40
0.0
  9
$DIMTOL
 70
     0
  9
$DIMLIM
 70
     0
  9
$DIMTIH
 70
     0
  9
$DIMTOH
 70
     0
  9
$DIMSE1
 70
     0
  9
$DIMSE2
 70
     0
  9
$DIMTAD
 70
     1
  9
$DIMZIN
 70
     0
  9
$DIMBLK
  1

  9
$DIMASO
 70
     0
  9
$DIMSHO
 70
     0
  9
$DIMPOST
  1

  9
$DIMAPOST
  1

  9
$DIMALT
 70
     0
  9
$DIMALTD
 70
     2
  9
$DIMALTF
 40
25.399999999999999
  9
$DIMLFAC
 40
1.0
  9
$DIMTOFL
 70
     1
  9
$DIMTVP
 40
0.0
  9
$DIMTIX
 70
     1
  9
$DIMSOXD
 70
     0
  9
$DIMSAH
 70
     0
  9
$DIMBLK1
  1

  9
$DIMBLK2
  1

  9
$DIMSTYLE
  2
STANDARD
  9
$DIMCLRD
 70
     0
  9
$DIMCLRE
 70
     0
  9
$DIMCLRT
 70
     4
  9
$DIMTFAC
 40
1.0
  9
$DIMGAP
 40
1.0
  9
$LUNITS
 70
     2
  9
$LUPREC
 70
     4
  9
$SKETCHINC
 40
0.1
  9
$FILLETRAD
 40
2.0
  9
$AUNITS
 70
     0
  9
$AUPREC
 70
     0
  9
$MENU
  1
C:\R13\WIN\SUPPORT\ACAD-I
  9
$ELEVATION
 40
0.0
  9
$PELEVATION
 40
0.0
  9
$THICKNESS
 40
0.0
  9
$LIMCHECK
 70
     0
  9
$BLIPMODE
 70
     0
  9
$CHAMFERA
 40
0.0
  9
$CHAMFERB
 40
0.0
  9
$SKPOLY
 70
     0
  9
$TDCREATE
 40
2451962.462728403
  9
$TDUPDATE
 40
2456597.6132725351
  9
$TDINDWG
 40
0.0359830671
  9
$TDUSRTIMER
 40
2456556.180943253
  9
$USRTIMER
 70
     1
  9
$ANGBASE
 50
0.0
  9
$ANGDIR
 70
     0
  9
$PDMODE
 70
     0
  9
$PDSIZE
 40
0.0
  9
$PLINEWID
 40
0.0
  9
$COORDS
 70
     1
  9
$SPLFRAME
 70
     0
  9
$SPLINETYPE
 70
     6
  9
$SPLINESEGS
 70
     8
  9
$ATTDIA
 70
     0
  9
$ATTREQ
 70
     1
  9
$HANDLING
 70
     1
  9
$HANDSEED
  5
61D4
  9
$SURFTAB1
 70
     6
  9
$SURFTAB2
 70
     6
  9
$SURFTYPE
 70
     6
  9
$SURFU
 70
     6
  9
$SURFV
 70
     6
  9
$UCSNAME
  2

  9
$UCSORG
 10
0.0
 20
0.0
 30
0.0
  9
$UCSXDIR
 10
1.0
 20
0.0
 30
0.0
  9
$UCSYDIR
 10
0.0
 20
1.0
 30
0.0
  9
$PUCSNAME
  2

  9
$PUCSORG
 10
0.0
 20
0.0
 30
0.0
  9
$PUCSXDIR
 10
1.0
 20
0.0
 30
0.0
  9
$PUCSYDIR
 10
0.0
 20
1.0
 30
0.0
  9
$USERI1
 70
     4
  9
$USERI2
 70
     1
  9
$USERI3
 70
     0
  9
$USERI4
 70
     0
  9
$USERI5
 70
     0
  9
$USERR1
 40
1.0
  9
$USERR2
 40
3.0
  9
$USERR3
 40
3.0
  9
$USERR4
 40
3.0
  9
$USERR5
 40
10.0
  9
$WORLDVIEW
 70
     1
  9
$SHADEDGE
 70
     3
  9
$SHADEDIF
 70
    70
  9
$TILEMODE
 70
     1
  9
$MAXACTVP
 70
    16
  9
$PLIMCHECK
 70
     0
  9
$PEXTMIN
 10
1.0000000000000000E+020
 20
1.0000000000000000E+020
 30
1.0000000000000000E+020
  9
$PEXTMAX
 10
-1.0000000000000000E+020
 20
-1.0000000000000000E+020
 30
-1.0000000000000000E+020
  9
$PLIMMIN
 10
0.0
 20
0.0
  9
$PLIMMAX
 10
12.0
 20
9.0
  9
$UNITMODE
 70
     0
  9
$VISRETAIN
 70
     0
  9
$PLINEGEN
 70
     0
  9
$PSLTSCALE
 70
     0
  0
ENDSEC
  0
SECTION
  2
TABLES
  0
TABLE
  2
VPORT
 70
     1
  0
VPORT
  2
*ACTIVE
 70
     0
 10
0.0
 20
0.0
 11
1.0
 21
1.0
 12
187.49427839065231
 22
212.50105407957579
 13
0.0
 23
0.0
 14
10.0
 24
10.0
 15
10.0
 25
10.0
 16
0.0
 26
0.0
 36
1.0
 17
0.0
 27
0.0
 37
0.0
 40
435.87679520860149
 41
2.304913294797688
 42
50.0
 43
0.0
 44
0.0
 50
0.0
 51
0.0
 71
    16
 72
   100
 73
     1
 74
     0
 75
     0
 76
     0
 77
     0
 78
     0
  0
ENDTAB
  0
TABLE
  2
LTYPE
 70
     3
  0
LTYPE
  2
CONTINUOUS
 70
     0
  3
Solid Line
 72
    65
 73
     0
 40
0.0
  0
LTYPE
  2
PHANTOM2
 70
     0
  3
___ _ _ ___ _ _ ___ _ _ ___ _ _
 72
    65
 73
     6
 40
1.25
 49
0.625
 49
-0.125
 49
0.125
 49
-0.125
 49
0.125
 49
-0.125
  0
LTYPE
  2
CENTER
 70
     0
  3
____ _ ____ _ ____ _ ____ _ ____ _ ____ _ ____
 72
    65
 73
     4
 40
2.0
 49
1.25
 49
-0.25
 49
0.25
 49
-0.25
  0
ENDTAB
  0
TABLE
  2
LAYER
 70
     3
  0
LAYER
  2
0
 70
     0
 62
     7
  6
CONTINUOUS
  0
LAYER
  2
1
 70
     0
 62
     1
  6
CENTER
  0
LAYER
  2
3
 70
     0
 62
     3
  6
CONTINUOUS
  0
ENDTAB
  0
TABLE
  2
STYLE
 70
     3
  0
STYLE
  2
STANDARD
 70
     0
 40
0.0
 41
1.0
 50
0.0
 71
     0
 42
0.2
  3
SIMPLEX
  4
BIGFONT
  0
STYLE
  2
ANNOTATIVE
 70
     0
 40
0.0
 41
1.0
 50
0.0
 71
     0
 42
0.2
  3
txt
  4

  0
STYLE
  2
STANDARD1
 70
     0
 40
0.0
 41
1.0
 50
0.0
 71
     0
 42
3.0
  3
txt
  4

  0
ENDTAB
  0
TABLE
  2
VIEW
 70
     0
  0
ENDTAB
  0
TABLE
  2
UCS
 70
     0
  0
ENDTAB
  0
TABLE
  2
APPID
 70
    29
  0
APPID
  2
ACAD
 70
     0
  0
APPID
  2
ACADANNOTATIVE
 70
     0
  0
APPID
  2
GENIUS_GENOREF_13
 70
     0
  0
APPID
  2
GENIUS_GENOENT_13
 70
     0
  0
APPID
  2
GENIUS_GENBH_13
 70
     0
  0
APPID
  2
GENIUS_GENOBJ_13
 70
     0
  0
APPID
  2
GENIUS_GENODEF_13
 70
     0
  0
APPID
  2
GENIUS_GENOLIS_13
 70
     0
  0
APPID
  2
GENIUS_GENOBJ-NBEHI-BHF_13
 70
     0
  0
APPID
  2
GENIUS_GENOBJ-NBEHI-BHB_13
 70
     0
  0
APPID
  2
GENIUS_GENOBJ-F-PART_13
 70
     0
  0
APPID
  2
GENIUS_GEFSTDP_13
 70
     0
  0
APPID
  2
GENIUS_GENOBJ-N-RSSYM_13
 70
     0
  0
APPID
  2
GENIUS_GENSYMENT_13
 70
     0
  0
APPID
  2
GENIUS_GENOBJ-N-TIT_13
 70
     0
  0
APPID
  2
GENIUS_GENTITLE_13
 70
     0
  0
APPID
  2
GENIUS_GENZVEED_13
 70
     0
  0
APPID
  2
GENIUS_GENOBJ-N-LEADER_13
 70
     0
  0
APPID
  2
GENIUS_GENOBJ-N-FIL_13
 70
     0
  0
APPID
  2
GENIUS_GENOBJ-N-SEC_13
 70
     0
  0
APPID
  2
GENIUS_GENOBJ-N-CRS_13
 70
     0
  0
APPID
  2
GENIUS_GENOBJ-N-ZOO_13
 70
     0
  0
APPID
  2
GENIUS_GENZOO_13
 70
     0
  0
APPID
  2
GENIUS_GENOBJ-F-TOL_13
 70
     0
  0
APPID
  2
GENIUS_GENFIL_13
 70
     0
  0
APPID
  2
GENIUS_GENOBJ-N-CHA_13
 70
     0
  0
APPID
  2
ACAD_EXEMPT_FROM_CAD_STANDARDS
 70
     0
  0
APPID
  2
ACAD_MLEADERVER
 70
     0
  0
APPID
  2
ACAD_NAV_VCDISPLAY
 70
     0
  0
ENDTAB
  0
TABLE
  2
DIMSTYLE
 70
     2
  0
DIMSTYLE
  2
STANDARD
 70
     0
  3

  4

  5

  6

  7

 40
1.0
 41
0.18
 42
0.0625
 43
0.38
 44
0.18
 45
0.0
 46
0.0
 47
0.0
 48
0.0
140
0.18
141
0.09
142
0.0
143
25.399999999999999
144
1.0
145
0.0
146
1.0
147
0.09
 71
     0
 72
     0
 73
     1
 74
     1
 75
     0
 76
     0
 77
     0
 78
     0
170
     0
171
     2
172
     0
173
     0
174
     0
175
     0
176
     0
177
     0
178
     0
  0
DIMSTYLE
  2
ANNOTATIVE
 70
     0
  3

  4

  5

  6

  7

 40
1.0
 41
0.18
 42
0.0625
 43
0.38
 44
0.18
 45
0.0
 46
0.0
 47
0.0
 48
0.0
140
0.18
141
0.09
142
0.0
143
25.399999999999999
144
1.0
145
0.0
146
1.0
147
0.09
 71
     0
 72
     0
 73
     1
 74
     1
 75
     0
 76
     0
 77
     0
 78
     0
170
     0
171
     2
172
     0
173
     0
174
     0
175
     0
176
     0
177
     0
178
     0
  0
ENDTAB
  0
ENDSEC
  0
SECTION
  2
BLOCKS
  0
BLOCK
  8
0
  2
$MODEL_SPACE
 70
     0
 10
0.0
 20
0.0
 30
0.0
  3
$MODEL_SPACE
  1

  0
ENDBLK
  5
60F7
  8
0
  0
BLOCK
 67
     1
  8
0
  2
$PAPER_SPACE
 70
     0
 10
0.0
 20
0.0
 30
0.0
  3
$PAPER_SPACE
  1

  0
ENDBLK
  5
60F3
 67
     1
  8
0
  0
ENDSEC
  0
SECTION
  2
ENTITIES
  0
LINE
  5
5D49
  8
0
 10
165.5230920265646
 20
67.705473400621031
 30
0.0
 11
85.523092026564655
 21
67.705473400621031
 31
0.0
  0
LINE
  5
5D4A
  8
0
 10
165.5230920265646
 20
67.705473400621031
 30
0.0
 11
165.5230920265646
 21
76.550178068910554
 31
0.0
  0
CIRCLE
  5
5D4C
  8
0
 10
125.5230920265646
 20
380.38836452732272
 30
0.0
 40
40.00000000000005
  0
LINE
  5
5D4D
  8
1
 10
125.5230920265646
 20
426.10265024160788
 30
0.0
 11
125.5230920265646
 21
334.67407881303649
 31
0.0
  0
LINE
  5
5D4E
  8
1
 10
171.23737774085041
 20
380.38836452732272
 30
0.0
 11
79.808806312278861
 21
380.38836452732272
 31
0.0
  0
LINE
  5
5D4F
  8
0
 10
159.0230920265646
 20
79.736977167155587
 30
0.0
 11
92.023092026564626
 21
79.736977167155587
 31
0.0
  0
LINE
  5
5D50
  8
0
 10
153.0230920265646
 20
84.108002129220964
 30
0.0
 11
98.023092026564655
 21
84.108002129220964
 31
0.0
  0
LINE
  5
5D51
  8
0
 10
146.3735350776403
 20
87.004211998881146
 30
0.0
 11
104.672648975489
 21
87.004211998881146
 31
0.0
  0
LINE
  5
5D52
  8
0
 10
139.5230920265646
 20
91.705473400621045
 30
0.0
 11
111.5230920265646
 21
91.705473400621045
 31
0.0
  0
LINE
  5
5D53
  8
0
 10
159.0230920265646
 20
79.736977167155587
 30
0.0
 11
159.0230920265646
 21
80.578364247902741
 31
0.0
  0
LINE
  5
5D54
  8
0
 10
159.0230920265646
 20
79.736977167155587
 30
0.0
 11
164.88207110587359
 21
77.483523675113702
 31
0.0
  0
LINE
  5
5D55
  8
0
 10
153.0230920265646
 20
84.108002129220964
 30
0.0
 11
158.4585682089525
 21
81.478564500387179
 31
0.0
  0
LINE
  5
5D56
  8
0
 10
146.3735350776403
 20
87.004211998881146
 30
0.0
 11
152.25119114003269
 21
85.627223579494938
 31
0.0
  0
LINE
  5
5D57
  8
0
 10
140.5230920265646
 20
90.108002129220964
 30
0.0
 11
110.5230920265646
 21
90.108002129220964
 31
0.0
  0
LINE
  5
5D58
  8
0
 10
140.5230920265646
 20
90.108002129220964
 30
0.0
 11
145.68325557635461
 21
88.42714184442957
 31
0.0
  0
LINE
  5
5D59
  8
0
 10
140.5230920265646
 20
90.705473400621045
 30
0.0
 11
140.5230920265646
 21
90.108002129220964
 31
0.0
  0
LINE
  5
5D5A
  8
0
 10
153.0230920265646
 20
84.108002129220964
 30
0.0
 11
153.0230920265646
 21
84.653585661973935
 31
0.0
  0
LINE
  5
5D5B
  8
0
 10
146.3735350776403
 20
87.004211998881146
 30
0.0
 11
146.3735350776403
 21
87.476314198283504
 31
0.0
  0
ARC
  5
5D5C
  8
0
 10
139.5230920265646
 20
90.705473400621045
 30
0.0
 40
1.0
 50
359.99999999999892
 51
90.0
  0
ARC
  5
5D5D
  8
0
 10
145.3735350776403
 20
87.476314198283504
 30
0.0
 40
1.0
 50
0.0
 51
71.957612741641853
  0
ARC
  5
5D5E
  8
0
 10
152.0230920265646
 20
84.653585661973935
 30
0.0
 40
1.0
 50
0.0
 51
76.814815600247044
  0
ARC
  5
5D5F
  8
0
 10
164.5230920265646
 20
76.550178068910554
 30
0.0
 40
1.0
 50
0.0
 51
68.962488974578235
  0
ARC
  5
5D60
  8
0
 10
158.0230920265646
 20
80.578364247902741
 30
0.0
 40
1.0
 50
0.0
 51
64.18440202834887
  0
ARC
  5
5D62
  8
0
 10
93.023092026564655
 20
80.578364247902741
 30
0.0
 40
1.0
 50
115.8155979716511
 51
180.0
  0
ARC
  5
5D63
  8
0
 10
86.523092026564655
 20
76.550178068910554
 30
0.0
 40
1.0
 50
111.03751102542169
 51
180.0
  0
ARC
  5
5D64
  8
0
 10
99.02309202656464
 20
84.653585661973935
 30
0.0
 40
1.0
 50
103.1851843997529
 51
180.0
  0
ARC
  5
5D65
  8
0
 10
105.672648975489
 20
87.476314198283504
 30
0.0
 40
1.0
 50
108.0423872583581
 51
180.0
  0
ARC
  5
5D66
  8
0
 10
111.5230920265646
 20
90.705473400621045
 30
0.0
 40
1.0
 50
90.0
 51
180.00000000000099
  0
LINE
  5
5D67
  8
0
 10
104.672648975489
 20
87.004211998881146
 30
0.0
 11
104.672648975489
 21
87.476314198283504
 31
0.0
  0
LINE
  5
5D68
  8
0
 10
98.023092026564655
 20
84.108002129220964
 30
0.0
 11
98.023092026564655
 21
84.653585661973935
 31
0.0
  0
LINE
  5
5D69
  8
0
 10
110.5230920265646
 20
90.705473400621045
 30
0.0
 11
110.5230920265646
 21
90.108002129220964
 31
0.0
  0
LINE
  5
5D6A
  8
0
 10
110.5230920265646
 20
90.108002129220964
 30
0.0
 11
105.3629284767746
 21
88.42714184442957
 31
0.0
  0
LINE
  5
5D6B
  8
0
 10
104.672648975489
 20
87.004211998881146
 30
0.0
 11
98.794992913096635
 21
85.627223579494938
 31
0.0
  0
LINE
  5
5D6C
  8
0
 10
98.023092026564655
 20
84.108002129220964
 30
0.0
 11
92.587615844176526
 21
81.478564500387179
 31
0.0
  0
LINE
  5
5D6D
  8
0
 10
92.023092026564626
 20
79.736977167155587
 30
0.0
 11
86.164112947255717
 21
77.483523675113702
 31
0.0
  0
LINE
  5
5D6E
  8
0
 10
92.023092026564626
 20
79.736977167155587
 30
0.0
 11
92.023092026564626
 21
80.578364247902741
 31
0.0
  0
LINE
  5
5D6F
  8
0
 10
85.523092026564655
 20
67.705473400621031
 30
0.0
 11
85.523092026564655
 21
76.550178068910554
 31
0.0
  0
CIRCLE
  5
5D71
  8
0
 10
125.5230920265646
 20
380.38836452732272
 30
0.0
 40
33.5
  0
CIRCLE
  5
5D72
  8
0
 10
125.5230920265646
 20
380.38836452732272
 30
0.0
 40
27.5
  0
CIRCLE
  5
5D73
  8
0
 10
125.5230920265646
 20
380.38836452732272
 30
0.0
 40
20.850443051075668
  0
LINE
  5
5D75
  8
0
 10
207.8008789297503
 20
67.705473400621031
 30
0.0
 11
207.8008789297503
 21
76.550178068910554
 31
0.0
  0
LINE
  5
5D76
  8
0
 10
214.3008789297503
 20
79.736977167155587
 30
0.0
 11
214.3008789297503
 21
80.578364247902741
 31
0.0
  0
LINE
  5
5D77
  8
0
 10
214.3008789297503
 20
79.736977167155587
 30
0.0
 11
208.44189985044139
 21
77.483523675113702
 31
0.0
  0
LINE
  5
5D78
  8
0
 10
220.3008789297503
 20
84.108002129220964
 30
0.0
 11
214.86540274736191
 21
81.478564500387179
 31
0.0
  0
LINE
  5
5D79
  8
0
 10
226.9504358786746
 20
87.004211998881146
 30
0.0
 11
221.07277981628229
 21
85.627223579494938
 31
0.0
  0
LINE
  5
5D7A
  8
0
 10
232.8008789297503
 20
90.108002129220964
 30
0.0
 11
227.6407153799604
 21
88.42714184442957
 31
0.0
  0
LINE
  5
5D7B
  8
0
 10
232.8008789297503
 20
90.705473400621045
 30
0.0
 11
232.8008789297503
 21
90.108002129220964
 31
0.0
  0
LINE
  5
5D7C
  8
0
 10
220.3008789297503
 20
84.108002129220964
 30
0.0
 11
220.3008789297503
 21
84.653585661973935
 31
0.0
  0
LINE
  5
5D7D
  8
0
 10
226.9504358786746
 20
87.004211998881146
 30
0.0
 11
226.9504358786746
 21
87.476314198283504
 31
0.0
  0
ARC
  5
5D7E
  8
0
 10
233.8008789297503
 20
90.705473400621045
 30
0.0
 40
1.0
 50
90.0
 51
180.00000000000099
  0
ARC
  5
5D7F
  8
0
 10
227.9504358786746
 20
87.476314198283504
 30
0.0
 40
1.0
 50
108.0423872583581
 51
180.0
  0
ARC
  5
5D80
  8
0
 10
221.3008789297503
 20
84.653585661973935
 30
0.0
 40
1.0
 50
103.1851843997529
 51
180.0
  0
ARC
  5
5D81
  8
0
 10
208.8008789297503
 20
76.550178068910554
 30
0.0
 40
1.0
 50
111.03751102542169
 51
180.0
  0
ARC
  5
5D82
  8
0
 10
215.3008789297503
 20
80.578364247902741
 30
0.0
 40
1.0
 50
115.8155979716511
 51
180.0
  0
ARC
  5
5D84
  8
0
 10
280.3008789297503
 20
80.578364247902741
 30
0.0
 40
1.0
 50
0.0
 51
64.18440202834887
  0
ARC
  5
5D85
  8
0
 10
286.8008789297503
 20
76.550178068910554
 30
0.0
 40
1.0
 50
0.0
 51
68.962488974578235
  0
ARC
  5
5D86
  8
0
 10
274.3008789297503
 20
84.653585661973935
 30
0.0
 40
1.0
 50
0.0
 51
76.814815600247044
  0
ARC
  5
5D87
  8
0
 10
267.65132198082603
 20
87.476314198283504
 30
0.0
 40
1.0
 50
0.0
 51
71.957612741641853
  0
ARC
  5
5D88
  8
0
 10
261.8008789297503
 20
90.705473400621045
 30
0.0
 40
1.0
 50
359.99999999999892
 51
90.0
  0
LINE
  5
5D89
  8
0
 10
268.65132198082603
 20
87.004211998881146
 30
0.0
 11
268.65132198082603
 21
87.476314198283504
 31
0.0
  0
LINE
  5
5D8A
  8
0
 10
275.30087892975041
 20
84.108002129220964
 30
0.0
 11
275.30087892975041
 21
84.653585661973935
 31
0.0
  0
LINE
  5
5D8B
  8
0
 10
262.80087892975041
 20
90.705473400621045
 30
0.0
 11
262.80087892975041
 21
90.108002129220964
 31
0.0
  0
LINE
  5
5D8C
  8
0
 10
262.80087892975041
 20
90.108002129220964
 30
0.0
 11
267.96104247954031
 21
88.42714184442957
 31
0.0
  0
LINE
  5
5D8D
  8
0
 10
262.80087892975041
 20
90.108002129220964
 30
0.0
 11
232.8008789297503
 21
90.108002129220964
 31
0.0
  0
LINE
  5
5D8E
  8
0
 10
268.65132198082603
 20
87.004211998881146
 30
0.0
 11
274.52897804321827
 21
85.627223579494938
 31
0.0
  0
LINE
  5
5D8F
  8
0
 10
275.30087892975041
 20
84.108002129220964
 30
0.0
 11
280.73635511213871
 21
81.478564500387179
 31
0.0
  0
LINE
  5
5D90
  8
0
 10
281.30087892975041
 20
79.736977167155587
 30
0.0
 11
287.15985800905918
 21
77.483523675113702
 31
0.0
  0
LINE
  5
5D91
  8
0
 10
281.30087892975041
 20
79.736977167155587
 30
0.0
 11
281.30087892975041
 21
80.578364247902741
 31
0.0
  0
LINE
  5
5D92
  8
0
 10
261.8008789297503
 20
91.705473400621045
 30
0.0
 11
233.8008789297503
 21
91.705473400621045
 31
0.0
  0
LINE
  5
5D93
  8
0
 10
268.65132198082603
 20
87.004211998881146
 30
0.0
 11
226.9504358786746
 21
87.004211998881146
 31
0.0
  0
LINE
  5
5D94
  8
0
 10
275.30087892975041
 20
84.108002129220964
 30
0.0
 11
220.3008789297503
 21
84.108002129220964
 31
0.0
  0
LINE
  5
5D95
  8
0
 10
281.30087892975041
 20
79.736977167155587
 30
0.0
 11
214.3008789297503
 21
79.736977167155587
 31
0.0
  0
LINE
  5
5D97
  8
0
 10
287.80087892975041
 20
67.705473400621031
 30
0.0
 11
287.80087892975041
 21
76.550178068910554
 31
0.0
  0
LINE
  5
5D98
  8
0
 10
287.80087892975041
 20
67.705473400621031
 30
0.0
 11
207.8008789297503
 21
67.705473400621031
 31
0.0
  0
CIRCLE
  5
5D99
  8
0
 10
125.5230920265646
 20
380.38836452732272
 30
0.0
 40
14.5
  0
LINE
  5
5D9A
  8
0
 10
108.202583950876
 20
380.38836452732272
 30
0.0
 11
116.8628379887204
 21
365.38836452732278
 31
0.0
  0
LINE
  5
5D9B
  8
0
 10
116.8628379887204
 20
395.38836452732278
 30
0.0
 11
108.202583950876
 21
380.38836452732272
 31
0.0
  0
LINE
  5
5D9C
  8
0
 10
134.18334606440879
 20
395.38836452732278
 30
0.0
 11
116.8628379887204
 21
395.38836452732278
 31
0.0
  0
LINE
  5
5D9D
  8
0
 10
142.8436001022535
 20
380.38836452732272
 30
0.0
 11
134.18334606440879
 21
395.38836452732278
 31
0.0
  0
LINE
  5
5D9E
  8
0
 10
134.18334606440911
 20
365.38836452732278
 30
0.0
 11
142.8436001022535
 21
380.38836452732272
 31
0.0
  0
LINE
  5
5D9F
  8
0
 10
116.8628379887204
 20
365.38836452732278
 30
0.0
 11
134.18334606440911
 21
365.38836452732278
 31
0.0
  0
CIRCLE
  5
5DA0
  8
3
 10
125.5230920265646
 20
380.38836452732272
 30
0.0
 40
8.6470000000000002
  0
CIRCLE
  5
5DA1
  8
0
 10
125.5230920265646
 20
380.38836452732272
 30
0.0
 40
10.0
  0
LINE
  5
5DA2
  8
0
 10
259.30087892969618
 20
100.7054734007024
 30
0.0
 11
236.3008789299117
 21
100.7054734007024
 31
0.0
  0
LINE
  5
5DA3
  8
0
 10
236.30087892980441
 20
110.7054734007024
 30
0.0
 11
259.30087892969618
 21
110.7054734007024
 31
0.0
  0
ARC
  5
5DA4
  8
0
 10
258.1931837752179
 20
104.28282367041631
 30
0.0
 40
6.1339745957208196
 50
64.384247469843373
 51
124.3842474712085
  0
LINE
  5
5DA5
  8
0
 10
261.65728539037701
 20
109.3450014963082
 30
0.0
 11
259.30087892969618
 21
110.7054734007024
 31
0.0
  0
LINE
  5
5DA6
  8
0
 10
261.65728539037701
 20
102.06594530509661
 30
0.0
 11
259.30087892969618
 21
100.7054734007024
 31
0.0
  0
ARC
  5
5DA7
  8
0
 10
258.1931837752179
 20
107.1281231309876
 30
0.0
 40
6.1339745957208196
 50
235.6157525287914
 51
295.61575253015661
  0
LINE
  5
5DA8
  8
0
 10
261.65728539035513
 20
109.3450014963082
 30
0.0
 11
261.65728539035513
 21
102.0659453050839
 31
0.0
  0
LINE
  5
5DA9
  8
0
 10
254.7290821600798
 20
109.3450014963082
 30
0.0
 11
254.7290821600798
 21
102.06594530509661
 31
0.0
  0
LINE
  5
5DAA
  8
0
 10
240.87267569952911
 20
109.3450014963082
 30
0.0
 11
240.87267569952911
 21
102.06594530509661
 31
0.0
  0
LINE
  5
5DAB
  8
0
 10
233.94447246925279
 20
109.3450014963082
 30
0.0
 11
233.94447246925279
 21
102.0659453050839
 31
0.0
  0
ARC
  5
5DAC
  8
0
 10
247.80087892980441
 20
123.9223517634064
 30
0.0
 40
22.928203228139491
 50
252.41204622431411
 51
287.58795377568589
  0
ARC
  5
5DAD
  8
0
 10
237.40857408439089
 20
107.1281231309876
 30
0.0
 40
6.1339745957208196
 50
244.38424746984339
 51
304.3842474712086
  0
LINE
  5
5DAE
  8
0
 10
233.94447246923099
 20
102.06594530509661
 30
0.0
 11
236.3008789299117
 21
100.7054734007024
 31
0.0
  0
LINE
  5
5DAF
  8
0
 10
233.94447246923099
 20
109.3450014963082
 30
0.0
 11
236.3008789299117
 21
110.7054734007024
 31
0.0
  0
ARC
  5
5DB0
  8
0
 10
237.40857408439089
 20
104.28282367041631
 30
0.0
 40
6.1339745957208196
 50
55.615752528791369
 51
115.6157525301566
  0
ARC
  5
5DB1
  8
0
 10
247.80087892980441
 20
87.488595037997555
 30
0.0
 40
22.928203228139491
 50
72.412046224314139
 51
107.5879537756858
  0
LINE
  5
5DB2
  8
3
 10
256.44787892975012
 20
114.705473400621
 30
0.0
 11
257.8008789297503
 21
112.3620086579803
 31
0.0
  0
LINE
  5
5DB3
  8
3
 10
239.15387892975031
 20
114.705473400621
 30
0.0
 11
237.8008789297503
 21
112.3620086579803
 31
0.0
  0
LINE
  5
5DB4
  8
0
 10
257.8008789297503
 20
114.705473400621
 30
0.0
 11
237.8008789297503
 21
114.705473400621
 31
0.0
  0
LINE
  5
5DB5
  8
0
 10
237.8008789297503
 20
306.20547340062097
 30
0.0
 11
257.8008789297503
 21
306.20547340062058
 31
0.0
  0
LINE
  5
5DB6
  8
0
 10
255.3008789297503
 20
308.70547340062058
 30
0.0
 11
257.8008789297503
 21
306.20547340062058
 31
0.0
  0
LINE
  5
5DB7
  8
0
 10
237.8008789297503
 20
306.20547340062097
 30
0.0
 11
240.3008789297503
 21
308.70547340062097
 31
0.0
  0
LINE
  5
5DB8
  8
0
 10
237.8008789297503
 20
110.705473400621
 30
0.0
 11
237.8008789297503
 21
136.70547340064331
 31
0.0
  0
LINE
  5
5DB9
  8
3
 10
239.15387892975031
 20
114.705473400621
 30
0.0
 11
239.15387892975031
 21
136.70547340064331
 31
0.0
  0
LINE
  5
5DBA
  8
3
 10
256.44787892975012
 20
114.705473400621
 30
0.0
 11
256.44787892975012
 21
136.70547340064331
 31
0.0
  0
LINE
  5
5DBB
  8
0
 10
257.8008789297503
 20
110.705473400621
 30
0.0
 11
257.8008789297503
 21
136.70547340064331
 31
0.0
  0
LINE
  5
5DBC
  8
0
 10
240.3008789297503
 20
308.70547340062097
 30
0.0
 11
255.3008789297503
 21
308.70547340062058
 31
0.0
  0
LINE
  5
5DBD
  8
0
 10
239.3008789297503
 20
100.7054734005828
 30
0.0
 11
239.3008789297503
 21
94.205473400596944
 31
0.0
  0
LINE
  5
5DBE
  8
0
 10
256.30087892975041
 20
100.7054734005828
 30
0.0
 11
256.30087892975041
 21
94.205473400568721
 31
0.0
  0
LINE
  5
5DBF
  8
0
 10
256.30087892975041
 20
94.205473400568721
 30
0.0
 11
239.3008789297503
 21
94.205473400596944
 31
0.0
  0
ARC
  5
5DC0
  8
0
 10
247.80087892974711
 20
85.375739581818365
 30
0.0
 40
12.25
 50
133.87987710305001
 51
148.8879791802681
  0
LINE
  5
5DC1
  8
3
 10
256.44787892975012
 20
152.70547340064371
 30
0.0
 11
256.44787892975012
 21
307.5584734006207
 31
0.0
  0
LINE
  5
5DC2
  8
0
 10
257.8008789297503
 20
152.70547340064331
 30
0.0
 11
257.8008789297503
 21
306.20547340062058
 31
0.0
  0
LINE
  5
5DC3
  8
0
 10
237.8008789297503
 20
152.70547340064371
 30
0.0
 11
237.8008789297503
 21
306.20547340062097
 31
0.0
  0
LINE
  5
5DC4
  8
3
 10
239.15387892975031
 20
152.70547340064371
 30
0.0
 11
239.15387892975031
 21
307.5584734006211
 31
0.0
  0
ARC
  5
5DC5
  8
0
 10
255.3008789297507
 20
130.75413949238009
 30
0.0
 40
21.662658773668529
 50
69.74384199960231
 51
110.2561580003977
  0
LINE
  5
5DC6
  8
0
 10
262.30087892974899
 20
152.70547340064371
 30
0.0
 11
262.80087892975081
 21
152.41679826604829
 31
0.0
  0
LINE
  5
5DC7
  8
0
 10
262.30087892974899
 20
136.70547340064419
 30
0.0
 11
262.80087892975081
 21
136.9941485352397
 31
0.0
  0
ARC
  5
5DC8
  8
0
 10
255.3008789297507
 20
158.6568073089079
 30
0.0
 40
21.662658773668529
 50
249.7438419996023
 51
290.2561580003977
  0
LINE
  5
5DC9
  8
0
 10
262.80087892975081
 20
152.41679826604829
 30
0.0
 11
262.80087892975081
 21
136.9941485352397
 31
0.0
  0
LINE
  5
5DCA
  8
0
 10
232.80087892975061
 20
152.41679826604829
 30
0.0
 11
232.80087892975061
 21
136.9941485352397
 31
0.0
  0
ARC
  5
5DCB
  8
0
 10
240.30087892975081
 20
158.6568073089079
 30
0.0
 40
21.662658773668529
 50
249.7438419996023
 51
290.2561580003977
  0
LINE
  5
5DCC
  8
0
 10
233.3008789297526
 20
136.70547340064419
 30
0.0
 11
232.80087892975061
 21
136.9941485352397
 31
0.0
  0
LINE
  5
5DCD
  8
0
 10
233.3008789297526
 20
152.70547340064371
 30
0.0
 11
232.80087892975061
 21
152.41679826604829
 31
0.0
  0
ARC
  5
5DCE
  8
0
 10
240.30087892975081
 20
130.75413949238009
 30
0.0
 40
21.662658773668529
 50
69.74384199960231
 51
110.2561580003977
  0
LINE
  5
5DCF
  8
0
 10
233.3008789297526
 20
152.70547340064371
 30
0.0
 11
262.30087892974899
 21
152.70547340064371
 31
0.0
  0
LINE
  5
5DD0
  8
0
 10
262.3008789297507
 20
136.70547340064419
 30
0.0
 11
233.3008789297526
 21
136.70547340064419
 31
0.0
  0
ARC
  5
5DD2
  8
0
 10
247.80087892974711
 20
85.375739581818365
 30
0.0
 40
12.25
 50
31.112020819731931
 51
46.12012289676111
  0
LINE
  5
5DD3
  8
3
 10
116.87609202656471
 20
152.70547340064371
 30
0.0
 11
116.87609202656471
 21
307.5584734006211
 31
0.0
  0
LINE
  5
5DD4
  8
0
 10
115.5230920265646
 20
152.70547340064371
 30
0.0
 11
115.5230920265646
 21
306.20547340062097
 31
0.0
  0
LINE
  5
5DD5
  8
0
 10
135.5230920265646
 20
152.70547340064331
 30
0.0
 11
135.5230920265646
 21
306.20547340062058
 31
0.0
  0
LINE
  5
5DD6
  8
3
 10
134.17009202656459
 20
152.70547340064371
 30
0.0
 11
134.17009202656459
 21
307.5584734006207
 31
0.0
  0
LINE
  5
5DD7
  8
0
 10
111.0230920265649
 20
152.70547340064419
 30
0.0
 11
108.2025839508762
 21
151.07705230389359
 31
0.0
  0
ARC
  5
5DD8
  8
0
 10
112.5327109697987
 20
144.7493300207725
 30
0.0
 40
7.6674682452751766
 50
55.61575253199382
 51
115.61575252953899
  0
ARC
  5
5DD9
  8
0
 10
112.5327109697987
 20
144.7493300207725
 30
0.0
 40
7.6674682452751766
 50
124.38424746800619
 51
124.38424746800619
  0
ARC
  5
5DDA
  8
0
 10
125.5230920266383
 20
123.756544228655
 30
0.0
 40
28.660254037392811
 50
72.412046225870014
 51
107.5879537744307
  0
ARC
  5
5DDB
  8
0
 10
112.5327109697987
 20
144.661616780515
 30
0.0
 40
7.6674682452751766
 50
235.61575253199379
 51
235.61575253199379
  0
ARC
  5
5DDC
  8
0
 10
112.5327109697987
 20
144.661616780515
 30
0.0
 40
7.6674682452751766
 50
244.38424747046091
 51
304.38424746800621
  0
LINE
  5
5DDD
  8
0
 10
111.0230920265649
 20
136.70547340064331
 30
0.0
 11
108.2025839508762
 21
138.33389449739391
 31
0.0
  0
LINE
  5
5DDE
  8
0
 10
108.2025839508765
 20
151.07705230389359
 30
0.0
 11
108.2025839505927
 21
138.33389449755759
 31
0.0
  0
LINE
  5
5DDF
  8
0
 10
116.8628379887207
 20
138.3338944974175
 30
0.0
 11
116.8628379888746
 21
151.07705230389359
 31
0.0
  0
ARC
  5
5DE0
  8
0
 10
125.5230920266383
 20
165.65440257263211
 30
0.0
 40
28.660254037392811
 50
252.41204622556921
 51
287.58795377413009
  0
LINE
  5
5DE1
  8
0
 10
134.18334606440911
 20
138.3338944974175
 30
0.0
 11
134.18334606425509
 21
151.07705230389359
 31
0.0
  0
LINE
  5
5DE2
  8
0
 10
142.84360010225319
 20
151.07705230389359
 30
0.0
 11
142.84360010253701
 21
138.33389449755759
 31
0.0
  0
LINE
  5
5DE3
  8
0
 10
140.02309202656491
 20
136.70547340064331
 30
0.0
 11
142.8436001022535
 21
138.33389449739391
 31
0.0
  0
ARC
  5
5DE4
  8
0
 10
138.51347308333101
 20
144.661616780515
 30
0.0
 40
7.6674682452751766
 50
235.61575253199379
 51
295.61575252953912
  0
ARC
  5
5DE5
  8
0
 10
138.51347308333101
 20
144.661616780515
 30
0.0
 40
7.6674682452751766
 50
304.38424746800621
 51
304.38424746800621
  0
ARC
  5
5DE6
  8
0
 10
138.51347308333101
 20
144.7493300207725
 30
0.0
 40
7.6674682452751766
 50
55.61575253199382
 51
55.61575253199382
  0
ARC
  5
5DE7
  8
0
 10
138.51347308333101
 20
144.7493300207725
 30
0.0
 40
7.6674682452751766
 50
64.384247470460906
 51
124.38424746800619
  0
LINE
  5
5DE8
  8
0
 10
140.02309202656491
 20
152.70547340064419
 30
0.0
 11
142.8436001022535
 21
151.07705230389359
 31
0.0
  0
LINE
  5
5DE9
  8
0
 10
111.0230920265649
 20
152.70547340064419
 30
0.0
 11
140.02309202656559
 21
152.70547340064331
 31
0.0
  0
LINE
  5
5DEA
  8
0
 10
140.02309202656531
 20
136.70547340064371
 30
0.0
 11
111.0230920265649
 21
136.70547340064331
 31
0.0
  0
ARC
  5
5DEB
  8
0
 10
125.5230920265617
 20
85.375739581818365
 30
0.0
 40
12.25
 50
133.87987710304881
 51
148.88797918026799
  0
LINE
  5
5DEC
  8
0
 10
134.0230920265646
 20
94.205473400568721
 30
0.0
 11
117.0230920265646
 21
94.205473400596944
 31
0.0
  0
LINE
  5
5DED
  8
0
 10
134.0230920265646
 20
100.7054734005828
 30
0.0
 11
134.0230920265646
 21
94.205473400568721
 31
0.0
  0
LINE
  5
5DEE
  8
0
 10
117.0230920265646
 20
100.7054734005828
 30
0.0
 11
117.0230920265646
 21
94.205473400596944
 31
0.0
  0
LINE
  5
5DEF
  8
0
 10
137.02309202659779
 20
100.70547340056331
 30
0.0
 11
114.0230920265314
 21
100.7054734006019
 31
0.0
  0
LINE
  5
5DF0
  8
0
 10
114.0230920265314
 20
110.7054734006019
 30
0.0
 11
137.02309202659779
 21
110.7054734006406
 31
0.0
  0
ARC
  5
5DF1
  8
0
 10
119.52309202659779
 20
93.086671248703638
 30
0.0
 40
17.330127017333279
 50
69.743841997633851
 51
110.25615800236611
  0
LINE
  5
5DF2
  8
0
 10
113.5230920265828
 20
110.41679826603691
 30
0.0
 11
114.02309202659779
 21
110.7054734006406
 31
0.0
  0
LINE
  5
5DF3
  8
0
 10
113.5230920265828
 20
100.9941485351669
 30
0.0
 11
114.02309202659779
 21
100.70547340056331
 31
0.0
  0
ARC
  5
5DF4
  8
0
 10
119.52309202659779
 20
118.3242755525002
 30
0.0
 40
17.330127017333279
 50
249.74384199763389
 51
290.25615800236608
  0
LINE
  5
5DF5
  8
0
 10
113.5230920265828
 20
110.41679826603691
 30
0.0
 11
113.52309202659779
 21
100.9941485351582
 31
0.0
  0
LINE
  5
5DF7
  8
0
 10
137.5230920266128
 20
110.41679826603691
 30
0.0
 11
137.52309202659779
 21
100.9941485351582
 31
0.0
  0
ARC
  5
5DF8
  8
0
 10
131.52309202659779
 20
118.3242755525002
 30
0.0
 40
17.330127017333279
 50
249.74384199763389
 51
290.25615800236608
  0
LINE
  5
5DF9
  8
0
 10
137.5230920266128
 20
100.9941485351669
 30
0.0
 11
137.02309202659779
 21
100.70547340056331
 31
0.0
  0
LINE
  5
5DFA
  8
0
 10
137.5230920266128
 20
110.41679826603691
 30
0.0
 11
137.02309202659779
 21
110.7054734006406
 31
0.0
  0
ARC
  5
5DFB
  8
0
 10
131.52309202659779
 20
93.086671248703638
 30
0.0
 40
17.330127017333279
 50
69.743841997633851
 51
110.25615800236611
  0
LINE
  5
5DFC
  8
0
 10
118.0230920265646
 20
308.70547340062097
 30
0.0
 11
133.0230920265646
 21
308.70547340062058
 31
0.0
  0
LINE
  5
5DFD
  8
0
 10
135.5230920265646
 20
110.705473400621
 30
0.0
 11
135.5230920265646
 21
136.70547340064331
 31
0.0
  0
LINE
  5
5DFE
  8
3
 10
134.17009202656459
 20
114.705473400621
 30
0.0
 11
134.17009202656459
 21
136.70547340064331
 31
0.0
  0
LINE
  5
5DFF
  8
3
 10
116.87609202656471
 20
114.705473400621
 30
0.0
 11
116.87609202656471
 21
136.70547340064331
 31
0.0
  0
LINE
  5
5E00
  8
0
 10
115.5230920265646
 20
110.705473400621
 30
0.0
 11
115.5230920265646
 21
136.70547340064331
 31
0.0
  0
LINE
  5
5E01
  8
0
 10
115.5230920265646
 20
306.20547340062097
 30
0.0
 11
118.0230920265646
 21
308.70547340062097
 31
0.0
  0
LINE
  5
5E02
  8
0
 10
133.0230920265646
 20
308.70547340062058
 30
0.0
 11
135.5230920265646
 21
306.20547340062058
 31
0.0
  0
LINE
  5
5E03
  8
0
 10
115.5230920265646
 20
306.20547340062097
 30
0.0
 11
135.5230920265646
 21
306.20547340062058
 31
0.0
  0
LINE
  5
5E04
  8
0
 10
135.5230920265646
 20
114.705473400621
 30
0.0
 11
115.5230920265646
 21
114.705473400621
 31
0.0
  0
LINE
  5
5E05
  8
3
 10
116.87609202656471
 20
114.705473400621
 30
0.0
 11
115.5230920265646
 21
112.3620086579803
 31
0.0
  0
LINE
  5
5E06
  8
3
 10
134.17009202656459
 20
114.705473400621
 30
0.0
 11
135.5230920265646
 21
112.3620086579803
 31
0.0
  0
ARC
  5
5E07
  8
0
 10
125.5230920265617
 20
85.375739581818365
 30
0.0
 40
12.25
 50
31.112020819731999
 51
46.120122896762247
  0
LINE
  5
5E08
  8
1
 10
125.5230920265647
 20
62.705473400621031
 30
0.0
 11
125.5230920265669
 21
313.70547340062097
 31
0.0
  0
LINE
  5
5E09
  8
1
 10
247.8008789297503
 20
313.70547340062058
 30
0.0
 11
247.8008789297503
 21
62.705473400621081
 31
0.0
  0
LINE
  5
601F
  8
0
 10
125.5230920265651
 20
109.34500149619549
 30
0.0
 11
125.52309202660101
 21
102.0659453049973
 31
0.0
  0
LINE
  5
6020
  8
0
 10
247.8008789297503
 20
151.07705230389391
 30
0.0
 11
247.8008789297503
 21
138.33389449739411
 31
0.0
  0
TEXT
  5
6177
  8
0
 62
     3
 10
0.0
 20
0.0
 30
0.0
 40
10.0
  1
LVA80L20D
  7
STANDARD1
  0
ENDSEC
  0
EOF
