  0
SECTION
  2
HEADER
  9
$ACADVER
  1
AC1009
  9
$INSBASE
 10
0.0
 20
0.0
 30
0.0
  9
$EXTMIN
 10
0.0
 20
-2.960436562073669
 30
0.0
  9
$EXTMAX
 10
173.0
 20
251.0
 30
0.0
  9
$LIMMIN
 10
0.0
 20
0.0
  9
$LIMMAX
 10
750.0
 20
540.0
  9
$ORTHOMODE
 70
     1
  9
$REGENMODE
 70
     1
  9
$FILLMODE
 70
     1
  9
$QTEXTMODE
 70
     0
  9
$MIRRTEXT
 70
     0
  9
$DRAGMODE
 70
     2
  9
$LTSCALE
 40
10.0
  9
$OSMODE
 70
    37
  9
$ATTMODE
 70
     1
  9
$TEXTSIZE
 40
0.2
  9
$TRACEWID
 40
0.05
  9
$TEXTSTYLE
  7
STANDARD
  9
$CLAYER
  8
0
  9
$CELTYPE
  6
BYLAYER
  9
$CECOLOR
 62
   256
  9
$DIMSCALE
 40
2.0
  9
$DIMASZ
 40
3.0
  9
$DIMEXO
 40
2.0
  9
$DIMDLI
 40
0.38
  9
$DIMRND
 40
0.0
  9
$DIMDLE
 40
0.0
  9
$DIMEXE
 40
2.0
  9
$DIMTP
 40
0.0
  9
$DIMTM
 40
0.0
  9
$DIMTXT
 40
3.2000000000000002
  9
$DIMCEN
 40
0.0
  9
$DIMTSZ
 40
0.0
  9
$DIMTOL
 70
     0
  9
$DIMLIM
 70
     0
  9
$DIMTIH
 70
     0
  9
$DIMTOH
 70
     0
  9
$DIMSE1
 70
     0
  9
$DIMSE2
 70
     0
  9
$DIMTAD
 70
     1
  9
$DIMZIN
 70
     8
  9
$DIMBLK
  1

  9
$DIMASO
 70
     1
  9
$DIMSHO
 70
     0
  9
$DIMPOST
  1

  9
$DIMAPOST
  1

  9
$DIMALT
 70
     0
  9
$DIMALTD
 70
     2
  9
$DIMALTF
 40
25.399999999999999
  9
$DIMLFAC
 40
1.0
  9
$DIMTOFL
 70
     1
  9
$DIMTVP
 40
1.6000000000000001
  9
$DIMTIX
 70
     1
  9
$DIMSOXD
 70
     0
  9
$DIMSAH
 70
     0
  9
$DIMBLK1
  1

  9
$DIMBLK2
  1

  9
$DIMSTYLE
  2
STANDARD
  9
$DIMCLRD
 70
     0
  9
$DIMCLRE
 70
     0
  9
$DIMCLRT
 70
     0
  9
$DIMTFAC
 40
1.0
  9
$DIMGAP
 40
0.09
  9
$LUNITS
 70
     2
  9
$LUPREC
 70
     1
  9
$SKETCHINC
 40
0.1
  9
$FILLETRAD
 40
0.0
  9
$AUNITS
 70
     0
  9
$AUPREC
 70
     1
  9
$MENU
  1
E:\r13\win\SUPPORT\ACAD
  9
$ELEVATION
 40
0.0
  9
$PELEVATION
 40
0.0
  9
$THICKNESS
 40
0.0
  9
$LIMCHECK
 70
     0
  9
$BLIPMODE
 70
     0
  9
$CHAMFERA
 40
0.0
  9
$CHAMFERB
 40
0.0
  9
$SKPOLY
 70
     0
  9
$TDCREATE
 40
2451614.5560925929
  9
$TDUPDATE
 40
2459548.449541158
  9
$TDINDWG
 40
0.1868635532
  9
$TDUSRTIMER
 40
0.1868635532
  9
$USRTIMER
 70
     1
  9
$ANGBASE
 50
0.0
  9
$ANGDIR
 70
     0
  9
$PDMODE
 70
     0
  9
$PDSIZE
 40
0.0
  9
$PLINEWID
 40
0.0
  9
$COORDS
 70
     1
  9
$SPLFRAME
 70
     0
  9
$SPLINETYPE
 70
     6
  9
$SPLINESEGS
 70
     8
  9
$ATTDIA
 70
     0
  9
$ATTREQ
 70
     1
  9
$HANDLING
 70
     1
  9
$HANDSEED
  5
2F31
  9
$SURFTAB1
 70
     6
  9
$SURFTAB2
 70
     6
  9
$SURFTYPE
 70
     6
  9
$SURFU
 70
     6
  9
$SURFV
 70
     6
  9
$UCSNAME
  2

  9
$UCSORG
 10
0.0
 20
0.0
 30
0.0
  9
$UCSXDIR
 10
1.0
 20
0.0
 30
0.0
  9
$UCSYDIR
 10
0.0
 20
1.0
 30
0.0
  9
$PUCSNAME
  2

  9
$PUCSORG
 10
0.0
 20
0.0
 30
0.0
  9
$PUCSXDIR
 10
1.0
 20
0.0
 30
0.0
  9
$PUCSYDIR
 10
0.0
 20
1.0
 30
0.0
  9
$USERI1
 70
     0
  9
$USERI2
 70
     1
  9
$USERI3
 70
     1
  9
$USERI4
 70
     0
  9
$USERI5
 70
     0
  9
$USERR1
 40
0.0
  9
$USERR2
 40
0.0
  9
$USERR3
 40
0.0
  9
$USERR4
 40
0.0
  9
$USERR5
 40
0.0
  9
$WORLDVIEW
 70
     1
  9
$SHADEDGE
 70
     3
  9
$SHADEDIF
 70
    70
  9
$TILEMODE
 70
     1
  9
$MAXACTVP
 70
    16
  9
$PLIMCHECK
 70
     0
  9
$PEXTMIN
 10
1.0000000000000000E+020
 20
1.0000000000000000E+020
 30
1.0000000000000000E+020
  9
$PEXTMAX
 10
-1.0000000000000000E+020
 20
-1.0000000000000000E+020
 30
-1.0000000000000000E+020
  9
$PLIMMIN
 10
0.0
 20
0.0
  9
$PLIMMAX
 10
12.0
 20
9.0
  9
$UNITMODE
 70
     0
  9
$VISRETAIN
 70
     0
  9
$PLINEGEN
 70
     0
  9
$PSLTSCALE
 70
     0
  0
ENDSEC
  0
SECTION
  2
TABLES
  0
TABLE
  2
VPORT
 70
     1
  0
VPORT
  2
*ACTIVE
 70
     0
 10
0.0
 20
0.0
 11
1.0
 21
1.0
 12
390.29363784665583
 22
150.0
 13
0.0
 23
0.0
 14
20.0
 24
20.0
 15
20.0
 25
20.0
 16
0.0
 26
0.0
 36
1.0
 17
0.0
 27
0.0
 37
0.0
 40
300.0
 41
2.6019575856443709
 42
50.0
 43
0.0
 44
0.0
 50
0.0
 51
0.0
 71
     0
 72
   500
 73
     1
 74
     0
 75
     0
 76
     0
 77
     0
 78
     2
  0
ENDTAB
  0
TABLE
  2
LTYPE
 70
     3
  0
LTYPE
  2
CONTINUOUS
 70
     0
  3
Solid Line
 72
    65
 73
     0
 40
0.0
  0
LTYPE
  2
CENTER
 70
     0
  3
____ _ ____ _ ____ _ ____ _ ____ _ ____ _ ____
 72
    65
 73
     4
 40
2.0
 49
1.25
 49
-0.25
 49
0.25
 49
-0.25
  0
LTYPE
  2
PHANTOM2
 70
     0
  3
___ _ _ ___ _ _ ___ _ _ ___ _ _
 72
    65
 73
     6
 40
1.25
 49
0.625
 49
-0.125
 49
0.125
 49
-0.125
 49
0.125
 49
-0.125
  0
ENDTAB
  0
TABLE
  2
LAYER
 70
     4
  0
LAYER
  2
0
 70
     0
 62
     7
  6
CONTINUOUS
  0
LAYER
  2
1
 70
     0
 62
     1
  6
CENTER
  0
LAYER
  2
3
 70
     0
 62
     3
  6
CONTINUOUS
  0
LAYER
  2
DEFPOINTS
 70
     0
 62
     7
  6
CONTINUOUS
  0
ENDTAB
  0
TABLE
  2
STYLE
 70
     5
  0
STYLE
  2
STANDARD
 70
     0
 40
0.0
 41
1.0
 50
0.0
 71
     0
 42
0.2
  3
TXT
  4
BIGFONT
  0
STYLE
  2
SIM300
 70
     0
 40
0.0
 41
3.0
 50
0.0
 71
     0
 42
1.0
  3
SIMPLEX
  4

  0
STYLE
  2
SIM110
 70
     0
 40
0.0
 41
1.1000000000000001
 50
0.0
 71
     0
 42
1.3
  3
SIMPLEX
  4

  0
STYLE
  2
SIMPLEX
 70
     0
 40
0.0
 41
0.8
 50
0.0
 71
     0
 42
2.8165380840108591
  3
SIMPLEX
  4

  0
STYLE
  2
STANDARD1
 70
     0
 40
0.0
 41
1.0
 50
0.0
 71
     0
 42
3.0
  3
txt
  4

  0
ENDTAB
  0
TABLE
  2
VIEW
 70
     1
  0
VIEW
  2
ALL
 70
     0
 40
540.0
 10
441.98319327731087
 20
270.0
 41
0.0
 11
0.0
 21
0.0
 31
1.0
 12
0.0
 22
0.0
 32
0.0
 42
0.0
 43
0.0
 44
0.0
 50
0.0
 71
     0
  0
ENDTAB
  0
TABLE
  2
UCS
 70
     0
  0
ENDTAB
  0
TABLE
  2
APPID
 70
     8
  0
APPID
  2
ACAD
 70
     0
  0
APPID
  2
GRADIENTCOLOR1ACI
 70
     0
  0
APPID
  2
GRADIENTCOLOR2ACI
 70
     0
  0
APPID
  2
ACAD_EXEMPT_FROM_CAD_STANDARDS
 70
     0
  0
APPID
  2
ACAD_DSTYLE_DIMJAG
 70
     0
  0
APPID
  2
ACAD_DSTYLE_DIMTALN
 70
     0
  0
APPID
  2
ACAD_MLEADERVER
 70
     0
  0
APPID
  2
ACAD_NAV_VCDISPLAY
 70
     0
  0
ENDTAB
  0
TABLE
  2
DIMSTYLE
 70
     1
  0
DIMSTYLE
  2
STANDARD
 70
     0
  3

  4

  5

  6

  7

 40
1.0
 41
0.18
 42
0.0625
 43
0.38
 44
0.18
 45
0.0
 46
0.0
 47
0.0
 48
0.0
140
0.18
141
0.09
142
0.0
143
25.399999999999999
144
1.0
145
0.0
146
1.0
147
0.09
 71
     0
 72
     0
 73
     1
 74
     1
 75
     0
 76
     0
 77
     0
 78
     0
170
     0
171
     2
172
     0
173
     0
174
     0
175
     0
176
     0
177
     0
178
     0
  0
ENDTAB
  0
ENDSEC
  0
SECTION
  2
BLOCKS
  0
BLOCK
  8
0
  2
$MODEL_SPACE
 70
     0
 10
0.0
 20
0.0
 30
0.0
  3
$MODEL_SPACE
  1

  0
ENDBLK
  5
4DE
  8
0
  0
BLOCK
 67
     1
  8
0
  2
$PAPER_SPACE
 70
     0
 10
0.0
 20
0.0
 30
0.0
  3
$PAPER_SPACE
  1

  0
ENDBLK
  5
4DC
 67
     1
  8
0
  0
BLOCK
  8
0
  2
*U0
 70
     1
 10
0.0
 20
0.0
 30
0.0
  3
*U0
  1

  0
SOLID
  5
2DEC
  8
0
  6
CONTINUOUS
 10
64.600000000000136
 20
214.15000000000001
 30
0.0
 11
64.600000000000136
 21
212.84999999999999
 31
0.0
 12
70.999999999999545
 22
212.84999999999999
 32
0.0
 13
70.999999999999545
 23
212.84999999999999
 33
0.0
  0
SOLID
  5
2DED
  8
0
  6
CONTINUOUS
 10
-64.600000000000136
 20
214.15000000000001
 30
0.0
 11
-70.999999999999545
 21
214.15000000000001
 31
0.0
 12
-70.999999999999545
 22
212.84999999999999
 32
0.0
 13
-70.999999999999545
 23
212.84999999999999
 33
0.0
210
0.0
220
0.0
230
-1.0
  0
SOLID
  5
2DEE
  8
0
  6
CONTINUOUS
 10
55.999999999999552
 20
214.15000000000001
 30
0.0
 11
55.999999999999552
 21
212.84999999999999
 31
0.0
 12
62.400000000000198
 22
212.84999999999999
 32
0.0
 13
62.400000000000198
 23
212.84999999999999
 33
0.0
  0
SOLID
  5
2DEF
  8
0
  6
CONTINUOUS
 10
-55.999999999999552
 20
214.15000000000001
 30
0.0
 11
-62.400000000000198
 21
214.15000000000001
 31
0.0
 12
-62.400000000000198
 22
212.84999999999999
 32
0.0
 13
-62.400000000000198
 23
212.84999999999999
 33
0.0
210
0.0
220
0.0
230
-1.0
  0
LINE
  5
2DF0
  8
0
  6
CONTINUOUS
 10
64.600000000000136
 20
214.15000000000001
 30
0.0
 11
64.600000000000136
 21
212.84999999999999
 31
0.0
  0
LINE
  5
2DF1
  8
0
  6
CONTINUOUS
 10
70.999999999999545
 20
214.15000000000001
 30
0.0
 11
70.999999999999545
 21
212.84999999999999
 31
0.0
  0
LINE
  5
2DF2
  8
0
  6
CONTINUOUS
 10
55.999999999999552
 20
214.15000000000001
 30
0.0
 11
55.999999999999552
 21
212.84999999999999
 31
0.0
  0
LINE
  5
2DF3
  8
0
  6
CONTINUOUS
 10
62.400000000000198
 20
214.15000000000001
 30
0.0
 11
62.400000000000198
 21
212.84999999999999
 31
0.0
  0
ENDBLK
  5
2DF5
  8
0
  0
BLOCK
  8
0
  2
*U1
 70
     1
 10
0.0
 20
0.0
 30
0.0
  3
*U1
  1

  0
SOLID
  5
2DF7
  8
0
  6
CONTINUOUS
 10
65.300498840014825
 20
174.15000000000001
 30
0.0
 11
65.457686717108572
 21
173.83590248479251
 31
0.0
 12
70.999999999999545
 22
173.83590248479251
 32
0.0
 13
70.999999999999545
 23
173.83590248479251
 33
0.0
  0
SOLID
  5
2DF8
  8
0
  6
CONTINUOUS
 10
-65.300498840014825
 20
174.15000000000001
 30
0.0
 11
-70.999999999999545
 21
174.15000000000001
 31
0.0
 12
-70.999999999999545
 22
173.83590248479251
 32
0.0
 13
-70.999999999999545
 23
173.83590248479251
 33
0.0
210
0.0
220
0.0
230
-1.0
  0
SOLID
  5
2DF9
  8
0
  6
CONTINUOUS
 10
55.999999999999552
 20
174.15000000000001
 30
0.0
 11
55.999999999999552
 21
173.83590248479251
 31
0.0
 12
61.557726880597791
 22
173.83590248479251
 32
0.0
 13
61.557726880597791
 23
173.83590248479251
 33
0.0
210
0.0
220
0.0
230
1.0
  0
SOLID
  5
2DFA
  8
0
  6
CONTINUOUS
 10
-55.999999999999552
 20
174.15000000000001
 30
0.0
 11
-61.714914757691531
 21
174.15000000000001
 31
0.0
 12
-61.557726880597791
 22
173.83590248479251
 32
0.0
 13
-61.557726880597791
 23
173.83590248479251
 33
0.0
210
0.0
220
0.0
230
-1.0
  0
SOLID
  5
2DFB
  8
0
  6
CONTINUOUS
 10
65.457686717108572
 20
173.83590248479251
 30
0.0
 11
65.560325883487735
 21
173.5
 31
0.0
 12
70.999999999999545
 22
173.5
 32
0.0
 13
70.999999999999545
 23
173.5
 33
0.0
210
0.0
220
0.0
230
1.0
  0
SOLID
  5
2DFC
  8
0
  6
CONTINUOUS
 10
-65.457686717108572
 20
173.83590248479251
 30
0.0
 11
-70.999999999999545
 21
173.83590248479251
 31
0.0
 12
-70.999999999999545
 22
173.5
 32
0.0
 13
-70.999999999999545
 23
173.5
 33
0.0
210
0.0
220
0.0
230
-1.0
  0
SOLID
  5
2DFD
  8
0
  6
CONTINUOUS
 10
55.999999999999552
 20
173.83590248479251
 30
0.0
 11
55.999999999999552
 21
173.5
 31
0.0
 12
61.455087714218621
 22
173.5
 32
0.0
 13
61.455087714218621
 23
173.5
 33
0.0
210
0.0
220
0.0
230
1.0
  0
SOLID
  5
2DFE
  8
0
  6
CONTINUOUS
 10
-55.999999999999552
 20
173.83590248479251
 30
0.0
 11
-61.557726880597791
 21
173.83590248479251
 31
0.0
 12
-61.455087714218621
 22
173.5
 32
0.0
 13
-61.455087714218621
 23
173.5
 33
0.0
210
0.0
220
0.0
230
-1.0
  0
SOLID
  5
2DFF
  8
0
  6
CONTINUOUS
 10
65.560325883487735
 20
173.5
 30
0.0
 11
65.595827973226534
 21
173.27947637483439
 31
0.0
 12
70.999999999999545
 22
173.27947637483439
 32
0.0
 13
70.999999999999545
 23
173.27947637483439
 33
0.0
210
0.0
220
0.0
230
1.0
  0
SOLID
  5
2E00
  8
0
  6
CONTINUOUS
 10
-65.560325883487735
 20
173.5
 30
0.0
 11
-70.999999999999545
 21
173.5
 31
0.0
 12
-70.999999999999545
 22
173.27947637483439
 32
0.0
 13
-70.999999999999545
 23
173.27947637483439
 33
0.0
210
0.0
220
0.0
230
-1.0
  0
SOLID
  5
2E01
  8
0
  6
CONTINUOUS
 10
55.999999999999552
 20
173.5
 30
0.0
 11
55.999999999999552
 21
173.27947637483439
 31
0.0
 12
61.419585624479822
 22
173.27947637483439
 32
0.0
 13
61.419585624479822
 23
173.27947637483439
 33
0.0
210
0.0
220
0.0
230
1.0
  0
SOLID
  5
2E02
  8
0
  6
CONTINUOUS
 10
-55.999999999999552
 20
173.5
 30
0.0
 11
-61.455087714218621
 21
173.5
 31
0.0
 12
-61.419585624479822
 22
173.27947637483439
 32
0.0
 13
-61.419585624479822
 23
173.27947637483439
 33
0.0
210
0.0
220
0.0
230
-1.0
  0
SOLID
  5
2E03
  8
0
  6
CONTINUOUS
 10
65.595827973226534
 20
173.27947637483439
 30
0.0
 11
65.607706798853201
 21
173.05642938172821
 31
0.0
 12
70.999999999999545
 22
173.05642938172821
 32
0.0
 13
70.999999999999545
 23
173.05642938172821
 33
0.0
  0
SOLID
  5
2E04
  8
0
  6
CONTINUOUS
 10
-65.595827973226534
 20
173.27947637483439
 30
0.0
 11
-70.999999999999545
 21
173.27947637483439
 31
0.0
 12
-70.999999999999545
 22
173.05642938172821
 32
0.0
 13
-70.999999999999545
 23
173.05642938172821
 33
0.0
210
0.0
220
0.0
230
-1.0
  0
SOLID
  5
2E05
  8
0
  6
CONTINUOUS
 10
55.999999999999552
 20
173.27947637483439
 30
0.0
 11
55.999999999999552
 21
173.05642938172821
 31
0.0
 12
61.407706798853148
 22
173.05642938172821
 32
0.0
 13
61.407706798853148
 23
173.05642938172821
 33
0.0
210
0.0
220
0.0
230
1.0
  0
SOLID
  5
2E06
  8
0
  6
CONTINUOUS
 10
-55.999999999999552
 20
173.27947637483439
 30
0.0
 11
-61.419585624479822
 21
173.27947637483439
 31
0.0
 12
-61.407706798853148
 22
173.05642938172821
 32
0.0
 13
-61.407706798853148
 23
173.05642938172821
 33
0.0
210
0.0
220
0.0
230
-1.0
  0
SOLID
  5
2E07
  8
0
  6
CONTINUOUS
 10
55.999999999999552
 20
173.05642938172821
 30
0.0
 11
55.999999999999552
 21
173.04572284198289
 31
0.0
 12
61.407734091886091
 22
173.04572284198289
 32
0.0
 13
61.407734091886091
 23
173.04572284198289
 33
0.0
  0
SOLID
  5
2E08
  8
0
  6
CONTINUOUS
 10
-55.999999999999552
 20
173.05642938172821
 30
0.0
 11
-61.407706798853148
 21
173.05642938172821
 31
0.0
 12
-61.407734091886091
 22
173.04572284198289
 32
0.0
 13
-61.407734091886091
 23
173.04572284198289
 33
0.0
210
0.0
220
0.0
230
-1.0
  0
SOLID
  5
2E09
  8
0
  6
CONTINUOUS
 10
65.607706798853201
 20
173.05642938172821
 30
0.0
 11
65.607600918634674
 21
173.03534180939079
 31
0.0
 12
70.999999999999545
 22
173.03534180939079
 32
0.0
 13
70.999999999999545
 23
173.03534180939079
 33
0.0
210
0.0
220
0.0
230
1.0
  0
SOLID
  5
2E0A
  8
0
  6
CONTINUOUS
 10
-65.607706798853201
 20
173.05642938172821
 30
0.0
 11
-70.999999999999545
 21
173.05642938172821
 31
0.0
 12
-70.999999999999545
 22
173.03534180939079
 32
0.0
 13
-70.999999999999545
 23
173.03534180939079
 33
0.0
210
0.0
220
0.0
230
-1.0
  0
SOLID
  5
2E0B
  8
0
  6
CONTINUOUS
 10
55.999999999999552
 20
173.04572284198289
 30
0.0
 11
55.999999999999552
 21
173.03501658053671
 31
0.0
 12
61.407815970275401
 22
173.03501658053671
 32
0.0
 13
61.407815970275401
 23
173.03501658053671
 33
0.0
210
0.0
220
0.0
230
1.0
  0
SOLID
  5
2E0C
  8
0
  6
CONTINUOUS
 10
-55.999999999999552
 20
173.04572284198289
 30
0.0
 11
-61.407734091886091
 21
173.04572284198289
 31
0.0
 12
-61.407815970275401
 22
173.03501658053671
 32
0.0
 13
-61.407815970275401
 23
173.03501658053671
 33
0.0
210
0.0
220
0.0
230
-1.0
  0
SOLID
  5
2E0D
  8
0
  6
CONTINUOUS
 10
65.607600918634674
 20
173.03534180939079
 30
0.0
 11
65.607283288655935
 21
173.0142563634885
 31
0.0
 12
70.999999999999545
 22
173.0142563634885
 32
0.0
 13
70.999999999999545
 23
173.0142563634885
 33
0.0
210
0.0
220
0.0
230
1.0
  0
SOLID
  5
2E0E
  8
0
  6
CONTINUOUS
 10
-65.607600918634674
 20
173.03534180939079
 30
0.0
 11
-70.999999999999545
 21
173.03534180939079
 31
0.0
 12
-70.999999999999545
 22
173.0142563634885
 32
0.0
 13
-70.999999999999545
 23
173.0142563634885
 33
0.0
210
0.0
220
0.0
230
-1.0
  0
SOLID
  5
2E0F
  8
0
  6
CONTINUOUS
 10
55.999999999999552
 20
173.03501658053671
 30
0.0
 11
55.999999999999552
 21
172.9439338034266
 31
0.0
 12
61.344014503155861
 22
172.9439338034266
 32
0.0
 13
61.344014503155861
 23
172.9439338034266
 33
0.0
210
0.0
220
0.0
230
1.0
  0
SOLID
  5
2E10
  8
0
  6
CONTINUOUS
 10
-55.999999999999552
 20
173.03501658053671
 30
0.0
 11
-61.407815970275401
 21
173.03501658053671
 31
0.0
 12
-61.344014503155861
 22
172.9439338034266
 32
0.0
 13
-61.344014503155861
 23
172.9439338034266
 33
0.0
210
0.0
220
0.0
230
-1.0
  0
SOLID
  5
2E11
  8
0
  6
CONTINUOUS
 10
65.607283288655935
 20
173.0142563634885
 30
0.0
 11
65.663075976266157
 21
172.93323474590309
 31
0.0
 12
70.999999999999545
 22
172.93323474590309
 32
0.0
 13
70.999999999999545
 23
172.93323474590309
 33
0.0
210
0.0
220
0.0
230
1.0
  0
SOLID
  5
2E12
  8
0
  6
CONTINUOUS
 10
-65.607283288655935
 20
173.0142563634885
 30
0.0
 11
-70.999999999999545
 21
173.0142563634885
 31
0.0
 12
-70.999999999999545
 22
172.93323474590309
 32
0.0
 13
-70.999999999999545
 23
172.93323474590309
 33
0.0
210
0.0
220
0.0
230
-1.0
  0
SOLID
  5
2E13
  8
0
  6
CONTINUOUS
 10
65.663075976266157
 20
172.93323474590309
 30
0.0
 11
65.715509778163096
 21
172.84999999999991
 31
0.0
 12
70.999999999999545
 22
172.84999999999991
 32
0.0
 13
70.999999999999545
 23
172.84999999999991
 33
0.0
210
0.0
220
0.0
230
1.0
  0
SOLID
  5
2E14
  8
0
  6
CONTINUOUS
 10
-65.663075976266157
 20
172.93323474590309
 30
0.0
 11
-70.999999999999545
 21
172.93323474590309
 31
0.0
 12
-70.999999999999545
 22
172.84999999999991
 32
0.0
 13
-70.999999999999545
 23
172.84999999999991
 33
0.0
210
0.0
220
0.0
230
-1.0
  0
SOLID
  5
2E15
  8
0
  6
CONTINUOUS
 10
55.999999999999552
 20
172.9439338034266
 30
0.0
 11
55.999999999999552
 21
172.84999999999991
 31
0.0
 12
61.28449022183716
 22
172.84999999999991
 32
0.0
 13
61.28449022183716
 23
172.84999999999991
 33
0.0
210
0.0
220
0.0
230
1.0
  0
SOLID
  5
2E16
  8
0
  6
CONTINUOUS
 10
-55.999999999999552
 20
172.9439338034266
 30
0.0
 11
-61.344014503155861
 21
172.9439338034266
 31
0.0
 12
-61.28449022183716
 22
172.84999999999991
 32
0.0
 13
-61.28449022183716
 23
172.84999999999991
 33
0.0
210
0.0
220
0.0
230
-1.0
  0
LINE
  5
2E17
  8
0
  6
CONTINUOUS
 10
65.300498840014825
 20
174.15000000000001
 30
0.0
 11
65.457686717108572
 21
173.83590248479251
 31
0.0
  0
LINE
  5
2E18
  8
0
  6
CONTINUOUS
 10
70.999999999999545
 20
174.15000000000001
 30
0.0
 11
70.999999999999545
 21
173.83590248479251
 31
0.0
  0
LINE
  5
2E19
  8
0
  6
CONTINUOUS
 10
55.999999999999552
 20
174.15000000000001
 30
0.0
 11
55.999999999999552
 21
173.83590248479251
 31
0.0
  0
LINE
  5
2E1A
  8
0
  6
CONTINUOUS
 10
61.714914757691531
 20
174.15000000000001
 30
0.0
 11
61.557726880597791
 21
173.83590248479251
 31
0.0
  0
LINE
  5
2E1B
  8
0
  6
CONTINUOUS
 10
65.457686717108572
 20
173.83590248479251
 30
0.0
 11
65.560325883487735
 21
173.5
 31
0.0
  0
LINE
  5
2E1C
  8
0
  6
CONTINUOUS
 10
70.999999999999545
 20
173.83590248479251
 30
0.0
 11
70.999999999999545
 21
173.5
 31
0.0
  0
LINE
  5
2E1D
  8
0
  6
CONTINUOUS
 10
55.999999999999552
 20
173.83590248479251
 30
0.0
 11
55.999999999999552
 21
173.5
 31
0.0
  0
LINE
  5
2E1E
  8
0
  6
CONTINUOUS
 10
61.557726880597791
 20
173.83590248479251
 30
0.0
 11
61.455087714218621
 21
173.5
 31
0.0
  0
LINE
  5
2E1F
  8
0
  6
CONTINUOUS
 10
65.560325883487735
 20
173.5
 30
0.0
 11
65.595827973226534
 21
173.27947637483439
 31
0.0
  0
LINE
  5
2E20
  8
0
  6
CONTINUOUS
 10
70.999999999999545
 20
173.5
 30
0.0
 11
70.999999999999545
 21
173.27947637483439
 31
0.0
  0
LINE
  5
2E21
  8
0
  6
CONTINUOUS
 10
55.999999999999552
 20
173.5
 30
0.0
 11
55.999999999999552
 21
173.27947637483439
 31
0.0
  0
LINE
  5
2E22
  8
0
  6
CONTINUOUS
 10
61.455087714218621
 20
173.5
 30
0.0
 11
61.419585624479822
 21
173.27947637483439
 31
0.0
  0
LINE
  5
2E23
  8
0
  6
CONTINUOUS
 10
65.595827973226534
 20
173.27947637483439
 30
0.0
 11
65.607706798853201
 21
173.05642938172821
 31
0.0
  0
LINE
  5
2E24
  8
0
  6
CONTINUOUS
 10
70.999999999999545
 20
173.27947637483439
 30
0.0
 11
70.999999999999545
 21
173.05642938172821
 31
0.0
  0
LINE
  5
2E25
  8
0
  6
CONTINUOUS
 10
55.999999999999552
 20
173.27947637483439
 30
0.0
 11
55.999999999999552
 21
173.05642938172821
 31
0.0
  0
LINE
  5
2E26
  8
0
  6
CONTINUOUS
 10
61.419585624479822
 20
173.27947637483439
 30
0.0
 11
61.407706798853148
 21
173.05642938172821
 31
0.0
  0
LINE
  5
2E27
  8
0
  6
CONTINUOUS
 10
55.999999999999552
 20
173.05642938172821
 30
0.0
 11
55.999999999999552
 21
173.04572284198289
 31
0.0
  0
LINE
  5
2E28
  8
0
  6
CONTINUOUS
 10
61.407706798853148
 20
173.05642938172821
 30
0.0
 11
61.407734091886091
 21
173.04572284198289
 31
0.0
  0
LINE
  5
2E29
  8
0
  6
CONTINUOUS
 10
65.607706798853201
 20
173.05642938172821
 30
0.0
 11
65.607600918634674
 21
173.03534180939079
 31
0.0
  0
LINE
  5
2E2A
  8
0
  6
CONTINUOUS
 10
70.999999999999545
 20
173.05642938172821
 30
0.0
 11
70.999999999999545
 21
173.03534180939079
 31
0.0
  0
LINE
  5
2E2B
  8
0
  6
CONTINUOUS
 10
55.999999999999552
 20
173.04572284198289
 30
0.0
 11
55.999999999999552
 21
173.03501658053671
 31
0.0
  0
LINE
  5
2E2C
  8
0
  6
CONTINUOUS
 10
61.407734091886091
 20
173.04572284198289
 30
0.0
 11
61.407815970275401
 21
173.03501658053671
 31
0.0
  0
LINE
  5
2E2D
  8
0
  6
CONTINUOUS
 10
65.607600918634674
 20
173.03534180939079
 30
0.0
 11
65.607283288655935
 21
173.0142563634885
 31
0.0
  0
LINE
  5
2E2E
  8
0
  6
CONTINUOUS
 10
70.999999999999545
 20
173.03534180939079
 30
0.0
 11
70.999999999999545
 21
173.0142563634885
 31
0.0
  0
LINE
  5
2E2F
  8
0
  6
CONTINUOUS
 10
55.999999999999552
 20
173.03501658053671
 30
0.0
 11
55.999999999999552
 21
172.9439338034266
 31
0.0
  0
LINE
  5
2E30
  8
0
  6
CONTINUOUS
 10
61.407815970275401
 20
173.03501658053671
 30
0.0
 11
61.344014503155861
 21
172.9439338034266
 31
0.0
  0
LINE
  5
2E31
  8
0
  6
CONTINUOUS
 10
65.607283288655935
 20
173.0142563634885
 30
0.0
 11
65.663075976266157
 21
172.93323474590309
 31
0.0
  0
LINE
  5
2E32
  8
0
  6
CONTINUOUS
 10
70.999999999999545
 20
173.0142563634885
 30
0.0
 11
70.999999999999545
 21
172.93323474590309
 31
0.0
  0
LINE
  5
2E33
  8
0
  6
CONTINUOUS
 10
65.663075976266157
 20
172.93323474590309
 30
0.0
 11
65.715509778163096
 21
172.84999999999991
 31
0.0
  0
LINE
  5
2E34
  8
0
  6
CONTINUOUS
 10
70.999999999999545
 20
172.93323474590309
 30
0.0
 11
70.999999999999545
 21
172.84999999999991
 31
0.0
  0
LINE
  5
2E35
  8
0
  6
CONTINUOUS
 10
55.999999999999552
 20
172.9439338034266
 30
0.0
 11
55.999999999999552
 21
172.84999999999991
 31
0.0
  0
LINE
  5
2E36
  8
0
  6
CONTINUOUS
 10
61.344014503155861
 20
172.9439338034266
 30
0.0
 11
61.28449022183716
 21
172.84999999999991
 31
0.0
  0
ENDBLK
  5
2E38
  8
0
  0
ENDSEC
  0
SECTION
  2
ENTITIES
  0
TEXT
  5
758
  8
0
 62
     3
 10
0.0
 20
0.0
 30
0.0
 40
10.0
  1
LT-76NCP-J
  7
STANDARD1
  0
INSERT
  5
1130
  8
0
  6
CONTINUOUS
  2
*U0
 10
0.0
 20
0.0
 30
0.0
1001
GRADIENTCOLOR1ACI
1070
     5
1001
GRADIENTCOLOR2ACI
1070
     2
1001
ACAD
1002
{
1000
R14_HATCH_DATA
1000
1130
1011
1.0
1021
0.0
1031
0.0
1021
0.0
1031
0.0
1011
0.0
1021
0.0
1031
0.0
1021
1.0
1031
0.0
1011
0.0
1021
0.0
1031
0.0
1021
0.0
1031
1.0
1040
0.0
1010
0.0
1020
0.0
1030
1.0
1000
SOLID
1070
     1
1070
     0
1071
        2
1071
        7
1070
     0
1070
     1
1071
        4
1040
55.999999999999552
1040
214.15000000000001
1040
55.999999999999552
1040
212.84999999999999
1040
62.400000000000198
1040
212.84999999999999
1040
62.400000000000198
1040
214.15000000000001
1071
        0
1071
        7
1070
     0
1070
     1
1071
        4
1040
70.999999999999545
1040
212.84999999999999
1040
70.999999999999545
1040
214.15000000000001
1040
64.600000000000136
1040
214.15000000000001
1040
64.600000000000136
1040
212.84999999999999
1071
        0
1070
     1
1070
     1
1040
0.0763185417084659
1071
        2
1040
57.37903615317105
1040
213.6812696115486
1040
0.0
1040
69.822450571736908
1040
213.29967709393219
1040
0.0
1002
}
  0
LINE
  5
1131
  8
0
 10
62.400000000000261
 20
174.84052176940699
 30
0.0
 11
62.400000000000198
 21
219.12977178700879
 31
0.0
  0
LINE
  5
1132
  8
0
 10
64.600000000000136
 20
174.8499999999996
 30
0.0
 11
64.600000000000136
 21
219.12977178700879
 31
0.0
  0
LINE
  5
1134
  8
0
 10
70.999999999999545
 20
219.0
 30
0.0
 11
70.999999999999545
 21
167.99999999999989
 31
0.0
  0
LINE
  5
1135
  8
0
 10
55.999999999999552
 20
167.9999999999998
 30
0.0
 11
55.999999999999552
 21
219.00000000000011
 31
0.0
  0
LINE
  5
1147
  8
0
 10
69.999999999999545
 20
166.99999999999989
 30
0.0
 11
66.010442116689092
 21
166.99999999999989
 31
0.0
  0
LINE
  5
1148
  8
0
 10
60.989557883311313
 20
166.99999999999989
 30
0.0
 11
56.999999999999538
 21
166.9999999999998
 31
0.0
  0
ARC
  5
1149
  8
0
 10
63.345881559335453
 20
171.60955743423341
 30
0.0
 40
2.4058329130009191
 50
143.66528979749381
 51
168.3561764750379
  0
LINE
  5
114B
  8
0
 10
60.989557883311313
 20
167.0
 30
0.0
 11
60.989557883311363
 21
172.09511972589789
 31
0.0
  0
TEXT
  5
114C
  8
0
 10
56.892621787569333
 20
170.0279755511522
 30
0.0
 40
1.1999999999999991
  1
HCZ
 41
1.129999999999999
  7
SIM110
 72
     1
 11
58.732907501855031
 21
170.0279755511522
 31
0.0
  0
ARC
  5
114D
  8
0
 10
56.999999999999538
 20
167.9999999999998
 30
0.0
 40
1.0
 50
180.0
 51
270.0
  0
LINE
  5
114E
  8
0
 10
62.400000000000318
 20
177.84999999999999
 30
0.0
 11
61.284537893614008
 21
177.84999999999999
 31
0.0
  0
LINE
  5
114F
  8
0
 10
61.284537893614008
 20
177.84999999999999
 30
0.0
 11
61.284537893614008
 21
174.84999999999999
 31
0.0
  0
LINE
  5
1150
  8
0
 10
62.400000000000318
 20
174.84999999999999
 30
0.0
 11
61.284537893614008
 21
174.84999999999999
 31
0.0
  0
LINE
  5
1151
  8
0
 10
62.400000000000318
 20
181.79999999999981
 30
0.0
 11
60.749999999999538
 21
181.79999999999981
 31
0.0
  0
LINE
  5
1152
  8
0
 10
62.400000000000318
 20
180.63999999999979
 30
0.0
 11
60.749999999999538
 21
180.63999999999979
 31
0.0
  0
LINE
  5
1153
  8
0
 10
62.400000000000318
 20
182.95999999999989
 30
0.0
 11
60.749999999999538
 21
182.95999999999981
 31
0.0
  0
LINE
  5
1154
  8
0
 10
62.400000000000318
 20
179.4799999999999
 30
0.0
 11
60.749999999999538
 21
179.4799999999999
 31
0.0
  0
LINE
  5
1155
  8
0
 10
62.400000000000318
 20
178.31999999999991
 30
0.0
 11
56.499999999999552
 21
178.31999999999979
 31
0.0
  0
TEXT
  5
1156
  8
0
 10
56.702407082973529
 20
179.05523804411661
 30
0.0
 40
1.7
  1
75
 41
0.8
  7
SIMPLEX
  0
ARC
  5
1157
  8
0
 10
63.654118440664888
 20
171.60955743423341
 30
0.0
 40
2.4058329130009191
 50
11.6438235249618
 51
35.723355232650988
  0
TEXT
  5
1158
  8
0
 10
66.373309395203137
 20
170.05092227220501
 30
0.0
 40
1.1999999999999991
  1
76/T
 41
0.8599999999999999
  7
SIMPLEX
  0
ARC
  5
1159
  8
0
 10
69.999999999999545
 20
167.99999999999989
 30
0.0
 40
1.0
 50
270.0
 51
0.0
  0
LINE
  5
115A
  8
0
 10
66.010442116689092
 20
167.0
 30
0.0
 11
66.010442116689092
 21
172.09511972589789
 31
0.0
  0
TEXT
  5
115C
  8
0
 10
67.95428868166357
 20
181.3363671240181
 30
0.0
 40
1.7
  1
30
 41
0.8
  7
SIMPLEX
  0
LINE
  5
115D
  8
0
 10
64.60000000000025
 20
180.7999999999999
 30
0.0
 11
70.499999999999545
 21
180.7999999999999
 31
0.0
  0
LINE
  5
115E
  8
0
 10
64.600000000000364
 20
177.84999999999999
 30
0.0
 11
65.715462106386553
 21
177.84999999999999
 31
0.0
  0
LINE
  5
115F
  8
0
 10
65.715462106386553
 20
177.84999999999999
 30
0.0
 11
65.715462106386553
 21
174.84999999999999
 31
0.0
  0
LINE
  5
1160
  8
0
 10
65.715462106386553
 20
174.84999999999999
 30
0.0
 11
64.60000000000025
 21
174.84999999999999
 31
0.0
  0
LINE
  5
1161
  8
0
 10
64.60000000000025
 20
182.89999999999989
 30
0.0
 11
66.249999999999545
 21
182.89999999999989
 31
0.0
  0
LINE
  5
1162
  8
0
 10
64.60000000000025
 20
178.6999999999999
 30
0.0
 11
66.249999999999545
 21
178.6999999999999
 31
0.0
  0
LINE
  5
1163
  8
0
 10
62.400000000000198
 20
193.39999999999981
 30
0.0
 11
60.749999999999538
 21
193.39999999999981
 31
0.0
  0
LINE
  5
1164
  8
0
 10
62.400000000000198
 20
188.75999999999979
 30
0.0
 11
60.749999999999538
 21
188.75999999999979
 31
0.0
  0
LINE
  5
1165
  8
0
 10
62.400000000000198
 20
187.59999999999991
 30
0.0
 11
60.749999999999538
 21
187.5999999999998
 31
0.0
  0
LINE
  5
1166
  8
0
 10
62.400000000000198
 20
192.23999999999981
 30
0.0
 11
60.749999999999538
 21
192.23999999999981
 31
0.0
  0
LINE
  5
1167
  8
0
 10
62.400000000000198
 20
191.07999999999981
 30
0.0
 11
60.749999999999538
 21
191.07999999999981
 31
0.0
  0
LINE
  5
1168
  8
0
 10
62.400000000000198
 20
186.4399999999998
 30
0.0
 11
60.749999999999538
 21
186.4399999999998
 31
0.0
  0
LINE
  5
1169
  8
0
 10
62.400000000000198
 20
185.2799999999998
 30
0.0
 11
60.749999999999538
 21
185.2799999999998
 31
0.0
  0
LINE
  5
116A
  8
0
 10
62.400000000000198
 20
189.91999999999979
 30
0.0
 11
56.499999999999552
 21
189.91999999999979
 31
0.0
  0
LINE
  5
116B
  8
0
 10
62.400000000000198
 20
184.11999999999989
 30
0.0
 11
56.499999999999552
 21
184.11999999999981
 31
0.0
  0
TEXT
  5
116C
  8
0
 10
56.702407082973529
 20
190.54987497374981
 30
0.0
 40
1.7
  1
125
 41
0.8
  7
SIMPLEX
  0
TEXT
  5
116D
  8
0
 10
56.702407082973529
 20
184.64850467379381
 30
0.0
 40
1.7
  1
100
 41
0.8
  7
SIMPLEX
  0
LINE
  5
116E
  8
0
 10
62.400000000000198
 20
203.8399999999998
 30
0.0
 11
60.749999999999538
 21
203.8399999999998
 31
0.0
  0
LINE
  5
116F
  8
0
 10
62.400000000000198
 20
200.35999999999979
 30
0.0
 11
60.749999999999538
 21
200.35999999999979
 31
0.0
  0
LINE
  5
1170
  8
0
 10
62.400000000000198
 20
202.67999999999989
 30
0.0
 11
60.749999999999538
 21
202.67999999999981
 31
0.0
  0
LINE
  5
1171
  8
0
 10
62.400000000000198
 20
194.5599999999998
 30
0.0
 11
60.749999999999538
 21
194.5599999999998
 31
0.0
  0
LINE
  5
1172
  8
0
 10
62.400000000000198
 20
199.19999999999979
 30
0.0
 11
60.749999999999538
 21
199.19999999999979
 31
0.0
  0
LINE
  5
1173
  8
0
 10
62.400000000000198
 20
198.03999999999979
 30
0.0
 11
60.749999999999538
 21
198.03999999999979
 31
0.0
  0
LINE
  5
1174
  8
0
 10
62.400000000000198
 20
196.8799999999998
 30
0.0
 11
60.749999999999538
 21
196.8799999999998
 31
0.0
  0
TEXT
  5
1175
  8
0
 10
56.702407082973529
 20
202.18014442671841
 30
0.0
 40
1.7
  1
175
 41
0.8
  7
SIMPLEX
  0
LINE
  5
1176
  8
0
 10
62.400000000000198
 20
201.51999999999981
 30
0.0
 11
56.499999999999552
 21
201.5199999999997
 31
0.0
  0
LINE
  5
1177
  8
0
 10
62.400000000000198
 20
195.7199999999998
 30
0.0
 11
56.499999999999552
 21
195.7199999999998
 31
0.0
  0
TEXT
  5
1178
  8
0
 10
56.702407082973529
 20
196.3801444267184
 30
0.0
 40
1.7
  1
150
 41
0.8
  7
SIMPLEX
  0
TEXT
  5
1179
  8
0
 10
67.95428868166357
 20
189.84476848017951
 30
0.0
 40
1.7
  1
50
 41
0.8
  7
SIMPLEX
  0
LINE
  5
117A
  8
0
 10
64.60000000000025
 20
189.1999999999999
 30
0.0
 11
70.499999999999545
 21
189.1999999999999
 31
0.0
  0
LINE
  5
117B
  8
0
 10
64.600000000000136
 20
193.39999999999969
 30
0.0
 11
68.399999999999523
 21
193.39999999999981
 31
0.0
  0
LINE
  5
117C
  8
0
 10
64.600000000000136
 20
184.9999999999998
 30
0.0
 11
68.399999999999523
 21
184.9999999999998
 31
0.0
  0
LINE
  5
117D
  8
0
 10
64.600000000000136
 20
191.29999999999981
 30
0.0
 11
66.249999999999545
 21
191.29999999999981
 31
0.0
  0
LINE
  5
117E
  8
0
 10
64.600000000000136
 20
187.09999999999991
 30
0.0
 11
66.249999999999545
 21
187.09999999999991
 31
0.0
  0
TEXT
  5
117F
  8
0
 10
67.95428868166357
 20
198.2702188481891
 30
0.0
 40
1.7
  1
70
 41
0.8
  7
SIMPLEX
  0
LINE
  5
1180
  8
0
 10
64.60000000000025
 20
197.59999999999991
 30
0.0
 11
70.499999999999545
 21
197.59999999999991
 31
0.0
  0
LINE
  5
1181
  8
0
 10
64.600000000000136
 20
201.79999999999981
 30
0.0
 11
68.399999999999523
 21
201.79999999999981
 31
0.0
  0
LINE
  5
1182
  8
0
 10
64.600000000000136
 20
203.89999999999981
 30
0.0
 11
66.249999999999545
 21
203.89999999999981
 31
0.0
  0
LINE
  5
1183
  8
0
 10
64.600000000000136
 20
199.69999999999979
 30
0.0
 11
66.249999999999545
 21
199.69999999999979
 31
0.0
  0
LINE
  5
1184
  8
0
 10
64.600000000000136
 20
195.4999999999998
 30
0.0
 11
66.249999999999545
 21
195.4999999999998
 31
0.0
  0
ARC
  5
1188
  8
0
 10
63.500000000000121
 20
219.12977178700879
 30
0.0
 40
1.1000000000000001
 50
0.0
 51
180.0
  0
LINE
  5
1189
  8
0
 10
56.999999999999538
 20
220.00000000000011
 30
0.0
 11
62.827168031887588
 21
220.00000000000011
 31
0.0
  0
LINE
  5
118A
  8
0
 10
64.172831968112632
 20
220.0
 30
0.0
 11
69.999999999999545
 21
220.0
 31
0.0
  0
LINE
  5
118B
  8
0
 10
70.999999999999545
 20
212.84999999999999
 30
0.0
 11
64.600000000000136
 21
212.84999999999999
 31
0.0
  0
LINE
  5
118C
  8
0
 10
62.400000000000261
 20
212.84999999999999
 30
0.0
 11
55.999999999999552
 21
212.84999999999999
 31
0.0
  0
LINE
  5
118D
  8
0
 10
70.999999999999545
 20
214.15000000000001
 30
0.0
 11
64.598438904721206
 21
214.15000000000001
 31
0.0
  0
LINE
  5
118E
  8
0
 10
62.401561095279128
 20
214.15000000000001
 30
0.0
 11
55.999999999999552
 21
214.15000000000001
 31
0.0
  0
TEXT
  5
118F
  8
0
 10
56.78333333333299
 20
216.2561335773288
 30
0.0
 40
1.0
  1
EL SA
 41
3.1000000000000001
  7
SIM300
 72
     1
 11
63.499999999999652
 21
216.2561335773288
 31
0.0
  0
LINE
  5
1190
  8
0
 10
61.284537893613788
 20
212.2760731012458
 30
0.0
 11
61.284537893613788
 21
210.6628755655353
 31
0.0
  0
LINE
  5
1191
  8
0
 10
62.400000000000091
 20
212.2760731012458
 30
0.0
 11
61.284537893613788
 21
212.2760731012458
 31
0.0
  0
LINE
  5
1192
  8
0
 10
62.400000000000198
 20
210.6628755655353
 30
0.0
 11
61.284537893613788
 21
210.6628755655353
 31
0.0
  0
LINE
  5
1193
  8
0
 10
58.599999999999461
 20
207.31999999999979
 30
0.0
 11
62.400000000000198
 21
207.31999999999991
 31
0.0
  0
LINE
  5
1194
  8
0
 10
60.749999999999538
 20
208.47999999999979
 30
0.0
 11
62.400000000000198
 21
208.47999999999979
 31
0.0
  0
LINE
  5
1195
  8
0
 10
60.749999999999538
 20
209.6399999999997
 30
0.0
 11
62.400000000000198
 21
209.63999999999979
 31
0.0
  0
LINE
  5
1196
  8
0
 10
62.400000000000198
 20
206.1599999999998
 30
0.0
 11
60.749999999999538
 21
206.1599999999998
 31
0.0
  0
TEXT
  5
1197
  8
0
 10
56.454890936671511
 20
209.9848981129509
 30
0.0
 40
2.0
  1
%%dF
 41
0.8
  7
SIMPLEX
  0
LINE
  5
1198
  8
0
 10
62.400000000000198
 20
204.9999999999998
 30
0.0
 11
60.749999999999538
 21
204.9999999999998
 31
0.0
  0
ARC
  5
119A
  8
0
 10
56.999999999999538
 20
219.00000000000011
 30
0.0
 40
1.0
 50
90.0
 51
180.0
  0
TEXT
  5
119B
  8
0
 10
67.95428868166357
 20
206.67021884818911
 30
0.0
 40
1.7
  1
90
 41
0.8
  7
SIMPLEX
  0
TEXT
  5
119C
  8
0
 10
68.693951967875591
 20
209.9848981129509
 30
0.0
 40
2.0
  1
%%dC
 41
0.8
  7
SIMPLEX
  0
LINE
  5
119D
  8
0
 10
64.60000000000025
 20
205.99999999999989
 30
0.0
 11
70.499999999999545
 21
205.99999999999989
 31
0.0
  0
LINE
  5
119E
  8
0
 10
65.715462106386326
 20
212.2760731012458
 30
0.0
 11
65.715462106386326
 21
210.6628755655353
 31
0.0
  0
LINE
  5
119F
  8
0
 10
64.600000000000136
 20
212.2760731012458
 30
0.0
 11
65.715462106386326
 21
212.2760731012458
 31
0.0
  0
LINE
  5
11A0
  8
0
 10
65.715462106386326
 20
210.6628755655353
 30
0.0
 11
64.600000000000136
 21
210.66287556553519
 31
0.0
  0
LINE
  5
11A1
  8
0
 10
64.600000000000136
 20
210.19999999999979
 30
0.0
 11
68.399999999999523
 21
210.19999999999979
 31
0.0
  0
LINE
  5
11A2
  8
0
 10
64.600000000000136
 20
208.09999999999991
 30
0.0
 11
66.249999999999545
 21
208.0999999999998
 31
0.0
  0
ARC
  5
11A3
  8
0
 10
69.999999999999545
 20
219.0
 30
0.0
 40
1.0
 50
0.0
 51
90.0
  0
CIRCLE
  5
11AD
  8
0
 10
63.507706798853178
 20
173.05642938172821
 30
0.0
 40
2.0999999999999939
  0
LINE
  5
11AE
  8
0
 10
62.098141677019562
 20
217.26186683919181
 30
0.0
 11
62.098141677019562
 21
216.25436791352629
 31
0.0
  0
LINE
  5
11AF
  8
0
 10
62.098141677019562
 20
217.26186683919181
 30
0.0
 11
62.400000000000198
 21
217.26186683919181
 31
0.0
  0
LINE
  5
11B0
  8
0
 10
62.098141677019562
 20
216.758117376359
 30
0.0
 11
62.400000000000198
 21
216.758117376359
 31
0.0
  0
LINE
  5
11B1
  8
0
 10
62.098141677019562
 20
216.25436791352629
 30
0.0
 11
62.400000000000198
 21
216.25436791352629
 31
0.0
  0
LINE
  5
11B7
  8
1
 10
122.0
 20
155.5
 30
0.0
 11
173.0
 21
155.5
 31
0.0
  0
LINE
  5
11B8
  8
1
 10
122.0
 20
231.50000000000011
 30
0.0
 11
173.0
 21
231.5
 31
0.0
  0
LINE
  5
11C8
  8
0
 10
127.0
 20
154.5
 30
0.0
 11
128.5
 21
154.5
 31
0.0
  0
LINE
  5
11C9
  8
0
 10
127.0
 20
154.5
 30
0.0
 11
127.0
 21
147.59999999999999
 31
0.0
  0
LINE
  5
11CA
  8
0
 10
127.0
 20
147.59999999999999
 30
0.0
 11
127.59999999999999
 21
147.0
 31
0.0
  0
LINE
  5
11CB
  8
0
 10
127.0
 20
156.5
 30
0.0
 11
128.5
 21
156.5
 31
0.0
  0
LINE
  5
11CC
  8
0
 10
127.59999999999999
 20
164.0
 30
0.0
 11
127.0
 21
163.40000000000001
 31
0.0
  0
LINE
  5
11CD
  8
0
 10
127.0
 20
163.40000000000001
 30
0.0
 11
127.0
 21
156.5
 31
0.0
  0
LINE
  5
1230
  8
0
 10
127.59999999999999
 20
154.5
 30
0.0
 11
127.59999999999999
 21
147.0
 31
0.0
  0
LINE
  5
1231
  8
0
 10
127.59999999999999
 20
147.0
 30
0.0
 11
128.5
 21
147.0
 31
0.0
  0
LINE
  5
1232
  8
0
 10
128.5
 20
164.0
 30
0.0
 11
127.59999999999999
 21
164.0
 31
0.0
  0
LINE
  5
1233
  8
0
 10
127.59999999999999
 20
164.0
 30
0.0
 11
127.59999999999999
 21
156.5
 31
0.0
  0
LINE
  5
124B
  8
0
 10
127.0
 20
232.5
 30
0.0
 11
128.5
 21
232.5
 31
0.0
  0
LINE
  5
124C
  8
0
 10
127.59999999999999
 20
240.0
 30
0.0
 11
127.0
 21
239.40000000000001
 31
0.0
  0
LINE
  5
124D
  8
0
 10
127.0
 20
239.40000000000001
 30
0.0
 11
127.0
 21
232.5
 31
0.0
  0
LINE
  5
124E
  8
0
 10
127.0
 20
230.5
 30
0.0
 11
128.5
 21
230.5
 31
0.0
  0
LINE
  5
124F
  8
0
 10
127.0
 20
230.5
 30
0.0
 11
127.0
 21
223.59999999999999
 31
0.0
  0
LINE
  5
1250
  8
0
 10
127.0
 20
223.59999999999999
 30
0.0
 11
127.59999999999999
 21
223.0
 31
0.0
  0
LINE
  5
12B3
  8
0
 10
127.59999999999999
 20
230.5
 30
0.0
 11
127.59999999999999
 21
223.0
 31
0.0
  0
LINE
  5
12B4
  8
0
 10
127.59999999999999
 20
223.0
 30
0.0
 11
128.5
 21
223.0
 31
0.0
  0
LINE
  5
12B5
  8
0
 10
128.5
 20
240.0
 30
0.0
 11
127.59999999999999
 21
240.0
 31
0.0
  0
LINE
  5
12B6
  8
0
 10
127.59999999999999
 20
240.0
 30
0.0
 11
127.59999999999999
 21
232.5
 31
0.0
  0
LINE
  5
12BD
  8
0
 10
130.5
 20
219.0
 30
0.0
 11
130.5
 21
168.0
 31
0.0
  0
LINE
  5
12BE
  8
0
 10
136.5131670194948
 20
167.0
 30
0.0
 11
128.5
 21
167.0
 31
0.0
  0
LINE
  5
12BF
  8
0
 10
128.5
 20
246.0
 30
0.0
 11
146.0
 21
246.0
 31
0.0
  0
LINE
  5
12C0
  8
0
 10
128.5
 20
141.0
 30
0.0
 11
146.0
 21
141.0
 31
0.0
  0
LINE
  5
12C1
  8
0
 10
128.5
 20
220.0
 30
0.0
 11
136.5131670194948
 21
220.0
 31
0.0
  0
LINE
  5
12C2
  8
0
 10
138.38422689413741
 20
218.9999999999994
 30
0.0
 11
138.38422689413599
 21
168.0
 31
0.0
  0
LINE
  5
12C3
  8
0
 10
146.0
 20
246.0
 30
0.0
 11
146.0
 21
141.0
 31
0.0
  0
POLYLINE
  5
12C4
  8
0
 66
     1
 10
0.0
 20
0.0
 30
0.0
 70
     8
  0
VERTEX
  5
12C5
  8
0
 10
138.38422689413599
 20
168.0
 30
0.0
 70
    32
  0
VERTEX
  5
12C6
  8
0
 10
138.38313004646511
 20
167.96717289056039
 30
0.0
 70
    32
  0
VERTEX
  5
12C7
  8
0
 10
138.3346606959108
 20
167.78038273484111
 30
0.0
 70
    32
  0
VERTEX
  5
12C8
  8
0
 10
138.27519983651109
 20
167.6762444116176
 30
0.0
 70
    32
  0
VERTEX
  5
12C9
  8
0
 10
138.19794104195341
 20
167.58022044930601
 30
0.0
 70
    32
  0
VERTEX
  5
12CA
  8
0
 10
138.0487809883177
 20
167.44591130078001
 30
0.0
 70
    32
  0
VERTEX
  5
12CB
  8
0
 10
137.8770263538344
 20
167.3324865331989
 30
0.0
 70
    32
  0
VERTEX
  5
12CC
  8
0
 10
137.5389493706287
 20
167.1767386383024
 30
0.0
 70
    32
  0
VERTEX
  5
12CD
  8
0
 10
137.17215774687281
 20
167.07092012225959
 30
0.0
 70
    32
  0
VERTEX
  5
12CE
  8
0
 10
136.846447242528
 20
167.0180890134331
 30
0.0
 70
    32
  0
VERTEX
  5
12CF
  8
0
 10
136.5131670194948
 20
167.0
 30
0.0
 70
    32
  0
SEQEND
  5
12D0
  8
0
  0
ARC
  5
12D1
  8
0
 10
129.5
 20
168.0
 30
0.0
 40
1.0000000000000031
 50
270.0
 51
0.0
  0
POLYLINE
  5
12D2
  8
0
 66
     1
 10
0.0
 20
0.0
 30
0.0
 70
     8
  0
VERTEX
  5
12D3
  8
0
 10
136.5131670194948
 20
220.0
 30
0.0
 70
    32
  0
VERTEX
  5
12D4
  8
0
 10
136.8953041943698
 20
219.97623570083559
 30
0.0
 70
    32
  0
VERTEX
  5
12D5
  8
0
 10
137.36459006311151
 20
219.88031695641871
 30
0.0
 70
    32
  0
VERTEX
  5
12D6
  8
0
 10
137.82307347033881
 20
219.69736756422051
 30
0.0
 70
    32
  0
VERTEX
  5
12D7
  8
0
 10
138.01167504598399
 20
219.5814335097846
 30
0.0
 70
    32
  0
VERTEX
  5
12D8
  8
0
 10
138.18387116169501
 20
219.434688028686
 30
0.0
 70
    32
  0
VERTEX
  5
12D9
  8
0
 10
138.31491319772249
 20
219.259190990625
 30
0.0
 70
    32
  0
VERTEX
  5
12DA
  8
0
 10
138.35832593358509
 20
219.15913138710911
 30
0.0
 70
    32
  0
VERTEX
  5
12DB
  8
0
 10
138.38185326461459
 20
219.0482849297882
 30
0.0
 70
    32
  0
VERTEX
  5
12DC
  8
0
 10
138.38422689413741
 20
218.9999999999994
 30
0.0
 70
    32
  0
SEQEND
  5
12DD
  8
0
  0
ARC
  5
12DE
  8
0
 10
129.5
 20
219.0
 30
0.0
 40
1.0
 50
0.0
 51
90.0
  0
LINE
  5
12DF
  8
0
 10
128.5
 20
246.0
 30
0.0
 11
128.5
 21
220.0
 31
0.0
  0
LINE
  5
12E0
  8
0
 10
128.5
 20
167.0
 30
0.0
 11
128.5
 21
141.0
 31
0.0
  0
LINE
  5
12E7
  8
1
 10
63.5
 20
96.0
 30
0.0
 11
63.5
 21
45.0
 31
0.0
  0
LINE
  5
12F9
  8
0
 10
55.059028491932963
 20
90.399999999999963
 30
0.0
 11
55.059028491932963
 21
89.500000000000014
 31
0.0
  0
LINE
  5
12FA
  8
0
 10
71.940971508067037
 20
89.500000000000014
 30
0.0
 11
71.940971508067037
 21
90.399999999999963
 31
0.0
  0
LINE
  5
12FB
  8
0
 10
71.336453279385978
 20
91.0
 30
0.0
 11
55.663546720614022
 21
91.0
 31
0.0
  0
LINE
  5
12FC
  8
0
 10
55.663546720614022
 20
91.0
 30
0.0
 11
55.059028491932963
 21
90.399999999999963
 31
0.0
  0
LINE
  5
12FD
  8
0
 10
71.940971508067037
 20
90.399999999999963
 30
0.0
 11
55.059028491932963
 21
90.399999999999963
 31
0.0
  0
LINE
  5
12FE
  8
0
 10
71.940971508067037
 20
90.399999999999963
 30
0.0
 11
71.336453279385978
 21
91.0
 31
0.0
  0
LINE
  5
134E
  8
0
 10
75.0
 20
89.500000000000014
 30
0.0
 11
52.0
 21
89.500000000000014
 31
0.0
  0
ARC
  5
134F
  8
0
 10
75.0
 20
87.5
 30
0.0
 40
1.9999999999999949
 50
0.0
 51
90.0
  0
ARC
  5
1350
  8
0
 10
52.0
 20
87.5
 30
0.0
 40
2.0000000000000022
 50
90.0
 51
180.0
  0
LINE
  5
1351
  8
0
 10
50.0
 20
72.0
 30
0.0
 11
77.0
 21
72.0
 31
0.0
  0
LINE
  5
1352
  8
0
 10
77.0
 20
72.0
 30
0.0
 11
77.0
 21
87.5
 31
0.0
  0
LINE
  5
1353
  8
0
 10
50.0
 20
87.5
 30
0.0
 11
50.0
 21
72.0
 31
0.0
  0
LINE
  5
1354
  8
1
 10
50.0
 20
155.5
 30
0.0
 11
77.0
 21
155.5
 31
0.0
  0
LINE
  5
1355
  8
1
 10
63.5
 20
135.99999999999989
 30
0.0
 11
63.5
 21
160.75
 31
0.0
  0
LINE
  5
1356
  8
1
 10
63.5
 20
226.25
 30
0.0
 11
63.5
 21
251.0
 31
0.0
  0
LINE
  5
1357
  8
1
 10
63.5
 20
222.65000000000001
 30
0.0
 11
63.5
 21
164.34999999999999
 31
0.0
  0
LINE
  5
1358
  8
1
 10
50.0
 20
231.5
 30
0.0
 11
77.0
 21
231.5
 31
0.0
  0
LINE
  5
1359
  8
0
 10
55.059028491932963
 20
154.5
 30
0.0
 11
71.940971508067037
 21
154.5
 31
0.0
  0
ARC
  5
135A
  8
0
 10
63.5
 20
155.5
 30
0.0
 40
7.8999999999999968
 50
187.27213955493951
 51
352.72786044506051
  0
LINE
  5
135B
  8
0
 10
55.059028491932963
 20
156.5
 30
0.0
 11
71.940971508067037
 21
156.5
 31
0.0
  0
ARC
  5
135C
  8
0
 10
63.5
 20
155.5
 30
0.0
 40
7.8999999999999968
 50
7.27213955493949
 51
172.72786044506049
  0
LINE
  5
135D
  8
0
 10
55.059028491932963
 20
230.5
 30
0.0
 11
71.940971508067037
 21
230.5
 31
0.0
  0
ARC
  5
135E
  8
0
 10
63.5
 20
231.5
 30
0.0
 40
7.8999999999999968
 50
187.27213955493951
 51
352.72786044506051
  0
LINE
  5
135F
  8
0
 10
55.059028491932963
 20
232.5
 30
0.0
 11
71.940971508067037
 21
232.5
 31
0.0
  0
ARC
  5
1360
  8
0
 10
63.5
 20
231.5
 30
0.0
 40
7.8999999999999968
 50
7.27213955493949
 51
172.72786044506049
  0
LINE
  5
1361
  8
0
 10
77.0
 20
167.0
 30
0.0
 11
50.0
 21
167.0
 31
0.0
  0
LINE
  5
1362
  8
0
 10
50.0
 20
141.0
 30
0.0
 11
77.0
 21
141.0
 31
0.0
  0
LINE
  5
1363
  8
0
 10
50.0
 20
246.0
 30
0.0
 11
50.0
 21
141.0
 31
0.0
  0
LINE
  5
1364
  8
0
 10
50.0
 20
220.0
 30
0.0
 11
62.827168031887588
 21
220.0
 31
0.0
  0
LINE
  5
1365
  8
0
 10
77.0
 20
246.0
 30
0.0
 11
77.0
 21
141.0
 31
0.0
  0
LINE
  5
1366
  8
0
 10
50.0
 20
246.0
 30
0.0
 11
77.0
 21
246.0
 31
0.0
  0
CIRCLE
  5
1367
  8
0
 10
63.5
 20
155.5
 30
0.0
 40
8.5
  0
CIRCLE
  5
1368
  8
0
 10
63.5
 20
231.5
 30
0.0
 40
8.5
  0
LINE
  5
141C
  8
0
 10
64.172831968112632
 20
220.0
 30
0.0
 11
77.0
 21
220.0
 31
0.0
  0
LINE
  5
1472
  8
0
 10
70.999999999999545
 20
172.84999999999999
 30
0.0
 11
65.715509778163209
 21
172.84999999999991
 31
0.0
  0
LINE
  5
1473
  8
0
 10
61.284490221837189
 20
172.84999999999999
 30
0.0
 11
55.999999999999552
 21
172.84999999999999
 31
0.0
  0
LINE
  5
1474
  8
0
 10
70.999999999999545
 20
174.15000000000001
 30
0.0
 11
65.300498840014825
 21
174.15000000000001
 31
0.0
  0
LINE
  5
1475
  8
0
 10
61.714914757691531
 20
174.15000000000001
 30
0.0
 11
55.999999999999552
 21
174.15000000000001
 31
0.0
  0
INSERT
  5
148F
  8
0
  6
CONTINUOUS
  2
*U1
 10
0.0
 20
0.0
 30
0.0
1001
GRADIENTCOLOR1ACI
1070
     5
1001
GRADIENTCOLOR2ACI
1070
     2
1001
ACAD
1002
{
1000
R14_HATCH_DATA
1000
148F
1011
1.0
1021
0.0
1031
0.0
1021
0.0
1031
0.0
1011
0.0
1021
0.0
1031
0.0
1021
1.0
1031
0.0
1011
0.0
1021
0.0
1031
0.0
1021
0.0
1031
1.0
1040
0.0
1010
0.0
1020
0.0
1030
1.0
1000
SOLID
1070
     1
1070
     0
1071
        4
1071
        7
1070
     1
1070
     1
1071
        4
1040
61.714914757691531
1040
174.15000000000001
1040
0.0
1040
55.999999999999552
1040
174.15000000000001
1040
0.0
1040
55.999999999999552
1040
173.5
1040
0.0
1040
61.455087714218621
1040
173.5
1040
-0.0839210934070488
1071
        0
1071
        7
1070
     1
1070
     1
1071
        6
1040
61.455087714218621
1040
173.5
1040
0.0
1040
55.999999999999552
1040
173.5
1040
0.0
1040
55.999999999999552
1040
172.84999999999999
1040
0.0
1040
61.284490221837189
1040
172.84999999999999
1040
-0.0231178513216785
1040
61.407815970275401
1040
173.03501658053671
1040
-0.0025491926953442
1040
61.407706798853148
1040
173.05642938172821
1040
-0.0532570534183744
1071
        0
1071
        7
1070
     1
1070
     1
1071
        4
1040
70.999999999999545
1040
174.15000000000001
1040
0.0
1040
65.300498840014825
1040
174.15000000000001
1040
-0.0839210934070488
1040
65.560325883487735
1040
173.5
1040
0.0
1040
70.999999999999545
1040
173.5
1040
0.0
1071
        0
1071
        7
1070
     1
1070
     1
1071
        6
1040
70.999999999999545
1040
173.5
1040
0.0
1040
65.560325883487735
1040
173.5
1040
-0.0532570534183744
1040
65.607706798853201
1040
173.05642938172821
1040
-0.0050209771332176
1040
65.607283288655935
1040
173.0142563634885
1040
-0.020449044663766
1040
65.715509778163096
1040
172.84999999999991
1040
0.0
1040
70.999999999999545
1040
172.84999999999999
1040
0.0
1071
        0
1070
     1
1070
     1
1040
0.0203498973065297
1071
        4
1040
60.688212079318191
1040
173.65985595836489
1040
0.0
1040
60.525370705386869
1040
173.09005821200321
1040
0.0
1040
65.878810025890061
1040
173.6802056257884
1040
0.0
1040
66.143427258529073
1040
173.25285731601701
1040
0.0
1002
}
  0
LINE
  5
2A4F
  8
3
 10
58.57349999999996
 20
50.0
 30
0.0
 11
58.57349999999996
 21
57.070922021521248
 31
0.0
  0
LINE
  5
2A50
  8
3
 10
58.57349999999996
 20
67.070922021521255
 30
0.0
 11
58.57349999999991
 21
68.5208543768872
 31
0.0
  0
LINE
  5
2A51
  8
3
 10
58.57349999999991
 20
69.295701644427027
 30
0.0
 11
58.573499999999903
 21
69.57947281767315
 31
0.0
  0
LINE
  5
2A52
  8
3
 10
58.57349999999996
 20
70.192901252258139
 30
0.0
 11
58.57349999999996
 21
70.499999999999773
 31
0.0
  0
LINE
  5
2A53
  8
3
 10
68.426499999999976
 20
50.0
 30
0.0
 11
68.426499999999976
 21
57.070922021521248
 31
0.0
  0
LINE
  5
2A54
  8
3
 10
68.426499999999976
 20
67.070922021521255
 30
0.0
 11
68.426499999999976
 21
68.520854926382981
 31
0.0
  0
LINE
  5
2A55
  8
3
 10
68.426500000000019
 20
69.439627100539582
 30
0.0
 11
68.426500000000033
 21
70.499999999999773
 31
0.0
  0
LINE
  5
2A57
  8
0
 10
68.426500000000033
 20
50.0
 30
0.0
 11
69.5
 21
51.07349999999996
 31
0.0
  0
LINE
  5
2A58
  8
0
 10
57.5
 20
51.07349999999996
 30
0.0
 11
58.57349999999996
 21
50.0
 31
0.0
  0
LINE
  5
2A59
  8
0
 10
68.426500000000033
 20
50.0
 30
0.0
 11
58.57349999999996
 21
50.0
 31
0.0
  0
LINE
  5
2A5A
  8
0
 10
57.5
 20
70.499999999999773
 30
0.0
 11
57.5
 21
70.024029917143267
 31
0.0
  0
LINE
  5
2A5B
  8
0
 10
57.5
 20
68.500826237676876
 30
0.0
 11
57.5
 21
67.070922021521255
 31
0.0
  0
LINE
  5
2A5C
  8
0
 10
69.5
 20
67.070922021521255
 30
0.0
 11
69.5
 21
67.346245087807901
 31
0.0
  0
LINE
  5
2A5D
  8
0
 10
69.5
 20
69.295702147969834
 30
0.0
 11
69.5
 21
70.499999999999773
 31
0.0
  0
LINE
  5
2A5E
  8
0
 10
57.5
 20
57.070922021521248
 30
0.0
 11
57.5
 21
51.07349999999996
 31
0.0
  0
LINE
  5
2A5F
  8
0
 10
69.5
 20
51.07349999999996
 30
0.0
 11
69.5
 21
57.070922021521248
 31
0.0
  0
LINE
  5
2A60
  8
0
 10
69.5
 20
51.07349999999996
 30
0.0
 11
57.5
 21
51.07349999999996
 31
0.0
  0
LINE
  5
2A61
  8
0
 10
73.0
 20
67.070922021521255
 30
0.0
 11
54.0
 21
67.070922021521255
 31
0.0
  0
LINE
  5
2A62
  8
0
 10
54.0
 20
57.070922021521248
 30
0.0
 11
54.0
 21
67.070922021521255
 31
0.0
  0
LINE
  5
2A63
  8
0
 10
73.0
 20
57.070922021521248
 30
0.0
 11
54.0
 21
57.070922021521248
 31
0.0
  0
LINE
  5
2A64
  8
0
 10
73.0
 20
67.070922021521255
 30
0.0
 11
73.0
 21
57.070922021521248
 31
0.0
  0
POLYLINE
  5
2A6B
  8
0
 66
     1
 10
0.0
 20
0.0
 30
0.0
  0
VERTEX
  5
2E39
  8
0
 10
63.5
 20
66.222416245489512
 30
0.0
  0
VERTEX
  5
2E3A
  8
0
 10
62.925172632727417
 20
66.405067211967662
 30
0.0
  0
VERTEX
  5
2E3B
  8
0
 10
62.346315250434721
 20
66.569803691236302
 30
0.0
  0
VERTEX
  5
2E3C
  8
0
 10
61.761472496914671
 20
66.715025060478183
 30
0.0
  0
VERTEX
  5
2E3D
  8
0
 10
61.172840763596639
 20
66.83803218789194
 30
0.0
  0
VERTEX
  5
2E3E
  8
0
 10
60.572559443015223
 20
66.937930984256354
 30
0.0
  0
VERTEX
  5
2E3F
  8
0
 10
59.969404724415433
 20
67.011004403556854
 30
0.0
  0
VERTEX
  5
2E40
  8
0
 10
59.360246017113703
 20
67.055822026691658
 30
0.0
  0
VERTEX
  5
2E41
  8
0
 10
58.75
 20
67.070922021521255
 30
0.0
  0
SEQEND
  5
2E42
  8
0
  0
POLYLINE
  5
2A6C
  8
0
 66
     1
 10
0.0
 20
0.0
 30
0.0
  0
VERTEX
  5
2E43
  8
0
 10
58.75
 20
67.070922021521255
 30
0.0
  0
VERTEX
  5
2E44
  8
0
 10
58.412208994958412
 20
67.06630100246457
 30
0.0
  0
VERTEX
  5
2E45
  8
0
 10
57.858685704120262
 20
67.038807624337551
 30
0.0
  0
VERTEX
  5
2E46
  8
0
 10
57.306453239122447
 20
66.987134061645293
 30
0.0
  0
VERTEX
  5
2E47
  8
0
 10
56.753239899883063
 20
66.911681469434825
 30
0.0
  0
VERTEX
  5
2E48
  8
0
 10
56.202624356399333
 20
66.814026156960608
 30
0.0
  0
VERTEX
  5
2E49
  8
0
 10
55.647591823049709
 20
66.693912259040872
 30
0.0
  0
VERTEX
  5
2E4A
  8
0
 10
55.095977882313321
 20
66.554291325048325
 30
0.0
  0
VERTEX
  5
2E4B
  8
0
 10
54.546168563555632
 20
66.396397177154086
 30
0.0
  0
VERTEX
  5
2E4C
  8
0
 10
54.0
 20
66.222416245489512
 30
0.0
  0
SEQEND
  5
2E4D
  8
0
  0
POLYLINE
  5
2A6D
  8
0
 66
     1
 10
0.0
 20
0.0
 30
0.0
  0
VERTEX
  5
2E4E
  8
0
 10
54.0
 20
57.919427797553233
 30
0.0
  0
VERTEX
  5
2E4F
  8
0
 10
54.574827367272569
 20
57.736776831075069
 30
0.0
  0
VERTEX
  5
2E50
  8
0
 10
55.153684749565279
 20
57.57204035180667
 30
0.0
  0
VERTEX
  5
2E51
  8
0
 10
55.738527503085322
 20
57.426818982564562
 30
0.0
  0
VERTEX
  5
2E52
  8
0
 10
56.327159236403361
 20
57.303811855150798
 30
0.0
  0
VERTEX
  5
2E53
  8
0
 10
56.927440556984777
 20
57.203913058786391
 30
0.0
  0
VERTEX
  5
2E54
  8
0
 10
57.530595275584567
 20
57.130839639485657
 30
0.0
  0
VERTEX
  5
2E55
  8
0
 10
58.139753982886297
 20
57.086022016351301
 30
0.0
  0
VERTEX
  5
2E56
  8
0
 10
58.75
 20
57.070922021521248
 30
0.0
  0
SEQEND
  5
2E57
  8
0
  0
POLYLINE
  5
2A6E
  8
0
 66
     1
 10
0.0
 20
0.0
 30
0.0
  0
VERTEX
  5
2E58
  8
0
 10
58.75
 20
57.070922021521248
 30
0.0
  0
VERTEX
  5
2E59
  8
0
 10
59.087791005041588
 20
57.075543040578403
 30
0.0
  0
VERTEX
  5
2E5A
  8
0
 10
59.641314295879738
 20
57.103036418704953
 30
0.0
  0
VERTEX
  5
2E5B
  8
0
 10
60.193546760877553
 20
57.154709981397438
 30
0.0
  0
VERTEX
  5
2E5C
  8
0
 10
60.746760100116937
 20
57.230162573608141
 30
0.0
  0
VERTEX
  5
2E5D
  8
0
 10
61.297375643600667
 20
57.327817886081903
 30
0.0
  0
VERTEX
  5
2E5E
  8
0
 10
61.852408176950291
 20
57.44793178400186
 30
0.0
  0
VERTEX
  5
2E5F
  8
0
 10
62.404022117686672
 20
57.587552717994413
 30
0.0
  0
VERTEX
  5
2E60
  8
0
 10
62.953831436444368
 20
57.745446865888653
 30
0.0
  0
VERTEX
  5
2E61
  8
0
 10
63.5
 20
57.919427797553233
 30
0.0
  0
SEQEND
  5
2E62
  8
0
  0
POLYLINE
  5
2A6F
  8
0
 66
     1
 10
0.0
 20
0.0
 30
0.0
  0
VERTEX
  5
2E63
  8
0
 10
73.0
 20
66.222416245489512
 30
0.0
  0
VERTEX
  5
2E64
  8
0
 10
72.425172632727424
 20
66.405067211967662
 30
0.0
  0
VERTEX
  5
2E65
  8
0
 10
71.846315250434714
 20
66.569803691236302
 30
0.0
  0
VERTEX
  5
2E66
  8
0
 10
71.261472496914664
 20
66.715025060478183
 30
0.0
  0
VERTEX
  5
2E67
  8
0
 10
70.672840763596639
 20
66.83803218789194
 30
0.0
  0
VERTEX
  5
2E68
  8
0
 10
70.072559443015223
 20
66.937930984256354
 30
0.0
  0
VERTEX
  5
2E69
  8
0
 10
69.469404724415426
 20
67.011004403556854
 30
0.0
  0
VERTEX
  5
2E6A
  8
0
 10
68.860246017113695
 20
67.055822026691658
 30
0.0
  0
VERTEX
  5
2E6B
  8
0
 10
68.25
 20
67.070922021521255
 30
0.0
  0
SEQEND
  5
2E6C
  8
0
  0
POLYLINE
  5
2A70
  8
0
 66
     1
 10
0.0
 20
0.0
 30
0.0
  0
VERTEX
  5
2E6D
  8
0
 10
68.25
 20
67.070922021521255
 30
0.0
  0
VERTEX
  5
2E6E
  8
0
 10
67.912208994958405
 20
67.06630100246457
 30
0.0
  0
VERTEX
  5
2E6F
  8
0
 10
67.358685704120262
 20
67.038807624337551
 30
0.0
  0
VERTEX
  5
2E70
  8
0
 10
66.806453239122433
 20
66.987134061645293
 30
0.0
  0
VERTEX
  5
2E71
  8
0
 10
66.253239899883056
 20
66.911681469434825
 30
0.0
  0
VERTEX
  5
2E72
  8
0
 10
65.702624356399326
 20
66.814026156960608
 30
0.0
  0
VERTEX
  5
2E73
  8
0
 10
65.147591823049694
 20
66.693912259040872
 30
0.0
  0
VERTEX
  5
2E74
  8
0
 10
64.595977882313321
 20
66.554291325048325
 30
0.0
  0
VERTEX
  5
2E75
  8
0
 10
64.046168563555625
 20
66.396397177154086
 30
0.0
  0
VERTEX
  5
2E76
  8
0
 10
63.5
 20
66.222416245489512
 30
0.0
  0
SEQEND
  5
2E77
  8
0
  0
LINE
  5
2A71
  8
0
 10
63.5
 20
57.919427797553233
 30
0.0
 11
63.5
 21
66.222416245489512
 31
0.0
  0
POLYLINE
  5
2A72
  8
0
 66
     1
 10
0.0
 20
0.0
 30
0.0
  0
VERTEX
  5
2E78
  8
0
 10
63.5
 20
57.919427797553233
 30
0.0
  0
VERTEX
  5
2E79
  8
0
 10
64.074827367272576
 20
57.736776831075069
 30
0.0
  0
VERTEX
  5
2E7A
  8
0
 10
64.653684749565286
 20
57.57204035180667
 30
0.0
  0
VERTEX
  5
2E7B
  8
0
 10
65.238527503085322
 20
57.426818982564562
 30
0.0
  0
VERTEX
  5
2E7C
  8
0
 10
65.827159236403361
 20
57.303811855150798
 30
0.0
  0
VERTEX
  5
2E7D
  8
0
 10
66.427440556984777
 20
57.203913058786391
 30
0.0
  0
VERTEX
  5
2E7E
  8
0
 10
67.030595275584574
 20
57.130839639485657
 30
0.0
  0
VERTEX
  5
2E7F
  8
0
 10
67.639753982886305
 20
57.086022016351301
 30
0.0
  0
VERTEX
  5
2E80
  8
0
 10
68.25
 20
57.070922021521248
 30
0.0
  0
SEQEND
  5
2E81
  8
0
  0
POLYLINE
  5
2A73
  8
0
 66
     1
 10
0.0
 20
0.0
 30
0.0
  0
VERTEX
  5
2E82
  8
0
 10
68.25
 20
57.070922021521248
 30
0.0
  0
VERTEX
  5
2E83
  8
0
 10
68.587791005041595
 20
57.075543040578403
 30
0.0
  0
VERTEX
  5
2E84
  8
0
 10
69.141314295879738
 20
57.103036418704953
 30
0.0
  0
VERTEX
  5
2E85
  8
0
 10
69.693546760877553
 20
57.154709981397438
 30
0.0
  0
VERTEX
  5
2E86
  8
0
 10
70.246760100116944
 20
57.230162573608141
 30
0.0
  0
VERTEX
  5
2E87
  8
0
 10
70.797375643600674
 20
57.327817886081903
 30
0.0
  0
VERTEX
  5
2E88
  8
0
 10
71.352408176950291
 20
57.44793178400186
 30
0.0
  0
VERTEX
  5
2E89
  8
0
 10
71.904022117686679
 20
57.587552717994413
 30
0.0
  0
VERTEX
  5
2E8A
  8
0
 10
72.453831436444375
 20
57.745446865888653
 30
0.0
  0
VERTEX
  5
2E8B
  8
0
 10
73.0
 20
57.919427797553233
 30
0.0
  0
SEQEND
  5
2E8C
  8
0
  0
LINE
  5
2A85
  8
0
 10
150.9290779784786
 20
165.0
 30
0.0
 11
150.9290779784786
 21
146.0
 31
0.0
  0
LINE
  5
2A86
  8
0
 10
150.9290779784786
 20
146.0
 30
0.0
 11
151.7775837545104
 21
144.53034488539689
 31
0.0
  0
LINE
  5
2A87
  8
0
 10
160.92907797847849
 20
165.0
 30
0.0
 11
160.92907797847849
 21
146.0
 31
0.0
  0
LINE
  5
2A88
  8
0
 10
160.08057220244669
 20
144.53034488539689
 30
0.0
 11
160.92907797847849
 21
146.0
 31
0.0
  0
LINE
  5
2A89
  8
0
 10
151.7775837545104
 20
166.4696551146028
 30
0.0
 11
150.9290779784786
 21
165.0
 31
0.0
  0
LINE
  5
2A8A
  8
0
 10
160.92907797847849
 20
165.0
 30
0.0
 11
160.08057220244669
 21
166.4696551146028
 31
0.0
  0
LINE
  5
2A8B
  8
0
 10
168.0
 20
160.4265
 30
0.0
 11
166.9265
 21
161.5
 31
0.0
  0
LINE
  5
2A8C
  8
0
 10
166.9265
 20
149.5
 30
0.0
 11
168.0
 21
150.57349999999991
 31
0.0
  0
LINE
  5
2A8D
  8
0
 10
168.0
 20
160.4265
 30
0.0
 11
168.0
 21
150.57349999999991
 31
0.0
  0
LINE
  5
2A8E
  8
0
 10
160.92907797847849
 20
149.5
 30
0.0
 11
166.9265
 21
149.5
 31
0.0
  0
LINE
  5
2A8F
  8
0
 10
166.9265
 20
161.5
 30
0.0
 11
160.92907797847849
 21
161.5
 31
0.0
  0
LINE
  5
2A90
  8
0
 10
166.9265
 20
161.5
 30
0.0
 11
166.9265
 21
149.5
 31
0.0
  0
LINE
  5
2A91
  8
0
 10
147.5
 20
149.5
 30
0.0
 11
147.97597012874311
 21
149.5
 31
0.0
  0
LINE
  5
2A92
  8
0
 10
149.49917380820949
 20
149.5
 30
0.0
 11
150.9290779784786
 21
149.5
 31
0.0
  0
LINE
  5
2A93
  8
0
 10
150.9290779784786
 20
161.5
 30
0.0
 11
150.65375495807839
 21
161.5
 31
0.0
  0
LINE
  5
2A94
  8
0
 10
148.7042978979164
 20
161.5
 30
0.0
 11
147.49999999999989
 21
161.5
 31
0.0
  0
POLYLINE
  5
2A9F
  8
0
 66
     1
 10
0.0
 20
0.0
 30
0.0
  0
VERTEX
  5
2E8D
  8
0
 10
150.9290779784786
 20
147.27275866404781
 30
0.0
  0
VERTEX
  5
2E8E
  8
0
 10
150.93369899753549
 20
147.07773493635719
 30
0.0
  0
VERTEX
  5
2E8F
  8
0
 10
151.01286593835471
 20
146.4393265530673
 30
0.0
  0
VERTEX
  5
2E90
  8
0
 10
151.18597384303919
 20
145.80203065048769
 30
0.0
  0
VERTEX
  5
2E91
  8
0
 10
151.44570867495159
 20
145.16310801077651
 30
0.0
  0
VERTEX
  5
2E92
  8
0
 10
151.7775837545104
 20
144.53034488539689
 30
0.0
  0
SEQEND
  5
2E93
  8
0
  0
LINE
  5
2AA0
  8
0
 10
160.08057220244669
 20
144.53034488539689
 30
0.0
 11
151.7775837545104
 21
144.53034488539689
 31
0.0
  0
POLYLINE
  5
2AA1
  8
0
 66
     1
 10
0.0
 20
0.0
 30
0.0
  0
VERTEX
  5
2E94
  8
0
 10
160.08057220244669
 20
144.53034488539689
 30
0.0
  0
VERTEX
  5
2E95
  8
0
 10
160.42795964819339
 20
145.1964250861185
 30
0.0
  0
VERTEX
  5
2E96
  8
0
 10
160.69618814484909
 20
145.87393089698159
 30
0.0
  0
VERTEX
  5
2E97
  8
0
 10
160.8691603605142
 20
146.56873501815539
 30
0.0
  0
VERTEX
  5
2E98
  8
0
 10
160.92907797847849
 20
147.27275866404781
 30
0.0
  0
SEQEND
  5
2E99
  8
0
  0
LINE
  5
2AA2
  8
0
 10
160.08057220244669
 20
150.01517244269851
 30
0.0
 11
151.7775837545104
 21
150.01517244269851
 31
0.0
  0
POLYLINE
  5
2AA3
  8
0
 66
     1
 10
0.0
 20
0.0
 30
0.0
  0
VERTEX
  5
2E9A
  8
0
 10
151.7775837545104
 20
166.4696551146028
 30
0.0
  0
VERTEX
  5
2E9B
  8
0
 10
151.4301963087637
 20
165.80357491388119
 30
0.0
  0
VERTEX
  5
2E9C
  8
0
 10
151.161967812108
 20
165.1260691030181
 30
0.0
  0
VERTEX
  5
2E9D
  8
0
 10
150.988995596443
 20
164.43126498184429
 30
0.0
  0
VERTEX
  5
2E9E
  8
0
 10
150.9290779784786
 20
163.7272413359521
 30
0.0
  0
SEQEND
  5
2E9F
  8
0
  0
LINE
  5
2AA4
  8
0
 10
160.08057220244669
 20
160.9848275573012
 30
0.0
 11
151.7775837545104
 21
160.9848275573012
 31
0.0
  0
POLYLINE
  5
2AA5
  8
0
 66
     1
 10
0.0
 20
0.0
 30
0.0
  0
VERTEX
  5
2EA0
  8
0
 10
160.92907797847849
 20
163.7272413359521
 30
0.0
  0
VERTEX
  5
2EA1
  8
0
 10
160.9244569594216
 20
163.9222650636427
 30
0.0
  0
VERTEX
  5
2EA2
  8
0
 10
160.8452900186025
 20
164.5606734469325
 30
0.0
  0
VERTEX
  5
2EA3
  8
0
 10
160.6721821139179
 20
165.19796934951199
 30
0.0
  0
VERTEX
  5
2EA4
  8
0
 10
160.41244728200559
 20
165.8368919892234
 30
0.0
  0
VERTEX
  5
2EA5
  8
0
 10
160.08057220244669
 20
166.4696551146028
 30
0.0
  0
SEQEND
  5
2EA6
  8
0
  0
LINE
  5
2AA6
  8
0
 10
160.08057220244669
 20
166.4696551146028
 30
0.0
 11
151.7775837545104
 21
166.4696551146028
 31
0.0
  0
POLYLINE
  5
2AA7
  8
0
 66
     1
 10
0.0
 20
0.0
 30
0.0
  0
VERTEX
  5
2EA7
  8
0
 10
160.08057220244669
 20
150.01517244269851
 30
0.0
  0
VERTEX
  5
2EA8
  8
0
 10
160.39845416717449
 20
151.22133601410769
 30
0.0
  0
VERTEX
  5
2EA9
  8
0
 10
160.62067923334189
 20
152.2697658020229
 30
0.0
  0
VERTEX
  5
2EAA
  8
0
 10
160.7879655675342
 20
153.33122117796279
 30
0.0
  0
VERTEX
  5
2EAB
  8
0
 10
160.8931695927651
 20
154.41115838732571
 30
0.0
  0
VERTEX
  5
2EAC
  8
0
 10
160.92907797847849
 20
155.5
 30
0.0
  0
SEQEND
  5
2EAD
  8
0
  0
POLYLINE
  5
2AA8
  8
0
 66
     1
 10
0.0
 20
0.0
 30
0.0
  0
VERTEX
  5
2EAE
  8
0
 10
160.92907797847849
 20
147.27275866404781
 30
0.0
  0
VERTEX
  5
2EAF
  8
0
 10
160.9244569594216
 20
147.46778239173841
 30
0.0
  0
VERTEX
  5
2EB0
  8
0
 10
160.8452900186025
 20
148.1061907750281
 30
0.0
  0
VERTEX
  5
2EB1
  8
0
 10
160.6721821139179
 20
148.74348667760771
 30
0.0
  0
VERTEX
  5
2EB2
  8
0
 10
160.41244728200559
 20
149.38240931731909
 30
0.0
  0
VERTEX
  5
2EB3
  8
0
 10
160.08057220244669
 20
150.01517244269851
 30
0.0
  0
SEQEND
  5
2EB4
  8
0
  0
POLYLINE
  5
2AA9
  8
0
 66
     1
 10
0.0
 20
0.0
 30
0.0
  0
VERTEX
  5
2EB5
  8
0
 10
150.9290779784786
 20
163.7272413359521
 30
0.0
  0
VERTEX
  5
2EB6
  8
0
 10
150.93369899753549
 20
163.53221760826159
 30
0.0
  0
VERTEX
  5
2EB7
  8
0
 10
151.01286593835471
 20
162.89380922497159
 30
0.0
  0
VERTEX
  5
2EB8
  8
0
 10
151.18597384303919
 20
162.25651332239201
 30
0.0
  0
VERTEX
  5
2EB9
  8
0
 10
151.44570867495159
 20
161.61759068268091
 30
0.0
  0
VERTEX
  5
2EBA
  8
0
 10
151.7775837545104
 20
160.9848275573012
 30
0.0
  0
SEQEND
  5
2EBB
  8
0
  0
POLYLINE
  5
2AAA
  8
0
 66
     1
 10
0.0
 20
0.0
 30
0.0
  0
VERTEX
  5
2EBC
  8
0
 10
151.7775837545104
 20
160.9848275573012
 30
0.0
  0
VERTEX
  5
2EBD
  8
0
 10
151.5060093938414
 20
159.970435709246
 30
0.0
  0
VERTEX
  5
2EBE
  8
0
 10
151.27864059120321
 20
158.94533394147669
 30
0.0
  0
VERTEX
  5
2EBF
  8
0
 10
151.10152392399991
 20
157.90023038844399
 30
0.0
  0
VERTEX
  5
2EC0
  8
0
 10
150.9839283992051
 20
156.8468839225209
 30
0.0
  0
VERTEX
  5
2EC1
  8
0
 10
150.9428869676002
 20
156.17454548325509
 30
0.0
  0
VERTEX
  5
2EC2
  8
0
 10
150.9290779784786
 20
155.5
 30
0.0
  0
SEQEND
  5
2EC3
  8
0
  0
POLYLINE
  5
2AAB
  8
0
 66
     1
 10
0.0
 20
0.0
 30
0.0
  0
VERTEX
  5
2EC4
  8
0
 10
160.92907797847849
 20
155.5
 30
0.0
  0
VERTEX
  5
2EC5
  8
0
 10
160.9153140775008
 20
156.17344196126029
 30
0.0
  0
VERTEX
  5
2EC6
  8
0
 10
160.87422755775199
 20
156.8468839225209
 30
0.0
  0
VERTEX
  5
2EC7
  8
0
 10
160.7581209637529
 20
157.8897026551858
 30
0.0
  0
VERTEX
  5
2EC8
  8
0
 10
160.5836124712911
 20
158.92446370304631
 30
0.0
  0
VERTEX
  5
2EC9
  8
0
 10
160.3546830127755
 20
159.96010665041831
 30
0.0
  0
VERTEX
  5
2ECA
  8
0
 10
160.08057220244669
 20
160.9848275573012
 30
0.0
  0
SEQEND
  5
2ECB
  8
0
  0
POLYLINE
  5
2AAC
  8
0
 66
     1
 10
0.0
 20
0.0
 30
0.0
  0
VERTEX
  5
2ECC
  8
0
 10
160.08057220244669
 20
160.9848275573012
 30
0.0
  0
VERTEX
  5
2ECD
  8
0
 10
160.42795964819339
 20
161.65090775802281
 30
0.0
  0
VERTEX
  5
2ECE
  8
0
 10
160.69618814484909
 20
162.32841356888591
 30
0.0
  0
VERTEX
  5
2ECF
  8
0
 10
160.8691603605142
 20
163.02321769005971
 30
0.0
  0
VERTEX
  5
2ED0
  8
0
 10
160.92907797847849
 20
163.7272413359521
 30
0.0
  0
SEQEND
  5
2ED1
  8
0
  0
POLYLINE
  5
2AAD
  8
0
 66
     1
 10
0.0
 20
0.0
 30
0.0
  0
VERTEX
  5
2ED2
  8
0
 10
150.9290779784786
 20
155.5
 30
0.0
  0
VERTEX
  5
2ED3
  8
0
 10
150.96373666973349
 20
154.43033400352689
 30
0.0
  0
VERTEX
  5
2ED4
  8
0
 10
151.06643094051429
 20
153.36066800705379
 30
0.0
  0
VERTEX
  5
2ED5
  8
0
 10
151.23421777028571
 20
152.28734288925301
 30
0.0
  0
VERTEX
  5
2ED6
  8
0
 10
151.4597017897826
 20
151.22133601410769
 30
0.0
  0
VERTEX
  5
2ED7
  8
0
 10
151.7775837545104
 20
150.01517244269851
 30
0.0
  0
SEQEND
  5
2ED8
  8
0
  0
POLYLINE
  5
2AAE
  8
0
 66
     1
 10
0.0
 20
0.0
 30
0.0
  0
VERTEX
  5
2ED9
  8
0
 10
151.7775837545104
 20
150.01517244269851
 30
0.0
  0
VERTEX
  5
2EDA
  8
0
 10
151.4301963087637
 20
149.3490922419769
 30
0.0
  0
VERTEX
  5
2EDB
  8
0
 10
151.161967812108
 20
148.67158643111381
 30
0.0
  0
VERTEX
  5
2EDC
  8
0
 10
150.988995596443
 20
147.97678230994001
 30
0.0
  0
VERTEX
  5
2EDD
  8
0
 10
150.9290779784786
 20
147.27275866404781
 30
0.0
  0
SEQEND
  5
2EDE
  8
0
  0
LINE
  5
2AAF
  8
3
 10
168.0
 20
160.4265
 30
0.0
 11
160.92907797847849
 21
160.4265
 31
0.0
  0
LINE
  5
2AB0
  8
3
 10
150.92907797847849
 20
160.4265
 30
0.0
 11
149.47914512418311
 21
160.4265
 31
0.0
  0
LINE
  5
2AB1
  8
3
 10
148.5603729453469
 20
160.4265
 30
0.0
 11
147.5
 21
160.4265
 31
0.0
  0
LINE
  5
2AB2
  8
3
 10
168.0
 20
150.57349999999991
 30
0.0
 11
160.92907797847849
 21
150.57349999999991
 31
0.0
  0
LINE
  5
2AB3
  8
3
 10
150.92907797847849
 20
150.57349999999991
 30
0.0
 11
149.47914567367869
 21
150.57349999999991
 31
0.0
  0
LINE
  5
2AB4
  8
3
 10
148.7042984061527
 20
150.57349999999991
 30
0.0
 11
148.42052722821339
 21
150.57349999999991
 31
0.0
  0
LINE
  5
2AB5
  8
3
 10
147.80709879362831
 20
150.57349999999991
 30
0.0
 11
147.5
 21
150.57349999999991
 31
0.0
  0
LINE
  5
2AB6
  8
0
 10
150.92907797847849
 20
241.0
 30
0.0
 11
150.92907797847849
 21
222.0
 31
0.0
  0
LINE
  5
2AB7
  8
0
 10
150.92907797847849
 20
222.0
 30
0.0
 11
151.77758375451029
 21
220.530344885397
 31
0.0
  0
LINE
  5
2AB8
  8
0
 10
160.92907797847849
 20
241.0
 30
0.0
 11
160.92907797847849
 21
222.0
 31
0.0
  0
LINE
  5
2AB9
  8
0
 10
160.0805722024466
 20
220.530344885397
 30
0.0
 11
160.92907797847849
 21
222.0
 31
0.0
  0
LINE
  5
2ABA
  8
0
 10
151.77758375451029
 20
242.4696551146028
 30
0.0
 11
150.92907797847849
 21
241.0
 31
0.0
  0
LINE
  5
2ABB
  8
0
 10
160.92907797847849
 20
241.0
 30
0.0
 11
160.0805722024466
 21
242.4696551146028
 31
0.0
  0
LINE
  5
2ABC
  8
0
 10
167.99999999999989
 20
236.4265
 30
0.0
 11
166.9265
 21
237.5
 31
0.0
  0
LINE
  5
2ABD
  8
0
 10
166.9265
 20
225.5
 30
0.0
 11
167.99999999999989
 21
226.5735
 31
0.0
  0
LINE
  5
2ABE
  8
0
 10
167.99999999999989
 20
236.4265
 30
0.0
 11
167.99999999999989
 21
226.5735
 31
0.0
  0
LINE
  5
2ABF
  8
0
 10
160.92907797847849
 20
225.5
 30
0.0
 11
166.9265
 21
225.5
 31
0.0
  0
LINE
  5
2AC0
  8
0
 10
166.9265
 20
237.5
 30
0.0
 11
160.92907797847849
 21
237.5
 31
0.0
  0
LINE
  5
2AC1
  8
0
 10
166.9265
 20
237.5
 30
0.0
 11
166.9265
 21
225.5
 31
0.0
  0
LINE
  5
2AC2
  8
0
 10
147.4999999999998
 20
225.5
 30
0.0
 11
148.70429790267869
 21
225.5
 31
0.0
  0
LINE
  5
2AC3
  8
0
 10
150.65375496284059
 20
225.5
 30
0.0
 11
150.92907797847849
 21
225.5
 31
0.0
  0
LINE
  5
2AC4
  8
0
 10
150.92907797847849
 20
237.5
 30
0.0
 11
149.49917381297209
 21
237.5
 31
0.0
  0
LINE
  5
2AC5
  8
0
 10
147.97597013350531
 20
237.5
 30
0.0
 11
147.4999999999998
 21
237.4999999999998
 31
0.0
  0
POLYLINE
  5
2AD0
  8
0
 66
     1
 10
0.0
 20
0.0
 30
0.0
  0
VERTEX
  5
2EDF
  8
0
 10
150.92907797847849
 20
223.27275866404781
 30
0.0
  0
VERTEX
  5
2EE0
  8
0
 10
150.9336989975354
 20
223.0777349363573
 30
0.0
  0
VERTEX
  5
2EE1
  8
0
 10
151.01286593835471
 20
222.4393265530673
 30
0.0
  0
VERTEX
  5
2EE2
  8
0
 10
151.18597384303911
 20
221.80203065048789
 30
0.0
  0
VERTEX
  5
2EE3
  8
0
 10
151.44570867495159
 20
221.1631080107766
 30
0.0
  0
VERTEX
  5
2EE4
  8
0
 10
151.77758375451029
 20
220.530344885397
 30
0.0
  0
SEQEND
  5
2EE5
  8
0
  0
LINE
  5
2AD1
  8
0
 10
160.0805722024466
 20
220.530344885397
 30
0.0
 11
151.77758375451029
 21
220.530344885397
 31
0.0
  0
POLYLINE
  5
2AD2
  8
0
 66
     1
 10
0.0
 20
0.0
 30
0.0
  0
VERTEX
  5
2EE6
  8
0
 10
160.0805722024466
 20
220.530344885397
 30
0.0
  0
VERTEX
  5
2EE7
  8
0
 10
160.42795964819331
 20
221.19642508611861
 30
0.0
  0
VERTEX
  5
2EE8
  8
0
 10
160.69618814484909
 20
221.87393089698159
 30
0.0
  0
VERTEX
  5
2EE9
  8
0
 10
160.86916036051409
 20
222.56873501815539
 30
0.0
  0
VERTEX
  5
2EEA
  8
0
 10
160.92907797847849
 20
223.27275866404781
 30
0.0
  0
SEQEND
  5
2EEB
  8
0
  0
LINE
  5
2AD3
  8
0
 10
160.0805722024466
 20
226.01517244269851
 30
0.0
 11
151.77758375451029
 21
226.01517244269851
 31
0.0
  0
POLYLINE
  5
2AD4
  8
0
 66
     1
 10
0.0
 20
0.0
 30
0.0
  0
VERTEX
  5
2EEC
  8
0
 10
151.77758375451029
 20
242.4696551146028
 30
0.0
  0
VERTEX
  5
2EED
  8
0
 10
151.4301963087637
 20
241.8035749138815
 30
0.0
  0
VERTEX
  5
2EEE
  8
0
 10
151.16196781210789
 20
241.1260691030181
 30
0.0
  0
VERTEX
  5
2EEF
  8
0
 10
150.98899559644289
 20
240.43126498184441
 30
0.0
  0
VERTEX
  5
2EF0
  8
0
 10
150.92907797847849
 20
239.72724133595219
 30
0.0
  0
SEQEND
  5
2EF1
  8
0
  0
LINE
  5
2AD5
  8
0
 10
160.0805722024466
 20
236.98482755730129
 30
0.0
 11
151.77758375451029
 21
236.98482755730129
 31
0.0
  0
POLYLINE
  5
2AD6
  8
0
 66
     1
 10
0.0
 20
0.0
 30
0.0
  0
VERTEX
  5
2EF2
  8
0
 10
160.92907797847849
 20
239.72724133595219
 30
0.0
  0
VERTEX
  5
2EF3
  8
0
 10
160.9244569594216
 20
239.9222650636427
 30
0.0
  0
VERTEX
  5
2EF4
  8
0
 10
160.8452900186023
 20
240.5606734469327
 30
0.0
  0
VERTEX
  5
2EF5
  8
0
 10
160.67218211391781
 20
241.19796934951199
 30
0.0
  0
VERTEX
  5
2EF6
  8
0
 10
160.41244728200539
 20
241.8368919892234
 30
0.0
  0
VERTEX
  5
2EF7
  8
0
 10
160.0805722024466
 20
242.4696551146028
 30
0.0
  0
SEQEND
  5
2EF8
  8
0
  0
LINE
  5
2AD7
  8
0
 10
160.0805722024466
 20
242.4696551146028
 30
0.0
 11
151.77758375451029
 21
242.4696551146028
 31
0.0
  0
POLYLINE
  5
2AD8
  8
0
 66
     1
 10
0.0
 20
0.0
 30
0.0
  0
VERTEX
  5
2EF9
  8
0
 10
160.0805722024466
 20
226.01517244269851
 30
0.0
  0
VERTEX
  5
2EFA
  8
0
 10
160.39845416717441
 20
227.22133601410769
 30
0.0
  0
VERTEX
  5
2EFB
  8
0
 10
160.62067923334189
 20
228.2697658020229
 30
0.0
  0
VERTEX
  5
2EFC
  8
0
 10
160.78796556753409
 20
229.33122117796279
 30
0.0
  0
VERTEX
  5
2EFD
  8
0
 10
160.89316959276499
 20
230.41115838732571
 30
0.0
  0
VERTEX
  5
2EFE
  8
0
 10
160.92907797847849
 20
231.5
 30
0.0
  0
SEQEND
  5
2EFF
  8
0
  0
POLYLINE
  5
2AD9
  8
0
 66
     1
 10
0.0
 20
0.0
 30
0.0
  0
VERTEX
  5
2F00
  8
0
 10
160.92907797847849
 20
223.27275866404781
 30
0.0
  0
VERTEX
  5
2F01
  8
0
 10
160.9244569594216
 20
223.46778239173841
 30
0.0
  0
VERTEX
  5
2F02
  8
0
 10
160.84529001860241
 20
224.10619077502841
 30
0.0
  0
VERTEX
  5
2F03
  8
0
 10
160.67218211391781
 20
224.74348667760771
 30
0.0
  0
VERTEX
  5
2F04
  8
0
 10
160.41244728200559
 20
225.38240931731909
 30
0.0
  0
VERTEX
  5
2F05
  8
0
 10
160.0805722024466
 20
226.01517244269851
 30
0.0
  0
SEQEND
  5
2F06
  8
0
  0
POLYLINE
  5
2ADA
  8
0
 66
     1
 10
0.0
 20
0.0
 30
0.0
  0
VERTEX
  5
2F07
  8
0
 10
150.92907797847849
 20
239.72724133595219
 30
0.0
  0
VERTEX
  5
2F08
  8
0
 10
150.9336989975354
 20
239.53221760826159
 30
0.0
  0
VERTEX
  5
2F09
  8
0
 10
151.01286593835471
 20
238.89380922497159
 30
0.0
  0
VERTEX
  5
2F0A
  8
0
 10
151.18597384303911
 20
238.25651332239229
 30
0.0
  0
VERTEX
  5
2F0B
  8
0
 10
151.44570867495159
 20
237.61759068268091
 30
0.0
  0
VERTEX
  5
2F0C
  8
0
 10
151.77758375451029
 20
236.98482755730129
 30
0.0
  0
SEQEND
  5
2F0D
  8
0
  0
POLYLINE
  5
2ADB
  8
0
 66
     1
 10
0.0
 20
0.0
 30
0.0
  0
VERTEX
  5
2F0E
  8
0
 10
151.77758375451029
 20
236.98482755730129
 30
0.0
  0
VERTEX
  5
2F0F
  8
0
 10
151.5060093938414
 20
235.970435709246
 30
0.0
  0
VERTEX
  5
2F10
  8
0
 10
151.2786405912031
 20
234.94533394147669
 30
0.0
  0
VERTEX
  5
2F11
  8
0
 10
151.10152392399971
 20
233.90023038844399
 30
0.0
  0
VERTEX
  5
2F12
  8
0
 10
150.98392839920501
 20
232.8468839225209
 30
0.0
  0
VERTEX
  5
2F13
  8
0
 10
150.9428869676002
 20
232.17454548325509
 30
0.0
  0
VERTEX
  5
2F14
  8
0
 10
150.92907797847849
 20
231.5
 30
0.0
  0
SEQEND
  5
2F15
  8
0
  0
POLYLINE
  5
2ADC
  8
0
 66
     1
 10
0.0
 20
0.0
 30
0.0
  0
VERTEX
  5
2F16
  8
0
 10
160.92907797847849
 20
231.5
 30
0.0
  0
VERTEX
  5
2F17
  8
0
 10
160.9153140775006
 20
232.17344196126061
 30
0.0
  0
VERTEX
  5
2F18
  8
0
 10
160.87422755775191
 20
232.8468839225209
 30
0.0
  0
VERTEX
  5
2F19
  8
0
 10
160.7581209637527
 20
233.8897026551858
 30
0.0
  0
VERTEX
  5
2F1A
  8
0
 10
160.58361247129099
 20
234.92446370304631
 30
0.0
  0
VERTEX
  5
2F1B
  8
0
 10
160.35468301277541
 20
235.96010665041831
 30
0.0
  0
VERTEX
  5
2F1C
  8
0
 10
160.0805722024466
 20
236.98482755730129
 30
0.0
  0
SEQEND
  5
2F1D
  8
0
  0
POLYLINE
  5
2ADD
  8
0
 66
     1
 10
0.0
 20
0.0
 30
0.0
  0
VERTEX
  5
2F1E
  8
0
 10
160.0805722024466
 20
236.98482755730129
 30
0.0
  0
VERTEX
  5
2F1F
  8
0
 10
160.42795964819331
 20
237.6509077580229
 30
0.0
  0
VERTEX
  5
2F20
  8
0
 10
160.69618814484909
 20
238.32841356888591
 30
0.0
  0
VERTEX
  5
2F21
  8
0
 10
160.86916036051409
 20
239.02321769005971
 30
0.0
  0
VERTEX
  5
2F22
  8
0
 10
160.92907797847849
 20
239.72724133595219
 30
0.0
  0
SEQEND
  5
2F23
  8
0
  0
POLYLINE
  5
2ADE
  8
0
 66
     1
 10
0.0
 20
0.0
 30
0.0
  0
VERTEX
  5
2F24
  8
0
 10
150.92907797847849
 20
231.5
 30
0.0
  0
VERTEX
  5
2F25
  8
0
 10
150.96373666973349
 20
230.43033400352689
 30
0.0
  0
VERTEX
  5
2F26
  8
0
 10
151.06643094051421
 20
229.3606680070539
 30
0.0
  0
VERTEX
  5
2F27
  8
0
 10
151.23421777028571
 20
228.2873428892531
 30
0.0
  0
VERTEX
  5
2F28
  8
0
 10
151.45970178978251
 20
227.22133601410769
 30
0.0
  0
VERTEX
  5
2F29
  8
0
 10
151.77758375451029
 20
226.01517244269851
 30
0.0
  0
SEQEND
  5
2F2A
  8
0
  0
POLYLINE
  5
2ADF
  8
0
 66
     1
 10
0.0
 20
0.0
 30
0.0
  0
VERTEX
  5
2F2B
  8
0
 10
151.77758375451029
 20
226.01517244269851
 30
0.0
  0
VERTEX
  5
2F2C
  8
0
 10
151.4301963087637
 20
225.3490922419771
 30
0.0
  0
VERTEX
  5
2F2D
  8
0
 10
151.16196781210789
 20
224.67158643111381
 30
0.0
  0
VERTEX
  5
2F2E
  8
0
 10
150.98899559644289
 20
223.97678230994009
 30
0.0
  0
VERTEX
  5
2F2F
  8
0
 10
150.92907797847849
 20
223.27275866404781
 30
0.0
  0
SEQEND
  5
2F30
  8
0
  0
LINE
  5
2AE0
  8
3
 10
167.99999999999989
 20
236.4265
 30
0.0
 11
160.9290779784784
 21
236.4265
 31
0.0
  0
LINE
  5
2AE1
  8
3
 10
150.9290779784784
 20
236.4265
 30
0.0
 11
149.4791456736788
 21
236.4265
 31
0.0
  0
LINE
  5
2AE2
  8
3
 10
148.7042984061527
 20
236.4265
 30
0.0
 11
148.4205272329755
 21
236.4265
 31
0.0
  0
LINE
  5
2AE3
  8
3
 10
147.8070987983904
 20
236.4265
 30
0.0
 11
147.49999999999969
 21
236.4265
 31
0.0
  0
LINE
  5
2AE4
  8
3
 10
167.99999999999989
 20
226.5735
 30
0.0
 11
160.9290779784784
 21
226.5735
 31
0.0
  0
LINE
  5
2AE5
  8
3
 10
150.9290779784784
 20
226.5735
 30
0.0
 11
149.47914512418311
 21
226.5735
 31
0.0
  0
LINE
  5
2AE6
  8
3
 10
148.5603729501093
 20
226.5734999999998
 30
0.0
 11
147.49999999999969
 21
226.5734999999998
 31
0.0
  0
LINE
  5
2AE7
  8
0
 10
53.500000000000121
 20
70.5
 30
0.0
 11
73.500000000000057
 21
70.499999999999773
 31
0.0
  0
LINE
  5
2AE8
  8
0
 10
60.073017763837022
 20
68.874191327154222
 30
0.0
 11
58.629882723802893
 21
70.094796062454407
 31
0.0
  0
LINE
  5
2AE9
  8
0
 10
59.574661209910573
 20
69.295701686694883
 30
0.0
 11
60.590130397568828
 21
69.295701733888336
 31
0.0
  0
LINE
  5
2AEA
  8
0
 10
59.160307227085923
 20
67.486938166653076
 30
0.0
 11
61.956963584446157
 21
69.766557116669446
 31
0.0
  0
LINE
  5
2AEB
  8
0
 10
61.61314580892121
 20
70.129585135697425
 30
0.0
 11
58.816489458309427
 21
67.84996619207277
 31
0.0
  0
LINE
  5
2AEC
  8
0
 10
53.500000000000121
 20
72.0
 30
0.0
 11
53.500000000000121
 21
70.5
 31
0.0
  0
LINE
  5
2AED
  8
0
 10
53.250000015571231
 20
68.520854074886302
 30
0.0
 11
53.249999986762752
 21
69.295701392759611
 31
0.0
  0
LINE
  5
2AEE
  8
0
 10
53.249999963996288
 20
69.295701392759611
 30
0.0
 11
57.452262835331787
 21
69.295701588057455
 31
0.0
  0
LINE
  5
2AEF
  8
0
 10
56.1469573164959
 20
67.454255954395876
 30
0.0
 11
56.575217509787301
 21
67.196199347798938
 31
0.0
  0
LINE
  5
2AF0
  8
0
 10
56.575217509787301
 20
67.196199347798938
 30
0.0
 11
58.66173609402199
 21
70.139732859767264
 31
0.0
  0
LINE
  5
2AF1
  8
0
 10
58.66173609402199
 20
70.139732859767264
 30
0.0
 11
58.233475895933218
 21
70.397789458402713
 31
0.0
  0
LINE
  5
2AF2
  8
0
 10
58.233475895933218
 20
70.397789458402713
 30
0.0
 11
56.1469573164959
 21
67.454255954395876
 31
0.0
  0
LINE
  5
2AF3
  8
0
 10
58.816489458309427
 20
67.84996619207277
 30
0.0
 11
59.160307227085923
 21
67.486938166653076
 31
0.0
  0
LINE
  5
2AF4
  8
0
 10
53.249999986762752
 20
68.520854074886302
 30
0.0
 11
55.339528029035819
 21
68.520854191418039
 31
0.0
  0
LINE
  5
2AF5
  8
0
 10
56.023819052245869
 20
68.520854229580436
 30
0.0
 11
56.903013674354717
 21
68.52085427861266
 31
0.0
  0
LINE
  5
2AF6
  8
0
 10
57.51419686596676
 20
68.52085431269802
 30
0.0
 11
59.639540986210022
 21
68.520854431227235
 31
0.0
  0
LINE
  5
2AF7
  8
0
 10
58.063446022694279
 20
69.295701616462111
 30
0.0
 11
58.895692808557662
 21
69.295701655140419
 31
0.0
  0
LINE
  5
2AF8
  8
0
 10
56.573472182718199
 20
68.05595718584209
 30
0.0
 11
55.107708222826432
 21
69.295701479095669
 31
0.0
  0
LINE
  5
2AF9
  8
0
 10
54.459769099728639
 20
69.295701448982982
 30
0.0
 11
56.302077120035847
 21
67.673089538412114
 31
0.0
  0
LINE
  5
2AFA
  8
0
 10
58.387090551229683
 20
69.743652850807393
 30
0.0
 11
59.710126064803262
 21
68.578389952980615
 31
0.0
  0
LINE
  5
2AFB
  8
0
 10
58.129434781091277
 20
70.251014581653635
 30
0.0
 11
55.480073699311333
 21
69.295610853769404
 31
0.0
  0
LINE
  5
2AFC
  8
0
 10
65.431329563921508
 20
67.36890005927512
 30
0.0
 11
68.035431542423325
 21
69.866219066530675
 31
0.0
  0
LINE
  5
2AFD
  8
0
 10
67.663510008296271
 20
70.200396231847208
 30
0.0
 11
65.059408036006744
 21
67.703077231505631
 31
0.0
  0
LINE
  5
2AFE
  8
0
 10
66.632540809267539
 20
68.520854821222429
 30
0.0
 11
68.809433719872459
 21
68.520854942626329
 31
0.0
  0
LINE
  5
2AFF
  8
0
 10
61.956963584446157
 20
69.766557116669446
 30
0.0
 11
61.61314580892121
 21
70.129585135697425
 31
0.0
  0
LINE
  5
2B00
  8
0
 10
61.987495307827203
 20
67.739858457144692
 30
0.0
 11
62.34966051770062
 21
67.395131947976097
 31
0.0
  0
LINE
  5
2B01
  8
0
 10
62.34966051770062
 20
67.395131947976097
 30
0.0
 11
65.024448737989346
 21
69.816589631901252
 31
0.0
  0
LINE
  5
2B02
  8
0
 10
65.024448737989346
 20
69.816589631901252
 30
0.0
 11
64.66228352170765
 21
70.16131613433754
 31
0.0
  0
LINE
  5
2B03
  8
0
 10
64.66228352170765
 20
70.16131613433754
 30
0.0
 11
61.987495307827203
 21
67.739858457144692
 31
0.0
  0
LINE
  5
2B04
  8
0
 10
65.059408036006744
 20
67.703077231505631
 30
0.0
 11
65.431329563921508
 21
67.36890005927512
 31
0.0
  0
LINE
  5
2B05
  8
0
 10
63.593155230521461
 20
68.520854651717855
 30
0.0
 11
65.829841454485177
 21
68.520854776456403
 31
0.0
  0
LINE
  5
2B06
  8
0
 10
64.449066255263006
 20
69.295701913230459
 30
0.0
 11
64.950082635886474
 21
69.295701936514888
 31
0.0
  0
LINE
  5
2B07
  8
0
 10
61.379314150066193
 20
69.295701770565302
 30
0.0
 11
61.826571434669631
 21
69.295701791351348
 31
0.0
  0
LINE
  5
2B08
  8
0
 10
63.121436209751437
 20
68.766403246073651
 30
0.0
 11
61.947786750584548
 21
69.759076868223019
 31
0.0
  0
LINE
  5
2B09
  8
0
 10
61.611596737982381
 20
69.485040652969928
 30
0.0
 11
62.77925276299424
 21
68.456628165617303
 31
0.0
  0
LINE
  5
2B0A
  8
0
 10
66.20479127388603
 20
68.801493250949534
 30
0.0
 11
65.014876559113191
 21
69.807924038896317
 31
0.0
  0
LINE
  5
2B0B
  8
0
 10
64.696132504391699
 20
69.519368393759123
 30
0.0
 11
65.872747575853282
 21
68.483065230516786
 31
0.0
  0
LINE
  5
2B0C
  8
0
 10
62.495640405333688
 20
69.295701822446063
 30
0.0
 11
63.706109548258148
 21
69.295701878701934
 31
0.0
  0
LINE
  5
2B0D
  8
0
 10
65.620482614772072
 20
69.295701967671434
 30
0.0
 11
66.720131935950334
 21
69.295702018777092
 31
0.0
  0
LINE
  5
2B0E
  8
0
 10
60.428724748077911
 20
68.520854475239503
 30
0.0
 11
62.70633028623206
 21
68.520854602259988
 31
0.0
  0
LINE
  5
2B0F
  8
0
 10
73.500000000000114
 20
72.0
 30
0.0
 11
73.500000000000114
 21
70.5
 31
0.0
  0
LINE
  5
2B10
  8
0
 10
70.621053263387466
 20
70.315205046183564
 30
0.0
 11
70.156455770485991
 21
70.5
 31
0.0
  0
LINE
  5
2B11
  8
0
 10
73.750000033669721
 20
68.520855218158644
 30
0.0
 11
73.749999963996288
 21
69.295702345486461
 31
0.0
  0
LINE
  5
2B12
  8
0
 10
69.747855271236631
 20
68.52085499496161
 30
0.0
 11
73.750000053915073
 21
68.520855218158644
 31
0.0
  0
LINE
  5
2B13
  8
0
 10
71.175597391933934
 20
69.295702225842433
 30
0.0
 11
73.749999963996288
 21
69.295702345486461
 31
0.0
  0
LINE
  5
2B14
  8
0
 10
70.280736647214781
 20
69.615882391813557
 30
0.0
 11
71.263872308062446
 21
68.52085507950892
 31
0.0
  0
LINE
  5
2B15
  8
0
 10
71.899811388493845
 20
68.520855114974893
 30
0.0
 11
70.48466579352413
 21
70.034940013813866
 31
0.0
  0
LINE
  5
2B16
  8
0
 10
68.035431542423325
 20
69.866219066530675
 30
0.0
 11
67.663510008296271
 21
70.200396231847208
 31
0.0
  0
LINE
  5
2B17
  8
0
 10
68.577666049377285
 20
67.255716983974693
 30
0.0
 11
69.042263538843599
 21
67.070922021521255
 31
0.0
  0
LINE
  5
2B18
  8
0
 10
67.440519766505531
 20
69.295702052256715
 30
0.0
 11
67.929674932718626
 21
69.295702074990004
 31
0.0
  0
LINE
  5
2B19
  8
0
 10
67.674695412015524
 20
69.520275166288457
 30
0.0
 11
69.078154384361369
 21
68.284179345489747
 31
0.0
  0
LINE
  5
2B1A
  8
0
 10
69.286474484096289
 20
68.712260015404809
 30
0.0
 11
67.982336339686299
 21
69.815301068662833
 31
0.0
  0
LINE
  5
2B1B
  8
0
 10
69.042263538843599
 20
67.070922021521255
 30
0.0
 11
70.621053263387466
 21
70.315205046183564
 31
0.0
  0
LINE
  5
2B1C
  8
0
 10
70.156455770485991
 20
70.5
 30
0.0
 11
68.577666049377285
 21
67.255716983974693
 31
0.0
  0
LINE
  5
2B1D
  8
0
 10
69.042263538843599
 20
67.070922021521255
 30
0.0
 11
71.452839741746402
 21
68.520855090047462
 31
0.0
  0
LINE
  5
2B1E
  8
0
 10
68.596664179088748
 20
69.295702105987857
 30
0.0
 11
69.570399296565256
 21
69.295702151241585
 31
0.0
  0
LINE
  5
2B1F
  8
0
 10
148.7042986531269
 20
145.24999996399629
 30
0.0
 11
148.7042984578288
 21
149.45226283533179
 31
0.0
  0
LINE
  5
2B20
  8
0
 10
150.80380069808729
 20
148.57521750978731
 30
0.0
 11
147.86026718611919
 21
150.66173609402199
 31
0.0
  0
LINE
  5
2B21
  8
0
 10
147.60221058748351
 20
150.2334758959332
 30
0.0
 11
150.5457440914906
 21
148.1469573164959
 31
0.0
  0
LINE
  5
2B22
  8
0
 10
147.74898546423259
 20
150.12943478109119
 30
0.0
 11
148.70438919211711
 21
147.4800736993113
 31
0.0
  0
LINE
  5
2B23
  8
0
 10
146.0
 20
145.5
 30
0.0
 11
147.5
 21
145.5
 31
0.0
  0
LINE
  5
2B24
  8
0
 10
149.94404286004439
 20
148.57347218271821
 30
0.0
 11
148.70429856679081
 21
147.1077082228264
 31
0.0
  0
LINE
  5
2B25
  8
0
 10
148.7042985969035
 20
146.45976909972859
 30
0.0
 11
150.3269105074742
 21
148.30207712003579
 31
0.0
  0
LINE
  5
2B26
  8
0
 10
149.47914597100001
 20
145.2500000155712
 30
0.0
 11
148.7042986531269
 21
145.2499999867627
 31
0.0
  0
LINE
  5
2B27
  8
0
 10
149.47914597100001
 20
145.2499999867627
 30
0.0
 11
149.47914585446841
 21
147.33952802903579
 31
0.0
  0
LINE
  5
2B28
  8
0
 10
150.5457440914906
 20
148.1469573164959
 30
0.0
 11
150.80380069808729
 21
148.57521750978731
 31
0.0
  0
LINE
  5
2B29
  8
0
 10
149.47914522466411
 20
158.63254080926751
 30
0.0
 11
149.47914510326021
 21
160.8094337198724
 31
0.0
  0
LINE
  5
2B2A
  8
0
 10
148.70429799362981
 20
159.4405197665055
 30
0.0
 11
148.7042979708965
 21
159.9296749327186
 31
0.0
  0
LINE
  5
2B2B
  8
0
 10
147.5
 20
165.5
 30
0.0
 11
147.5
 21
145.5
 31
0.0
  0
LINE
  5
2B2C
  8
0
 10
150.63109998661139
 20
157.43132956392151
 30
0.0
 11
148.13378097935581
 21
160.03543154242331
 31
0.0
  0
LINE
  5
2B2D
  8
0
 10
147.7996038140393
 20
159.6635100082963
 30
0.0
 11
150.29692281438079
 21
157.05940803600669
 31
0.0
  0
LINE
  5
2B2E
  8
0
 10
150.51306187923339
 20
151.16030722708589
 30
0.0
 11
148.23344292921729
 21
153.9569635844461
 31
0.0
  0
LINE
  5
2B2F
  8
0
 10
150.60486809791041
 20
154.34966051770061
 30
0.0
 11
148.1834104139852
 21
157.0244487379893
 31
0.0
  0
LINE
  5
2B30
  8
0
 10
149.47914557064701
 20
152.42872474807791
 30
0.0
 11
149.47914544362629
 21
154.706330286232
 31
0.0
  0
LINE
  5
2B31
  8
0
 10
148.70429827532121
 20
153.37931415006591
 30
0.0
 11
148.7042982545351
 21
153.8265714346696
 31
0.0
  0
LINE
  5
2B32
  8
0
 10
148.25303143188171
 20
150.3833258450222
 30
0.0
 11
149.42161009290589
 21
151.71012606480329
 31
0.0
  0
LINE
  5
2B33
  8
0
 10
149.23359679981269
 20
155.12143620975121
 30
0.0
 11
148.24092317766349
 21
153.9477867505845
 31
0.0
  0
LINE
  5
2B34
  8
0
 10
148.5149593929163
 20
153.61159673798241
 30
0.0
 11
149.54337188026909
 21
154.77925276299399
 31
0.0
  0
LINE
  5
2B35
  8
0
 10
148.7042983591914
 20
151.57466120991049
 30
0.0
 11
148.7042983119982
 21
152.5901303975688
 31
0.0
  0
LINE
  5
2B36
  8
0
 10
148.70429813265599
 20
156.44906625526301
 30
0.0
 11
148.70429810937159
 21
156.9500826358865
 31
0.0
  0
LINE
  5
2B37
  8
0
 10
148.70429822344039
 20
154.49564040533369
 30
0.0
 11
148.7042981671845
 21
155.7061095482581
 31
0.0
  0
LINE
  5
2B38
  8
0
 10
150.15003385381371
 20
150.81648945830941
 30
0.0
 11
150.51306187923339
 21
151.16030722708589
 31
0.0
  0
LINE
  5
2B39
  8
0
 10
150.26014158874159
 20
153.9874953078272
 30
0.0
 11
150.60486809791041
 21
154.34966051770061
 31
0.0
  0
LINE
  5
2B3A
  8
0
 10
150.29692281438079
 20
157.05940803600669
 30
0.0
 11
150.63109998661139
 21
157.43132956392151
 31
0.0
  0
LINE
  5
2B3B
  8
0
 10
149.4791458163059
 20
148.0238190522459
 30
0.0
 11
149.47914576727371
 21
148.9030136743545
 31
0.0
  0
LINE
  5
2B3C
  8
0
 10
149.4791457331884
 20
149.5141968659668
 30
0.0
 11
149.47914561465919
 21
151.63954098621019
 31
0.0
  0
LINE
  5
2B3D
  8
0
 10
148.7042984294244
 20
150.06344602269431
 30
0.0
 11
148.70429839074609
 21
150.89569280855761
 31
0.0
  0
LINE
  5
2B3E
  8
0
 10
147.86026718611919
 20
150.66173609402199
 30
0.0
 11
147.60221058748351
 21
150.2334758959332
 31
0.0
  0
LINE
  5
2B3F
  8
0
 10
147.87041491018911
 20
153.61314580892119
 30
0.0
 11
150.15003385381371
 21
150.81648945830941
 31
0.0
  0
LINE
  5
2B40
  8
0
 10
147.83868391154891
 20
156.66228352170759
 30
0.0
 11
150.26014158874159
 21
153.9874953078272
 31
0.0
  0
LINE
  5
2B41
  8
0
 10
148.23344292921729
 20
153.9569635844461
 30
0.0
 11
147.87041491018911
 21
153.61314580892119
 31
0.0
  0
LINE
  5
2B42
  8
0
 10
149.12580871873229
 20
152.07301776383699
 30
0.0
 11
147.9052039834319
 21
150.62988272380289
 31
0.0
  0
LINE
  5
2B43
  8
0
 10
148.1834104139852
 20
157.0244487379893
 30
0.0
 11
147.83868391154891
 21
156.66228352170759
 31
0.0
  0
LINE
  5
2B44
  8
0
 10
148.704298078215
 20
157.62048261477179
 30
0.0
 11
148.70429802710939
 21
158.72013193595029
 31
0.0
  0
LINE
  5
2B45
  8
0
 10
149.4791453941686
 20
155.5931552305214
 30
0.0
 11
149.47914526943009
 21
157.82984145448509
 31
0.0
  0
LINE
  5
2B46
  8
0
 10
149.198506794937
 20
158.204791273886
 30
0.0
 11
148.19207600699019
 21
157.01487655911339
 31
0.0
  0
LINE
  5
2B47
  8
0
 10
148.48063165212741
 20
156.6961325043917
 30
0.0
 11
149.5169348153695
 21
157.8727475758532
 31
0.0
  0
LINE
  5
2B48
  8
0
 10
146.0
 20
165.5
 30
0.0
 11
147.5
 21
165.5
 31
0.0
  0
LINE
  5
2B49
  8
0
 10
150.929078024365
 20
161.0422635388436
 30
0.0
 11
149.47914495583899
 21
163.4528397417464
 31
0.0
  0
LINE
  5
2B4A
  8
0
 10
148.3841176540727
 20
162.28073664721481
 30
0.0
 11
149.47914496637759
 21
163.26387230806239
 31
0.0
  0
LINE
  5
2B4B
  8
0
 10
148.479724879598
 20
159.6746954120155
 30
0.0
 11
149.7158207003967
 21
161.07815438436131
 31
0.0
  0
LINE
  5
2B4C
  8
0
 10
149.2877400304817
 20
161.28647448409629
 30
0.0
 11
148.1846989772236
 21
159.9823363396863
 31
0.0
  0
LINE
  5
2B4D
  8
0
 10
148.70429793989859
 20
160.59666417908869
 30
0.0
 11
148.7042978946447
 21
161.5703992965652
 31
0.0
  0
LINE
  5
2B4E
  8
0
 10
149.47914493091159
 20
163.89981138849379
 30
0.0
 11
147.9650600320725
 21
162.4846657935243
 31
0.0
  0
LINE
  5
2B4F
  8
0
 10
150.744283061912
 20
160.57766604937731
 30
0.0
 11
150.929078024365
 21
161.0422635388436
 31
0.0
  0
LINE
  5
2B50
  8
0
 10
149.47914482772779
 20
165.75000003366969
 30
0.0
 11
148.70429770039999
 21
165.74999996399629
 31
0.0
  0
LINE
  5
2B51
  8
0
 10
149.4791450509249
 20
161.7478552712366
 30
0.0
 11
149.47914482772779
 21
165.75000005391499
 31
0.0
  0
LINE
  5
2B52
  8
0
 10
148.7042978200441
 20
163.17559739193391
 30
0.0
 11
148.70429770039999
 21
165.74999996399629
 31
0.0
  0
LINE
  5
2B53
  8
0
 10
147.68479499970289
 20
162.62105326338741
 30
0.0
 11
147.50000004588651
 21
162.15645577048599
 31
0.0
  0
LINE
  5
2B54
  8
0
 10
150.929078024365
 20
161.0422635388436
 30
0.0
 11
147.68479499970289
 21
162.62105326338741
 31
0.0
  0
LINE
  5
2B55
  8
0
 10
147.50000004588651
 20
162.15645577048599
 30
0.0
 11
150.744283061912
 21
160.57766604937731
 31
0.0
  0
LINE
  5
2B56
  8
0
 10
148.13378097935581
 20
160.03543154242331
 30
0.0
 11
147.7996038140393
 21
159.6635100082963
 31
0.0
  0
LINE
  5
2B57
  8
0
 10
147.4999999999998
 20
221.5
 30
0.0
 11
147.4999999999998
 21
241.5
 31
0.0
  0
LINE
  5
2B58
  8
0
 10
150.63109999137359
 20
229.56867043607821
 30
0.0
 11
148.133780984118
 21
226.96456845757669
 31
0.0
  0
LINE
  5
2B59
  8
0
 10
147.7996038188015
 20
227.3364899917037
 30
0.0
 11
150.29692281914311
 21
229.940591963993
 31
0.0
  0
LINE
  5
2B5A
  8
0
 10
149.47914522942631
 20
228.3674591907324
 30
0.0
 11
149.47914510802241
 21
226.19056628012731
 31
0.0
  0
LINE
  5
2B5B
  8
0
 10
145.9999999999998
 20
221.5
 30
0.0
 11
147.4999999999998
 21
221.5
 31
0.0
  0
LINE
  5
2B5C
  8
0
 10
148.133780984118
 20
226.96456845757669
 30
0.0
 11
147.7996038188015
 21
227.3364899917037
 31
0.0
  0
LINE
  5
2B5D
  8
0
 10
150.7442830666742
 20
226.42233395062269
 30
0.0
 11
150.9290780291272
 21
225.9577364611564
 31
0.0
  0
LINE
  5
2B5E
  8
0
 10
150.9290780291272
 20
225.9577364611564
 30
0.0
 11
147.6847950044652
 21
224.37894673661251
 31
0.0
  0
LINE
  5
2B5F
  8
0
 10
147.6847950044652
 20
224.37894673661251
 30
0.0
 11
147.50000005064871
 21
224.84354422951401
 31
0.0
  0
LINE
  5
2B60
  8
0
 10
147.50000005064871
 20
224.84354422951401
 30
0.0
 11
150.7442830666742
 21
226.42233395062269
 31
0.0
  0
LINE
  5
2B61
  8
0
 10
148.70429799839201
 20
227.5594802334945
 30
0.0
 11
148.7042979756587
 21
227.0703250672814
 31
0.0
  0
LINE
  5
2B62
  8
0
 10
148.3841176588349
 20
224.71926335278519
 30
0.0
 11
149.47914497113979
 21
223.7361276919373
 31
0.0
  0
LINE
  5
2B63
  8
0
 10
150.9290780291272
 20
225.9577364611564
 30
0.0
 11
149.4791449606013
 21
223.5471602582536
 31
0.0
  0
LINE
  5
2B64
  8
0
 10
148.47972488436011
 20
227.32530458798439
 30
0.0
 11
149.71582070515899
 21
225.9218456156386
 31
0.0
  0
LINE
  5
2B65
  8
0
 10
149.2877400352439
 20
225.71352551590371
 30
0.0
 11
148.18469898198589
 21
227.0176636603137
 31
0.0
  0
LINE
  5
2B66
  8
0
 10
148.70429794466091
 20
226.40333582091131
 30
0.0
 11
148.7042978994069
 21
225.42960070343469
 31
0.0
  0
LINE
  5
2B67
  8
0
 10
149.47914483248999
 20
221.24999996633031
 30
0.0
 11
148.70429770516219
 21
221.25000003600371
 31
0.0
  0
LINE
  5
2B68
  8
0
 10
149.4791450556871
 20
225.2521447287634
 30
0.0
 11
149.47914483248999
 21
221.2499999460847
 31
0.0
  0
LINE
  5
2B69
  8
0
 10
148.70429787363571
 20
224.8750750465515
 30
0.0
 11
148.70429785303469
 21
224.43179968564391
 31
0.0
  0
LINE
  5
2B6A
  8
0
 10
148.7042978248063
 20
223.82440260806581
 30
0.0
 11
148.70429770516219
 21
221.25000003600371
 31
0.0
  0
LINE
  5
2B6B
  8
0
 10
149.47914493567379
 20
223.10018861150621
 30
0.0
 11
147.9650600368347
 21
224.5153342064757
 31
0.0
  0
LINE
  5
2B6C
  8
0
 10
150.5457440962528
 20
238.8530426835041
 30
0.0
 11
150.80380070284949
 21
238.42478249021249
 31
0.0
  0
LINE
  5
2B6D
  8
0
 10
147.6022105922458
 20
236.7665241040668
 30
0.0
 11
150.5457440962528
 21
238.8530426835041
 31
0.0
  0
LINE
  5
2B6E
  8
0
 10
149.94404286480659
 20
238.42652781728151
 30
0.0
 11
148.70429857155301
 21
239.89229177717331
 31
0.0
  0
LINE
  5
2B6F
  8
0
 10
147.7489854689949
 20
236.87056521890869
 30
0.0
 11
148.7043891968793
 21
239.5199263006885
 31
0.0
  0
LINE
  5
2B70
  8
0
 10
148.7042986578891
 20
241.75000003600351
 30
0.0
 11
148.704298462591
 21
237.54773716466821
 31
0.0
  0
LINE
  5
2B71
  8
0
 10
150.80380070284949
 20
238.42478249021249
 30
0.0
 11
147.8602671908815
 21
236.33826390597781
 31
0.0
  0
LINE
  5
2B72
  8
0
 10
147.8602671908815
 20
236.33826390597781
 30
0.0
 11
147.6022105922458
 21
236.7665241040668
 31
0.0
  0
LINE
  5
2B73
  8
0
 10
150.15003385857591
 20
236.18351054169051
 30
0.0
 11
150.51306188399559
 21
235.83969277291411
 31
0.0
  0
LINE
  5
2B74
  8
0
 10
150.51306188399559
 20
235.83969277291411
 30
0.0
 11
148.23344293397949
 21
233.04303641555379
 31
0.0
  0
LINE
  5
2B75
  8
0
 10
148.23344293397949
 20
233.04303641555379
 30
0.0
 11
147.87041491495131
 21
233.38685419107881
 31
0.0
  0
LINE
  5
2B76
  8
0
 10
147.87041491495131
 20
233.38685419107881
 30
0.0
 11
150.15003385857591
 21
236.18351054169051
 31
0.0
  0
LINE
  5
2B77
  8
0
 10
150.26014159350379
 20
233.0125046921728
 30
0.0
 11
150.60486810267261
 21
232.65033948229939
 31
0.0
  0
LINE
  5
2B78
  8
0
 10
149.47914557540921
 20
234.57127525192189
 30
0.0
 11
149.47914544838849
 21
232.29366971376771
 31
0.0
  0
LINE
  5
2B79
  8
0
 10
148.70429828008341
 20
233.62068584993381
 30
0.0
 11
148.70429825929739
 21
233.1734285653304
 31
0.0
  0
LINE
  5
2B7A
  8
0
 10
149.47914573795069
 20
237.4858031340332
 30
0.0
 11
149.4791456194215
 21
235.36045901378969
 31
0.0
  0
LINE
  5
2B7B
  8
0
 10
148.7042984341866
 20
236.93655397730569
 30
0.0
 11
148.70429839550829
 21
236.1043071914423
 31
0.0
  0
LINE
  5
2B7C
  8
0
 10
149.12580872349449
 20
234.92698223616279
 30
0.0
 11
147.9052039881941
 21
236.37011727619711
 31
0.0
  0
LINE
  5
2B7D
  8
0
 10
148.25303143664391
 20
236.6166741549776
 30
0.0
 11
149.42161009766809
 21
235.28987393519671
 31
0.0
  0
LINE
  5
2B7E
  8
0
 10
149.233596804575
 20
231.87856379024859
 30
0.0
 11
148.24092318242569
 21
233.05221324941519
 31
0.0
  0
LINE
  5
2B7F
  8
0
 10
148.5149593976785
 20
233.38840326201739
 30
0.0
 11
149.54337188503141
 21
232.2207472370057
 31
0.0
  0
LINE
  5
2B80
  8
0
 10
148.7042983639536
 20
235.4253387900894
 30
0.0
 11
148.7042983167604
 21
234.4098696024312
 31
0.0
  0
LINE
  5
2B81
  8
0
 10
148.18341041874751
 20
229.97555126201041
 30
0.0
 11
147.8386839163112
 21
230.33771647829229
 31
0.0
  0
LINE
  5
2B82
  8
0
 10
150.29692281914311
 20
229.940591963993
 30
0.0
 11
150.63109999137359
 21
229.56867043607821
 31
0.0
  0
LINE
  5
2B83
  8
0
 10
149.47914539893091
 20
231.40684476947851
 30
0.0
 11
149.47914527419229
 21
229.1701585455146
 31
0.0
  0
LINE
  5
2B84
  8
0
 10
148.70429813741831
 20
230.55093374473699
 30
0.0
 11
148.70429811413379
 21
230.0499173641135
 31
0.0
  0
LINE
  5
2B85
  8
0
 10
149.1985067996992
 20
228.795208726114
 30
0.0
 11
148.19207601175259
 21
229.98512344088681
 31
0.0
  0
LINE
  5
2B86
  8
0
 10
148.48063165688961
 20
230.3038674956083
 30
0.0
 11
149.5169348201317
 21
229.12725242414669
 31
0.0
  0
LINE
  5
2B87
  8
0
 10
148.70429808297729
 20
229.3795173852279
 30
0.0
 11
148.70429803187159
 21
228.2798680640494
 31
0.0
  0
LINE
  5
2B88
  8
0
 10
150.60486810267261
 20
232.65033948229939
 30
0.0
 11
148.18341041874751
 21
229.97555126201041
 31
0.0
  0
LINE
  5
2B89
  8
0
 10
147.8386839163112
 20
230.33771647829229
 30
0.0
 11
150.26014159350379
 21
233.0125046921728
 31
0.0
  0
LINE
  5
2B8A
  8
0
 10
148.7042982282027
 20
232.50435959466611
 30
0.0
 11
148.70429817194679
 21
231.2938904517419
 31
0.0
  0
LINE
  5
2B8B
  8
0
 10
145.9999999999998
 20
241.5
 30
0.0
 11
147.4999999999998
 21
241.5
 31
0.0
  0
LINE
  5
2B8C
  8
0
 10
149.47914597576221
 20
241.7499999844288
 30
0.0
 11
148.7042986578891
 21
241.75000001323721
 31
0.0
  0
LINE
  5
2B8D
  8
0
 10
149.47914597576221
 20
241.75000001323721
 30
0.0
 11
149.47914585923061
 21
239.6604719709639
 31
0.0
  0
LINE
  5
2B8E
  8
0
 10
149.47914582106819
 20
238.9761809477541
 30
0.0
 11
149.47914577203611
 21
238.0969863256453
 31
0.0
  0
LINE
  5
2B8F
  8
0
 10
148.7042986016657
 20
240.5402309002711
 30
0.0
 11
150.3269105122364
 21
238.69792287996421
 31
0.0
  0
ENDSEC
  0
EOF
