  0
SECTION
  2
HEADER
  9
$ACADVER
  1
AC1009
  9
$INSBASE
 10
0.0
 20
0.0
 30
0.0
  9
$EXTMIN
 10
0.0
 20
-2.960436562073669
 30
0.0
  9
$EXTMAX
 10
165.50000000000011
 20
242.4999999999998
 30
0.0
  9
$LIMMIN
 10
0.0
 20
0.0
  9
$LIMMAX
 10
750.0
 20
540.0
  9
$ORTHOMODE
 70
     1
  9
$REGENMODE
 70
     1
  9
$FILLMODE
 70
     1
  9
$QTEXTMODE
 70
     0
  9
$MIRRTEXT
 70
     0
  9
$DRAGMODE
 70
     2
  9
$LTSCALE
 40
10.0
  9
$OSMODE
 70
    37
  9
$ATTMODE
 70
     1
  9
$TEXTSIZE
 40
0.2
  9
$TRACEWID
 40
0.05
  9
$TEXTSTYLE
  7
STANDARD
  9
$CLAYER
  8
0
  9
$CELTYPE
  6
BYLAYER
  9
$CECOLOR
 62
   256
  9
$DIMSCALE
 40
2.0
  9
$DIMASZ
 40
3.0
  9
$DIMEXO
 40
2.0
  9
$DIMDLI
 40
0.38
  9
$DIMRND
 40
0.0
  9
$DIMDLE
 40
0.0
  9
$DIMEXE
 40
2.0
  9
$DIMTP
 40
0.0
  9
$DIMTM
 40
0.0
  9
$DIMTXT
 40
3.2000000000000002
  9
$DIMCEN
 40
0.0
  9
$DIMTSZ
 40
0.0
  9
$DIMTOL
 70
     0
  9
$DIMLIM
 70
     0
  9
$DIMTIH
 70
     0
  9
$DIMTOH
 70
     0
  9
$DIMSE1
 70
     0
  9
$DIMSE2
 70
     0
  9
$DIMTAD
 70
     1
  9
$DIMZIN
 70
     0
  9
$DIMBLK
  1

  9
$DIMASO
 70
     1
  9
$DIMSHO
 70
     0
  9
$DIMPOST
  1

  9
$DIMAPOST
  1

  9
$DIMALT
 70
     0
  9
$DIMALTD
 70
     2
  9
$DIMALTF
 40
25.399999999999999
  9
$DIMLFAC
 40
1.0
  9
$DIMTOFL
 70
     1
  9
$DIMTVP
 40
1.6000000000000001
  9
$DIMTIX
 70
     1
  9
$DIMSOXD
 70
     0
  9
$DIMSAH
 70
     0
  9
$DIMBLK1
  1

  9
$DIMBLK2
  1

  9
$DIMSTYLE
  2
STANDARD
  9
$DIMCLRD
 70
     0
  9
$DIMCLRE
 70
     0
  9
$DIMCLRT
 70
     0
  9
$DIMTFAC
 40
1.0
  9
$DIMGAP
 40
0.09
  9
$LUNITS
 70
     2
  9
$LUPREC
 70
     1
  9
$SKETCHINC
 40
0.1
  9
$FILLETRAD
 40
0.0
  9
$AUNITS
 70
     0
  9
$AUPREC
 70
     1
  9
$MENU
  1
E:\r13\win\SUPPORT\ACAD
  9
$ELEVATION
 40
0.0
  9
$PELEVATION
 40
0.0
  9
$THICKNESS
 40
0.0
  9
$LIMCHECK
 70
     0
  9
$BLIPMODE
 70
     0
  9
$CHAMFERA
 40
0.0
  9
$CHAMFERB
 40
0.0
  9
$SKPOLY
 70
     0
  9
$TDCREATE
 40
2451614.5541212969
  9
$TDUPDATE
 40
2459548.4495337498
  9
$TDINDWG
 40
0.3178362269
  9
$TDUSRTIMER
 40
0.3178362269
  9
$USRTIMER
 70
     1
  9
$ANGBASE
 50
0.0
  9
$ANGDIR
 70
     0
  9
$PDMODE
 70
     0
  9
$PDSIZE
 40
0.0
  9
$PLINEWID
 40
0.0
  9
$COORDS
 70
     1
  9
$SPLFRAME
 70
     0
  9
$SPLINETYPE
 70
     6
  9
$SPLINESEGS
 70
     8
  9
$ATTDIA
 70
     0
  9
$ATTREQ
 70
     1
  9
$HANDLING
 70
     1
  9
$HANDSEED
  5
5E12
  9
$SURFTAB1
 70
     6
  9
$SURFTAB2
 70
     6
  9
$SURFTYPE
 70
     6
  9
$SURFU
 70
     6
  9
$SURFV
 70
     6
  9
$UCSNAME
  2

  9
$UCSORG
 10
0.0
 20
0.0
 30
0.0
  9
$UCSXDIR
 10
1.0
 20
0.0
 30
0.0
  9
$UCSYDIR
 10
0.0
 20
1.0
 30
0.0
  9
$PUCSNAME
  2

  9
$PUCSORG
 10
0.0
 20
0.0
 30
0.0
  9
$PUCSXDIR
 10
1.0
 20
0.0
 30
0.0
  9
$PUCSYDIR
 10
0.0
 20
1.0
 30
0.0
  9
$USERI1
 70
     0
  9
$USERI2
 70
     1
  9
$USERI3
 70
     1
  9
$USERI4
 70
     0
  9
$USERI5
 70
     0
  9
$USERR1
 40
0.0
  9
$USERR2
 40
0.0
  9
$USERR3
 40
0.0
  9
$USERR4
 40
0.0
  9
$USERR5
 40
0.0
  9
$WORLDVIEW
 70
     1
  9
$SHADEDGE
 70
     3
  9
$SHADEDIF
 70
    70
  9
$TILEMODE
 70
     1
  9
$MAXACTVP
 70
    16
  9
$PLIMCHECK
 70
     0
  9
$PEXTMIN
 10
1.0000000000000000E+020
 20
1.0000000000000000E+020
 30
1.0000000000000000E+020
  9
$PEXTMAX
 10
-1.0000000000000000E+020
 20
-1.0000000000000000E+020
 30
-1.0000000000000000E+020
  9
$PLIMMIN
 10
0.0
 20
0.0
  9
$PLIMMAX
 10
12.0
 20
9.0
  9
$UNITMODE
 70
     0
  9
$VISRETAIN
 70
     0
  9
$PLINEGEN
 70
     0
  9
$PSLTSCALE
 70
     0
  0
ENDSEC
  0
SECTION
  2
TABLES
  0
TABLE
  2
VPORT
 70
     1
  0
VPORT
  2
*ACTIVE
 70
     0
 10
0.0
 20
0.0
 11
1.0
 21
1.0
 12
390.29363784665583
 22
150.0
 13
0.0
 23
0.0
 14
20.0
 24
20.0
 15
20.0
 25
20.0
 16
0.0
 26
0.0
 36
1.0
 17
0.0
 27
0.0
 37
0.0
 40
300.0
 41
2.6019575856443709
 42
50.0
 43
0.0
 44
0.0
 50
0.0
 51
0.0
 71
     0
 72
   500
 73
     1
 74
     0
 75
     0
 76
     0
 77
     0
 78
     2
  0
ENDTAB
  0
TABLE
  2
LTYPE
 70
     3
  0
LTYPE
  2
CONTINUOUS
 70
     0
  3
Solid Line
 72
    65
 73
     0
 40
0.0
  0
LTYPE
  2
CENTER
 70
     0
  3
____ _ ____ _ ____ _ ____ _ ____ _ ____ _ ____
 72
    65
 73
     4
 40
2.0
 49
1.25
 49
-0.25
 49
0.25
 49
-0.25
  0
LTYPE
  2
PHANTOM2
 70
     0
  3
___ _ _ ___ _ _ ___ _ _ ___ _ _
 72
    65
 73
     6
 40
1.25
 49
0.625
 49
-0.125
 49
0.125
 49
-0.125
 49
0.125
 49
-0.125
  0
ENDTAB
  0
TABLE
  2
LAYER
 70
     4
  0
LAYER
  2
0
 70
     0
 62
     7
  6
CONTINUOUS
  0
LAYER
  2
1
 70
     0
 62
     1
  6
CENTER
  0
LAYER
  2
3
 70
     0
 62
     3
  6
CONTINUOUS
  0
LAYER
  2
DEFPOINTS
 70
     0
 62
     7
  6
CONTINUOUS
  0
ENDTAB
  0
TABLE
  2
STYLE
 70
     5
  0
STYLE
  2
STANDARD
 70
     0
 40
0.0
 41
1.0
 50
0.0
 71
     0
 42
0.2
  3
TXT
  4
BIGFONT
  0
STYLE
  2
SIM300
 70
     0
 40
0.0
 41
3.0
 50
0.0
 71
     0
 42
1.0
  3
SIMPLEX
  4

  0
STYLE
  2
SIM110
 70
     0
 40
0.0
 41
1.1000000000000001
 50
0.0
 71
     0
 42
1.3
  3
SIMPLEX
  4

  0
STYLE
  2
STANDARD1
 70
     0
 40
0.0
 41
1.0
 50
0.0
 71
     0
 42
3.0
  3
txt
  4

  0
STYLE
  2
SIMPLEX
 70
     0
 40
0.0
 41
0.8
 50
0.0
 71
     0
 42
2.8165380840108591
  3
SIMPLEX
  4

  0
ENDTAB
  0
TABLE
  2
VIEW
 70
     1
  0
VIEW
  2
ALL
 70
     0
 40
540.0
 10
441.98319327731087
 20
270.0
 41
0.0
 11
0.0
 21
0.0
 31
1.0
 12
0.0
 22
0.0
 32
0.0
 42
0.0
 43
0.0
 44
0.0
 50
0.0
 71
     0
  0
ENDTAB
  0
TABLE
  2
UCS
 70
     0
  0
ENDTAB
  0
TABLE
  2
APPID
 70
     8
  0
APPID
  2
ACAD
 70
     0
  0
APPID
  2
GRADIENTCOLOR1ACI
 70
     0
  0
APPID
  2
GRADIENTCOLOR2ACI
 70
     0
  0
APPID
  2
ACAD_MLEADERVER
 70
     0
  0
APPID
  2
ACAD_EXEMPT_FROM_CAD_STANDARDS
 70
     0
  0
APPID
  2
ACAD_NAV_VCDISPLAY
 70
     0
  0
APPID
  2
ACAD_DSTYLE_DIMJAG
 70
     0
  0
APPID
  2
ACAD_DSTYLE_DIMTALN
 70
     0
  0
ENDTAB
  0
TABLE
  2
DIMSTYLE
 70
     1
  0
DIMSTYLE
  2
STANDARD
 70
     0
  3

  4

  5

  6

  7

 40
1.0
 41
0.18
 42
0.0625
 43
0.38
 44
0.18
 45
0.0
 46
0.0
 47
0.0
 48
0.0
140
0.18
141
0.09
142
0.0
143
25.399999999999999
144
1.0
145
0.0
146
1.0
147
0.09
 71
     0
 72
     0
 73
     1
 74
     1
 75
     0
 76
     0
 77
     0
 78
     0
170
     0
171
     2
172
     0
173
     0
174
     0
175
     0
176
     0
177
     0
178
     0
  0
ENDTAB
  0
ENDSEC
  0
SECTION
  2
BLOCKS
  0
BLOCK
  8
0
  2
$MODEL_SPACE
 70
     0
 10
0.0
 20
0.0
 30
0.0
  3
$MODEL_SPACE
  1

  0
ENDBLK
  5
442
  8
0
  0
BLOCK
 67
     1
  8
0
  2
$PAPER_SPACE
 70
     0
 10
0.0
 20
0.0
 30
0.0
  3
$PAPER_SPACE
  1

  0
ENDBLK
  5
440
 67
     1
  8
0
  0
BLOCK
  8
0
  2
*U0
 70
     1
 10
0.0
 20
0.0
 30
0.0
  3
*U0
  1

  0
SOLID
  5
5DF5
  8
0
  6
CONTINUOUS
 10
62.099999999999589
 20
208.65000000000009
 30
0.0
 11
62.099999999999589
 21
207.35000000000011
 31
0.0
 12
68.499999999999005
 22
207.35000000000011
 32
0.0
 13
68.499999999999005
 23
207.35000000000011
 33
0.0
210
0.0
220
0.0
230
1.0
  0
SOLID
  5
5DF6
  8
0
  6
CONTINUOUS
 10
-62.099999999999589
 20
208.65000000000009
 30
0.0
 11
-68.499999999999005
 21
208.65000000000009
 31
0.0
 12
-68.499999999999005
 22
207.35000000000011
 32
0.0
 13
-68.499999999999005
 23
207.35000000000011
 33
0.0
210
0.0
220
0.0
230
-1.0
  0
SOLID
  5
5DF7
  8
0
  6
CONTINUOUS
 10
53.499999999998998
 20
208.65000000000009
 30
0.0
 11
53.499999999998998
 21
207.35000000000011
 31
0.0
 12
59.899999999999658
 22
207.35000000000011
 32
0.0
 13
59.899999999999658
 23
207.35000000000011
 33
0.0
210
0.0
220
0.0
230
1.0
  0
SOLID
  5
5DF8
  8
0
  6
CONTINUOUS
 10
-53.499999999998998
 20
208.65000000000009
 30
0.0
 11
-59.899999999999658
 21
208.65000000000009
 31
0.0
 12
-59.899999999999658
 22
207.35000000000011
 32
0.0
 13
-59.899999999999658
 23
207.35000000000011
 33
0.0
210
0.0
220
0.0
230
-1.0
  0
LINE
  5
5DF9
  8
0
  6
CONTINUOUS
 10
62.099999999999589
 20
208.65000000000009
 30
0.0
 11
62.099999999999589
 21
207.35000000000011
 31
0.0
  0
LINE
  5
5DFA
  8
0
  6
CONTINUOUS
 10
68.499999999999005
 20
208.65000000000009
 30
0.0
 11
68.499999999999005
 21
207.35000000000011
 31
0.0
  0
LINE
  5
5DFB
  8
0
  6
CONTINUOUS
 10
53.499999999998998
 20
208.65000000000009
 30
0.0
 11
53.499999999998998
 21
207.35000000000011
 31
0.0
  0
LINE
  5
5DFC
  8
0
  6
CONTINUOUS
 10
59.899999999999658
 20
208.65000000000009
 30
0.0
 11
59.899999999999658
 21
207.35000000000011
 31
0.0
  0
ENDBLK
  5
5DFE
  8
0
  0
BLOCK
  8
0
  2
*U1
 70
     1
 10
0.0
 20
0.0
 30
0.0
  3
*U1
  1

  0
SOLID
  5
5E00
  8
0
  6
CONTINUOUS
 10
62.727827878926817
 20
168.7499999999996
 30
0.0
 11
63.045158543992507
 21
168.0332171017173
 31
0.0
 12
68.499999999999005
 22
168.0332171017173
 32
0.0
 13
68.499999999999005
 23
168.0332171017173
 33
0.0
210
0.0
220
0.0
230
1.0
  0
SOLID
  5
5E01
  8
0
  6
CONTINUOUS
 10
-62.727827878926817
 20
168.7499999999996
 30
0.0
 11
-68.499999999999005
 21
168.7499999999996
 31
0.0
 12
-68.499999999999005
 22
168.0332171017173
 32
0.0
 13
-68.499999999999005
 23
168.0332171017173
 33
0.0
210
0.0
220
0.0
230
-1.0
  0
SOLID
  5
5E02
  8
0
  6
CONTINUOUS
 10
53.499999999998998
 20
168.7499999999996
 30
0.0
 11
53.499999999998998
 21
168.0332171017173
 31
0.0
 12
58.954841456006527
 22
168.0332171017173
 32
0.0
 13
58.954841456006527
 23
168.0332171017173
 33
0.0
210
0.0
220
0.0
230
1.0
  0
SOLID
  5
5E03
  8
0
  6
CONTINUOUS
 10
-53.499999999998998
 20
168.7499999999996
 30
0.0
 11
-59.272172121072082
 21
168.7499999999996
 31
0.0
 12
-58.954841456006527
 22
168.0332171017173
 32
0.0
 13
-58.954841456006527
 23
168.0332171017173
 33
0.0
210
0.0
220
0.0
230
-1.0
  0
SOLID
  5
5E04
  8
0
  6
CONTINUOUS
 10
63.0451585439924
 20
168.0332171017173
 30
0.0
 11
63.077522811911223
 21
167.24999999999969
 31
0.0
 12
68.499999999999005
 22
167.24999999999969
 32
0.0
 13
68.499999999999005
 23
167.24999999999969
 33
0.0
  0
SOLID
  5
5E05
  8
0
  6
CONTINUOUS
 10
-63.0451585439924
 20
168.0332171017173
 30
0.0
 11
-68.499999999999005
 21
168.0332171017173
 31
0.0
 12
-68.499999999999005
 22
167.24999999999969
 32
0.0
 13
-68.499999999999005
 23
167.24999999999969
 33
0.0
210
0.0
220
0.0
230
-1.0
  0
SOLID
  5
5E06
  8
0
  6
CONTINUOUS
 10
53.499999999998998
 20
168.0332171017173
 30
0.0
 11
53.499999999998998
 21
167.24999999999969
 31
0.0
 12
58.922477188087782
 22
167.24999999999969
 32
0.0
 13
58.922477188087782
 23
167.24999999999969
 33
0.0
210
0.0
220
0.0
230
1.0
  0
SOLID
  5
5E07
  8
0
  6
CONTINUOUS
 10
-53.499999999998998
 20
168.0332171017173
 30
0.0
 11
-58.954841456006527
 21
168.0332171017173
 31
0.0
 12
-58.922477188087782
 22
167.24999999999969
 32
0.0
 13
-58.922477188087782
 23
167.24999999999969
 33
0.0
210
0.0
220
0.0
230
-1.0
  0
LINE
  5
5E08
  8
0
  6
CONTINUOUS
 10
62.727827878926817
 20
168.7499999999996
 30
0.0
 11
63.045158543992507
 21
168.0332171017173
 31
0.0
  0
LINE
  5
5E09
  8
0
  6
CONTINUOUS
 10
68.499999999999005
 20
168.7499999999996
 30
0.0
 11
68.499999999999005
 21
168.0332171017173
 31
0.0
  0
LINE
  5
5E0A
  8
0
  6
CONTINUOUS
 10
53.499999999998998
 20
168.7499999999996
 30
0.0
 11
53.499999999998998
 21
168.0332171017173
 31
0.0
  0
LINE
  5
5E0B
  8
0
  6
CONTINUOUS
 10
59.272172121072082
 20
168.7499999999996
 30
0.0
 11
58.954841456006527
 21
168.0332171017173
 31
0.0
  0
LINE
  5
5E0C
  8
0
  6
CONTINUOUS
 10
63.0451585439924
 20
168.0332171017173
 30
0.0
 11
63.077522811911223
 21
167.24999999999969
 31
0.0
  0
LINE
  5
5E0D
  8
0
  6
CONTINUOUS
 10
68.499999999999005
 20
168.0332171017173
 30
0.0
 11
68.499999999999005
 21
167.24999999999969
 31
0.0
  0
LINE
  5
5E0E
  8
0
  6
CONTINUOUS
 10
53.499999999998998
 20
168.0332171017173
 30
0.0
 11
53.499999999998998
 21
167.24999999999969
 31
0.0
  0
LINE
  5
5E0F
  8
0
  6
CONTINUOUS
 10
58.954841456006527
 20
168.0332171017173
 30
0.0
 11
58.922477188087782
 21
167.24999999999969
 31
0.0
  0
ENDBLK
  5
5E11
  8
0
  0
ENDSEC
  0
SECTION
  2
ENTITIES
  0
TEXT
  5
9C0
  8
0
 62
     3
 10
0.0
 20
0.0
 30
0.0
 40
10.0
  1
LT-76NC-J
  7
STANDARD1
  0
LINE
  5
48CF
  8
0
 10
50.0
 20
235.49999999999989
 30
0.0
 11
50.0
 21
140.74999999999989
 31
0.0
  0
LINE
  5
48D0
  8
0
 10
72.0
 20
235.4999999999998
 30
0.0
 11
72.0
 21
140.75
 31
0.0
  0
LINE
  5
48D2
  8
1
 10
60.999999999999879
 20
242.4999999999998
 30
0.0
 11
60.999999999999318
 21
133.5
 31
0.0
  0
CIRCLE
  5
48D6
  8
0
 10
61.00000000000022
 20
149.99999999999989
 30
0.0
 40
8.5
  0
LINE
  5
48D7
  8
0
 10
70.0
 20
138.5
 30
0.0
 11
52.0
 21
138.49999999999989
 31
0.0
  0
LINE
  5
48D8
  8
0
 10
69.440971508067264
 20
151.0
 30
0.0
 11
52.559028491933191
 21
151.0
 31
0.0
  0
LINE
  5
48D9
  8
0
 10
69.440971508067321
 20
149.0
 30
0.0
 11
52.559028491933127
 21
149.0
 31
0.0
  0
LINE
  5
48DA
  8
1
 10
74.5
 20
149.99999999999989
 30
0.0
 11
47.5
 21
149.99999999999989
 31
0.0
  0
ARC
  5
48DB
  8
0
 10
52.226452862127992
 20
140.71518032189149
 30
0.0
 40
2.226725119376316
 50
179.10401966758329
 51
264.16305900555699
  0
ARC
  5
48DC
  8
0
 10
69.773547137872015
 20
140.71518032189161
 30
0.0
 40
2.2267251193763542
 50
275.83694099444301
 51
0.8959803324167122
  0
LINE
  5
48DD
  8
0
 10
61.000000000000341
 20
149.0
 30
0.0
 11
69.440971508067321
 21
149.0
 31
0.0
  0
LINE
  5
48DE
  8
0
 10
61.000000000000341
 20
151.0
 30
0.0
 11
69.440971508067264
 21
151.0
 31
0.0
  0
LINE
  5
48DF
  8
0
 10
70.0
 20
160.99999999999989
 30
0.0
 11
52.0
 21
161.0
 31
0.0
  0
ARC
  5
48E5
  8
0
 10
52.0
 20
159.0
 30
0.0
 40
2.0
 50
90.0
 51
180.0
  0
ARC
  5
48E8
  8
0
 10
70.0
 20
158.99999999999989
 30
0.0
 40
2.0
 50
0.0
 51
90.0
  0
CIRCLE
  5
48EA
  8
0
 10
61.00000000000022
 20
225.99999999999989
 30
0.0
 40
8.5
  0
LINE
  5
48EB
  8
0
 10
70.0
 20
214.99999999999989
 30
0.0
 11
52.0
 21
214.9999999999998
 31
0.0
  0
ARC
  5
48F0
  8
0
 10
51.473861168718138
 20
216.3831778699489
 30
0.0
 40
1.4798659026072489
 50
185.16321596216449
 51
290.8260176216686
  0
ARC
  5
48F3
  8
0
 10
70.526138831281742
 20
216.38317786994909
 30
0.0
 40
1.4798659026072489
 50
249.1739823783316
 51
354.83678403783551
  0
LINE
  5
48F4
  8
0
 10
70.0
 20
237.4999999999998
 30
0.0
 11
52.0
 21
237.5
 31
0.0
  0
LINE
  5
48F5
  8
1
 10
74.5
 20
226.0000000000002
 30
0.0
 11
47.5
 21
225.99999999999989
 31
0.0
  0
ARC
  5
48F8
  8
0
 10
52.0
 20
235.49999999999989
 30
0.0
 40
2.0
 50
90.0
 51
180.0
  0
LINE
  5
48F9
  8
0
 10
52.559028491933191
 20
227.0
 30
0.0
 11
69.440971508067321
 21
226.9999999999998
 31
0.0
  0
LINE
  5
48FA
  8
0
 10
52.559028491933127
 20
225.0
 30
0.0
 11
69.440971508067264
 21
224.9999999999998
 31
0.0
  0
ARC
  5
48FB
  8
0
 10
70.0
 20
235.4999999999998
 30
0.0
 40
2.0
 50
0.0
 51
90.0
  0
LINE
  5
48FC
  8
0
 10
125.5
 20
214.5
 30
0.0
 11
125.5
 21
161.4999999999998
 31
0.0
  0
LINE
  5
48FD
  8
0
 10
136.1999999999999
 20
187.99999999999989
 30
0.0
 11
136.1999999999999
 21
237.5
 31
0.0
  0
LINE
  5
48FE
  8
0
 10
125.5
 20
161.4999999999998
 30
0.0
 11
136.1999999999999
 21
161.4999999999998
 31
0.0
  0
LINE
  5
4900
  8
0
 10
138.5
 20
138.49999999999989
 30
0.0
 11
125.5
 21
138.49999999999989
 31
0.0
  0
LINE
  5
4901
  8
1
 10
165.50000000000011
 20
149.99999999999989
 30
0.0
 11
117.0
 21
149.99999999999989
 31
0.0
  0
LINE
  5
4903
  8
0
 10
123.5
 20
140.49999999999989
 30
0.0
 11
123.5
 21
159.4999999999998
 31
0.0
  0
ARC
  5
4907
  8
0
 10
125.5
 20
140.49999999999989
 30
0.0
 40
2.0
 50
180.0
 51
270.0
  0
ARC
  5
490C
  8
0
 10
125.5
 20
159.4999999999998
 30
0.0
 40
2.0
 50
90.0
 51
180.0
  0
LINE
  5
490D
  8
0
 10
136.1999999999999
 20
187.99999999999989
 30
0.0
 11
136.1999999999999
 21
138.5
 31
0.0
  0
LINE
  5
490F
  8
0
 10
125.5
 20
214.5
 30
0.0
 11
136.1999999999999
 21
214.5
 31
0.0
  0
LINE
  5
4910
  8
1
 10
165.50000000000011
 20
225.99999999999989
 30
0.0
 11
117.0
 21
225.99999999999989
 31
0.0
  0
LINE
  5
4911
  8
0
 10
138.5
 20
237.5
 30
0.0
 11
125.5
 21
237.5
 31
0.0
  0
LINE
  5
4912
  8
0
 10
123.5
 20
235.49999999999989
 30
0.0
 11
123.5
 21
216.5
 31
0.0
  0
ARC
  5
4914
  8
0
 10
125.5
 20
216.5
 30
0.0
 40
2.0
 50
180.0
 51
270.0
  0
ARC
  5
491A
  8
0
 10
125.5
 20
235.49999999999989
 30
0.0
 40
2.0
 50
90.0
 51
180.0
  0
LINE
  5
491E
  8
0
 10
138.5
 20
237.5
 30
0.0
 11
138.50000000000011
 21
138.49999999999989
 31
0.0
  0
LINE
  5
507E
  8
3
 10
56.073499999999292
 20
50.0
 30
0.0
 11
56.073499999999292
 21
57.070922021521369
 31
0.0
  0
LINE
  5
5080
  8
3
 10
56.073499999999292
 20
67.070922021521369
 30
0.0
 11
56.073499999999228
 21
68.520854376887243
 31
0.0
  0
LINE
  5
5081
  8
3
 10
65.926499999999294
 20
50.0
 30
0.0
 11
65.926499999999294
 21
57.070922021521369
 31
0.0
  0
LINE
  5
5083
  8
3
 10
65.926499999999294
 20
67.070922021521369
 30
0.0
 11
65.926499999999294
 21
68.520854926382924
 31
0.0
  0
LINE
  5
5084
  8
1
 10
60.999999999999261
 20
93.499999999999986
 30
0.0
 11
60.999999999999318
 21
45.0
 31
0.0
  0
LINE
  5
5085
  8
0
 10
65.926499999999351
 20
50.0
 30
0.0
 11
66.999999999999304
 21
51.073500000000017
 31
0.0
  0
LINE
  5
5086
  8
0
 10
54.999999999999318
 20
51.073500000000017
 30
0.0
 11
56.073499999999292
 21
50.0
 31
0.0
  0
LINE
  5
5087
  8
0
 10
65.926499999999351
 20
50.0
 30
0.0
 11
56.073499999999292
 21
50.0
 31
0.0
  0
LINE
  5
5088
  8
0
 10
54.999999999999318
 20
70.499999999999773
 30
0.0
 11
54.999999999999318
 21
70.02402991714338
 31
0.0
  0
LINE
  5
5089
  8
0
 10
66.999999999999304
 20
67.070922021521369
 30
0.0
 11
66.999999999999304
 21
67.346245087808001
 31
0.0
  0
LINE
  5
508A
  8
0
 10
54.999999999999318
 20
57.070922021521369
 30
0.0
 11
54.999999999999318
 21
51.073500000000017
 31
0.0
  0
LINE
  5
508B
  8
0
 10
66.999999999999304
 20
51.073500000000017
 30
0.0
 11
66.999999999999304
 21
57.070922021521369
 31
0.0
  0
LINE
  5
508C
  8
0
 10
66.999999999999304
 20
51.073500000000017
 30
0.0
 11
54.999999999999318
 21
51.073500000000017
 31
0.0
  0
LINE
  5
5090
  8
0
 10
70.499999999999318
 20
67.070922021521369
 30
0.0
 11
51.499999999999311
 21
67.070922021521369
 31
0.0
  0
LINE
  5
5091
  8
0
 10
51.499999999999311
 20
57.070922021521369
 30
0.0
 11
51.499999999999311
 21
67.070922021521369
 31
0.0
  0
LINE
  5
5092
  8
0
 10
70.499999999999318
 20
57.070922021521369
 30
0.0
 11
51.499999999999311
 21
57.070922021521369
 31
0.0
  0
LINE
  5
5093
  8
0
 10
70.499999999999318
 20
67.070922021521369
 30
0.0
 11
70.499999999999318
 21
57.070922021521369
 31
0.0
  0
LINE
  5
5094
  8
0
 10
69.440971508066355
 20
87.900000000000034
 30
0.0
 11
69.440971508066355
 21
87.0
 31
0.0
  0
LINE
  5
5095
  8
0
 10
52.559028491932281
 20
87.0
 30
0.0
 11
52.559028491932281
 21
87.900000000000034
 31
0.0
  0
LINE
  5
5096
  8
0
 10
52.559028491932281
 20
87.900000000000034
 30
0.0
 11
53.163546720613283
 21
88.499999999999986
 31
0.0
  0
LINE
  5
5097
  8
0
 10
69.440971508066355
 20
87.900000000000034
 30
0.0
 11
52.559028491932281
 21
87.900000000000034
 31
0.0
  0
LINE
  5
5098
  8
0
 10
68.836453279385353
 20
88.499999999999986
 30
0.0
 11
69.440971508066355
 21
87.900000000000034
 31
0.0
  0
LINE
  5
5099
  8
0
 10
68.836453279385353
 20
88.499999999999986
 30
0.0
 11
53.163546720613283
 21
88.499999999999986
 31
0.0
  0
POLYLINE
  5
509A
  8
0
 66
     1
 10
0.0
 20
0.0
 30
0.0
  0
VERTEX
  5
5CFC
  8
0
 10
60.999999999999318
 20
66.222416245489512
 30
0.0
  0
VERTEX
  5
5CFD
  8
0
 10
60.425172632726742
 20
66.405067211967662
 30
0.0
  0
VERTEX
  5
5CFE
  8
0
 10
59.846315250434031
 20
66.569803691236189
 30
0.0
  0
VERTEX
  5
5CFF
  8
0
 10
59.261472496914003
 20
66.715025060478126
 30
0.0
  0
VERTEX
  5
5D00
  8
0
 10
58.67284076359595
 20
66.83803218789194
 30
0.0
  0
VERTEX
  5
5D01
  8
0
 10
58.072559443014541
 20
66.937930984256354
 30
0.0
  0
VERTEX
  5
5D02
  8
0
 10
57.469404724414737
 20
67.011004403556967
 30
0.0
  0
VERTEX
  5
5D03
  8
0
 10
56.860246017113013
 20
67.055822026691544
 30
0.0
  0
VERTEX
  5
5D04
  8
0
 10
56.249999999999318
 20
67.070922021521369
 30
0.0
  0
SEQEND
  5
5D05
  8
0
  0
POLYLINE
  5
509B
  8
0
 66
     1
 10
0.0
 20
0.0
 30
0.0
  0
VERTEX
  5
5D06
  8
0
 10
56.249999999999318
 20
67.070922021521369
 30
0.0
  0
VERTEX
  5
5D07
  8
0
 10
55.912208994957723
 20
67.066301002464456
 30
0.0
  0
VERTEX
  5
5D08
  8
0
 10
55.35868570411958
 20
67.038807624337664
 30
0.0
  0
VERTEX
  5
5D09
  8
0
 10
54.806453239121772
 20
66.987134061645236
 30
0.0
  0
VERTEX
  5
5D0A
  8
0
 10
54.253239899882367
 20
66.911681469434768
 30
0.0
  0
VERTEX
  5
5D0B
  8
0
 10
53.702624356398637
 20
66.814026156960722
 30
0.0
  0
VERTEX
  5
5D0C
  8
0
 10
53.147591823049027
 20
66.693912259040914
 30
0.0
  0
VERTEX
  5
5D0D
  8
0
 10
52.595977882312638
 20
66.554291325048382
 30
0.0
  0
VERTEX
  5
5D0E
  8
0
 10
52.046168563554943
 20
66.396397177154142
 30
0.0
  0
VERTEX
  5
5D0F
  8
0
 10
51.499999999999311
 20
66.222416245489512
 30
0.0
  0
SEQEND
  5
5D10
  8
0
  0
POLYLINE
  5
509C
  8
0
 66
     1
 10
0.0
 20
0.0
 30
0.0
  0
VERTEX
  5
5D11
  8
0
 10
51.499999999999311
 20
57.919427797553283
 30
0.0
  0
VERTEX
  5
5D12
  8
0
 10
52.074827367271901
 20
57.736776831075069
 30
0.0
  0
VERTEX
  5
5D13
  8
0
 10
52.653684749564597
 20
57.57204035180655
 30
0.0
  0
VERTEX
  5
5D14
  8
0
 10
53.23852750308464
 20
57.426818982564612
 30
0.0
  0
VERTEX
  5
5D15
  8
0
 10
53.827159236402679
 20
57.303811855150798
 30
0.0
  0
VERTEX
  5
5D16
  8
0
 10
54.427440556984088
 20
57.203913058786391
 30
0.0
  0
VERTEX
  5
5D17
  8
0
 10
55.030595275583892
 20
57.130839639485771
 30
0.0
  0
VERTEX
  5
5D18
  8
0
 10
55.639753982885622
 20
57.086022016351201
 30
0.0
  0
VERTEX
  5
5D19
  8
0
 10
56.249999999999318
 20
57.070922021521369
 30
0.0
  0
SEQEND
  5
5D1A
  8
0
  0
POLYLINE
  5
509D
  8
0
 66
     1
 10
0.0
 20
0.0
 30
0.0
  0
VERTEX
  5
5D1B
  8
0
 10
56.249999999999318
 20
57.070922021521369
 30
0.0
  0
VERTEX
  5
5D1C
  8
0
 10
56.587791005040913
 20
57.075543040578282
 30
0.0
  0
VERTEX
  5
5D1D
  8
0
 10
57.141314295879049
 20
57.103036418705067
 30
0.0
  0
VERTEX
  5
5D1E
  8
0
 10
57.69354676087687
 20
57.154709981397559
 30
0.0
  0
VERTEX
  5
5D1F
  8
0
 10
58.246760100116262
 20
57.230162573608027
 30
0.0
  0
VERTEX
  5
5D20
  8
0
 10
58.797375643599992
 20
57.327817886082009
 30
0.0
  0
VERTEX
  5
5D21
  8
0
 10
59.352408176949602
 20
57.44793178400181
 30
0.0
  0
VERTEX
  5
5D22
  8
0
 10
59.904022117685997
 20
57.587552717994363
 30
0.0
  0
VERTEX
  5
5D23
  8
0
 10
60.453831436443693
 20
57.745446865888603
 30
0.0
  0
VERTEX
  5
5D24
  8
0
 10
60.999999999999318
 20
57.919427797553283
 30
0.0
  0
SEQEND
  5
5D25
  8
0
  0
POLYLINE
  5
509E
  8
0
 66
     1
 10
0.0
 20
0.0
 30
0.0
  0
VERTEX
  5
5D26
  8
0
 10
70.499999999999318
 20
66.222416245489512
 30
0.0
  0
VERTEX
  5
5D27
  8
0
 10
69.925172632726742
 20
66.405067211967662
 30
0.0
  0
VERTEX
  5
5D28
  8
0
 10
69.346315250434031
 20
66.569803691236189
 30
0.0
  0
VERTEX
  5
5D29
  8
0
 10
68.761472496913996
 20
66.715025060478126
 30
0.0
  0
VERTEX
  5
5D2A
  8
0
 10
68.172840763595957
 20
66.83803218789194
 30
0.0
  0
VERTEX
  5
5D2B
  8
0
 10
67.572559443014541
 20
66.937930984256354
 30
0.0
  0
VERTEX
  5
5D2C
  8
0
 10
66.969404724414744
 20
67.011004403556967
 30
0.0
  0
VERTEX
  5
5D2D
  8
0
 10
66.360246017113013
 20
67.055822026691544
 30
0.0
  0
VERTEX
  5
5D2E
  8
0
 10
65.749999999999304
 20
67.070922021521369
 30
0.0
  0
SEQEND
  5
5D2F
  8
0
  0
POLYLINE
  5
509F
  8
0
 66
     1
 10
0.0
 20
0.0
 30
0.0
  0
VERTEX
  5
5D30
  8
0
 10
65.749999999999304
 20
67.070922021521369
 30
0.0
  0
VERTEX
  5
5D31
  8
0
 10
65.412208994957723
 20
67.066301002464456
 30
0.0
  0
VERTEX
  5
5D32
  8
0
 10
64.85868570411958
 20
67.038807624337664
 30
0.0
  0
VERTEX
  5
5D33
  8
0
 10
64.306453239121765
 20
66.987134061645236
 30
0.0
  0
VERTEX
  5
5D34
  8
0
 10
63.753239899882367
 20
66.911681469434768
 30
0.0
  0
VERTEX
  5
5D35
  8
0
 10
63.202624356398651
 20
66.814026156960722
 30
0.0
  0
VERTEX
  5
5D36
  8
0
 10
62.647591823049027
 20
66.693912259040914
 30
0.0
  0
VERTEX
  5
5D37
  8
0
 10
62.095977882312631
 20
66.554291325048382
 30
0.0
  0
VERTEX
  5
5D38
  8
0
 10
61.546168563554943
 20
66.396397177154142
 30
0.0
  0
VERTEX
  5
5D39
  8
0
 10
60.999999999999318
 20
66.222416245489512
 30
0.0
  0
SEQEND
  5
5D3A
  8
0
  0
LINE
  5
50A0
  8
0
 10
60.999999999999318
 20
57.919427797553283
 30
0.0
 11
60.999999999999318
 21
66.222416245489512
 31
0.0
  0
POLYLINE
  5
50A1
  8
0
 66
     1
 10
0.0
 20
0.0
 30
0.0
  0
VERTEX
  5
5D3B
  8
0
 10
60.999999999999318
 20
57.919427797553283
 30
0.0
  0
VERTEX
  5
5D3C
  8
0
 10
61.574827367271887
 20
57.736776831075069
 30
0.0
  0
VERTEX
  5
5D3D
  8
0
 10
62.153684749564597
 20
57.57204035180655
 30
0.0
  0
VERTEX
  5
5D3E
  8
0
 10
62.73852750308464
 20
57.426818982564612
 30
0.0
  0
VERTEX
  5
5D3F
  8
0
 10
63.327159236402679
 20
57.303811855150798
 30
0.0
  0
VERTEX
  5
5D40
  8
0
 10
63.927440556984088
 20
57.203913058786391
 30
0.0
  0
VERTEX
  5
5D41
  8
0
 10
64.530595275583892
 20
57.130839639485771
 30
0.0
  0
VERTEX
  5
5D42
  8
0
 10
65.139753982885622
 20
57.086022016351201
 30
0.0
  0
VERTEX
  5
5D43
  8
0
 10
65.749999999999304
 20
57.070922021521369
 30
0.0
  0
SEQEND
  5
5D44
  8
0
  0
POLYLINE
  5
50A2
  8
0
 66
     1
 10
0.0
 20
0.0
 30
0.0
  0
VERTEX
  5
5D45
  8
0
 10
65.749999999999304
 20
57.070922021521369
 30
0.0
  0
VERTEX
  5
5D46
  8
0
 10
66.087791005040913
 20
57.075543040578282
 30
0.0
  0
VERTEX
  5
5D47
  8
0
 10
66.641314295879056
 20
57.103036418705067
 30
0.0
  0
VERTEX
  5
5D48
  8
0
 10
67.19354676087687
 20
57.154709981397502
 30
0.0
  0
VERTEX
  5
5D49
  8
0
 10
67.746760100116262
 20
57.230162573608027
 30
0.0
  0
VERTEX
  5
5D4A
  8
0
 10
68.297375643599992
 20
57.327817886082009
 30
0.0
  0
VERTEX
  5
5D4B
  8
0
 10
68.852408176949609
 20
57.44793178400181
 30
0.0
  0
VERTEX
  5
5D4C
  8
0
 10
69.404022117685983
 20
57.587552717994363
 30
0.0
  0
VERTEX
  5
5D4D
  8
0
 10
69.953831436443693
 20
57.745446865888603
 30
0.0
  0
VERTEX
  5
5D4E
  8
0
 10
70.499999999999318
 20
57.919427797553283
 30
0.0
  0
SEQEND
  5
5D4F
  8
0
  0
LINE
  5
50A5
  8
3
 10
56.073499999999292
 20
57.070922021521369
 30
0.0
 11
56.073499999999292
 21
57.072184034923048
 31
0.0
  0
LINE
  5
50A6
  8
3
 10
56.16517503044156
 20
67.069660008119683
 30
0.0
 11
56.16517503044156
 21
67.070922021521369
 31
0.0
  0
LINE
  5
50A7
  8
3
 10
65.926499999999294
 20
57.070922021521369
 30
0.0
 11
65.926499999999294
 21
57.072184034923048
 31
0.0
  0
LINE
  5
50A8
  8
3
 10
66.018175030441569
 20
67.069660008119683
 30
0.0
 11
66.018175030441569
 21
67.070922021521369
 31
0.0
  0
LINE
  5
50A9
  8
0
 10
49.999999999999318
 20
72.0
 30
0.0
 11
49.999999999999318
 21
85.0
 31
0.0
  0
ARC
  5
50AA
  8
0
 10
51.999999999999311
 20
85.0
 30
0.0
 40
1.9999999999999949
 50
90.0
 51
180.0
  0
ARC
  5
50AB
  8
0
 10
69.999999999999318
 20
85.0
 30
0.0
 40
1.999999999999998
 50
0.0
 51
90.0
  0
LINE
  5
50AC
  8
0
 10
71.999999999999304
 20
85.0
 30
0.0
 11
71.999999999999304
 21
72.0
 31
0.0
  0
LINE
  5
50AD
  8
0
 10
71.999999999999304
 20
72.0
 30
0.0
 11
49.999999999999318
 21
72.0
 31
0.0
  0
LINE
  5
50AE
  8
0
 10
51.999999999999311
 20
87.0
 30
0.0
 11
69.999999999999318
 21
87.0
 31
0.0
  0
LINE
  5
50B3
  8
0
 10
143.4290779784786
 20
159.49999999999989
 30
0.0
 11
143.4290779784786
 21
140.49999999999989
 31
0.0
  0
LINE
  5
50B4
  8
0
 10
143.4290779784786
 20
140.49999999999989
 30
0.0
 11
144.27758375451049
 21
139.030344885397
 31
0.0
  0
LINE
  5
50B5
  8
0
 10
153.42907797847869
 20
159.49999999999989
 30
0.0
 11
153.42907797847869
 21
140.49999999999989
 31
0.0
  0
LINE
  5
50B6
  8
0
 10
152.5805722024468
 20
139.030344885397
 30
0.0
 11
153.42907797847869
 21
140.49999999999989
 31
0.0
  0
LINE
  5
50B7
  8
0
 10
144.27758375451049
 20
160.9696551146028
 30
0.0
 11
143.4290779784786
 21
159.49999999999989
 31
0.0
  0
LINE
  5
50B8
  8
0
 10
153.42907797847869
 20
159.49999999999989
 30
0.0
 11
152.5805722024468
 21
160.9696551146028
 31
0.0
  0
LINE
  5
50B9
  8
0
 10
160.50000000000011
 20
154.9265
 30
0.0
 11
159.42650000000009
 21
155.99999999999989
 31
0.0
  0
LINE
  5
50BA
  8
0
 10
159.42650000000009
 20
143.99999999999989
 30
0.0
 11
160.50000000000011
 21
145.07349999999991
 31
0.0
  0
LINE
  5
50BB
  8
0
 10
160.50000000000011
 20
154.9265
 30
0.0
 11
160.50000000000011
 21
145.07349999999991
 31
0.0
  0
LINE
  5
50BC
  8
0
 10
153.42907797847869
 20
143.99999999999989
 30
0.0
 11
159.42650000000009
 21
143.99999999999989
 31
0.0
  0
LINE
  5
50BD
  8
0
 10
159.42650000000009
 20
155.99999999999989
 30
0.0
 11
153.42907797847869
 21
155.99999999999989
 31
0.0
  0
LINE
  5
50BE
  8
0
 10
159.42650000000009
 20
155.99999999999989
 30
0.0
 11
159.42650000000009
 21
143.99999999999989
 31
0.0
  0
LINE
  5
50C1
  8
0
 10
140.00000000000011
 20
143.99999999999989
 30
0.0
 11
140.47597012874311
 21
143.99999999999989
 31
0.0
  0
LINE
  5
50C2
  8
0
 10
143.4290779784786
 20
155.99999999999989
 30
0.0
 11
143.15375495807839
 21
155.99999999999989
 31
0.0
  0
LINE
  5
50C4
  8
0
 10
122.0
 20
148.99999999999989
 30
0.0
 11
123.5
 21
148.99999999999989
 31
0.0
  0
LINE
  5
50C5
  8
0
 10
122.0
 20
148.99999999999989
 30
0.0
 11
122.0
 21
142.09999999999991
 31
0.0
  0
LINE
  5
50C6
  8
0
 10
122.0
 20
142.09999999999991
 30
0.0
 11
122.59999999999999
 21
141.49999999999989
 31
0.0
  0
LINE
  5
50C7
  8
0
 10
122.0
 20
150.99999999999989
 30
0.0
 11
123.5
 21
150.99999999999989
 31
0.0
  0
LINE
  5
50C8
  8
0
 10
122.59999999999999
 20
158.49999999999989
 30
0.0
 11
122.0
 21
157.89999999999989
 31
0.0
  0
LINE
  5
50C9
  8
0
 10
122.0
 20
157.89999999999989
 30
0.0
 11
122.0
 21
150.99999999999989
 31
0.0
  0
LINE
  5
50CA
  8
0
 10
122.59999999999999
 20
148.99999999999989
 30
0.0
 11
122.59999999999999
 21
141.49999999999989
 31
0.0
  0
LINE
  5
50CB
  8
0
 10
122.59999999999999
 20
141.49999999999989
 30
0.0
 11
123.5
 21
141.49999999999989
 31
0.0
  0
LINE
  5
50CC
  8
0
 10
123.5
 20
158.49999999999989
 30
0.0
 11
122.59999999999999
 21
158.49999999999989
 31
0.0
  0
LINE
  5
50CD
  8
0
 10
122.59999999999999
 20
158.49999999999989
 30
0.0
 11
122.59999999999999
 21
150.99999999999989
 31
0.0
  0
POLYLINE
  5
50CE
  8
0
 66
     1
 10
0.0
 20
0.0
 30
0.0
  0
VERTEX
  5
5D50
  8
0
 10
143.4290779784786
 20
141.77275866404781
 30
0.0
  0
VERTEX
  5
5D51
  8
0
 10
143.4336989975356
 20
141.57773493635719
 30
0.0
  0
VERTEX
  5
5D52
  8
0
 10
143.51286593835491
 20
140.9393265530673
 30
0.0
  0
VERTEX
  5
5D53
  8
0
 10
143.68597384303931
 20
140.30203065048781
 30
0.0
  0
VERTEX
  5
5D54
  8
0
 10
143.9457086749517
 20
139.66310801077651
 30
0.0
  0
VERTEX
  5
5D55
  8
0
 10
144.27758375451049
 20
139.030344885397
 30
0.0
  0
SEQEND
  5
5D56
  8
0
  0
LINE
  5
50CF
  8
0
 10
152.5805722024468
 20
139.030344885397
 30
0.0
 11
144.27758375451049
 21
139.030344885397
 31
0.0
  0
POLYLINE
  5
50D0
  8
0
 66
     1
 10
0.0
 20
0.0
 30
0.0
  0
VERTEX
  5
5D57
  8
0
 10
152.5805722024468
 20
139.030344885397
 30
0.0
  0
VERTEX
  5
5D58
  8
0
 10
152.92795964819351
 20
139.6964250861185
 30
0.0
  0
VERTEX
  5
5D59
  8
0
 10
153.1961881448492
 20
140.37393089698159
 30
0.0
  0
VERTEX
  5
5D5A
  8
0
 10
153.36916036051429
 20
141.06873501815539
 30
0.0
  0
VERTEX
  5
5D5B
  8
0
 10
153.42907797847869
 20
141.77275866404781
 30
0.0
  0
SEQEND
  5
5D5C
  8
0
  0
LINE
  5
50D1
  8
0
 10
152.5805722024468
 20
144.51517244269851
 30
0.0
 11
144.27758375451049
 21
144.51517244269851
 31
0.0
  0
POLYLINE
  5
50D2
  8
0
 66
     1
 10
0.0
 20
0.0
 30
0.0
  0
VERTEX
  5
5D5D
  8
0
 10
144.27758375451049
 20
160.9696551146028
 30
0.0
  0
VERTEX
  5
5D5E
  8
0
 10
143.93019630876381
 20
160.30357491388131
 30
0.0
  0
VERTEX
  5
5D5F
  8
0
 10
143.66196781210809
 20
159.62606910301821
 30
0.0
  0
VERTEX
  5
5D60
  8
0
 10
143.48899559644309
 20
158.93126498184441
 30
0.0
  0
VERTEX
  5
5D61
  8
0
 10
143.4290779784786
 20
158.2272413359521
 30
0.0
  0
SEQEND
  5
5D62
  8
0
  0
LINE
  5
50D3
  8
0
 10
152.5805722024468
 20
155.4848275573014
 30
0.0
 11
144.27758375451049
 21
155.4848275573014
 31
0.0
  0
POLYLINE
  5
50D4
  8
0
 66
     1
 10
0.0
 20
0.0
 30
0.0
  0
VERTEX
  5
5D63
  8
0
 10
153.42907797847869
 20
158.2272413359521
 30
0.0
  0
VERTEX
  5
5D64
  8
0
 10
153.42445695942169
 20
158.4222650636427
 30
0.0
  0
VERTEX
  5
5D65
  8
0
 10
153.34529001860261
 20
159.0606734469325
 30
0.0
  0
VERTEX
  5
5D66
  8
0
 10
153.17218211391801
 20
159.69796934951199
 30
0.0
  0
VERTEX
  5
5D67
  8
0
 10
152.9124472820057
 20
160.3368919892234
 30
0.0
  0
VERTEX
  5
5D68
  8
0
 10
152.5805722024468
 20
160.9696551146028
 30
0.0
  0
SEQEND
  5
5D69
  8
0
  0
LINE
  5
50D5
  8
0
 10
152.5805722024468
 20
160.9696551146028
 30
0.0
 11
144.27758375451049
 21
160.9696551146028
 31
0.0
  0
POLYLINE
  5
50D6
  8
0
 66
     1
 10
0.0
 20
0.0
 30
0.0
  0
VERTEX
  5
5D6A
  8
0
 10
152.5805722024468
 20
144.51517244269851
 30
0.0
  0
VERTEX
  5
5D6B
  8
0
 10
152.89845416717461
 20
145.72133601410769
 30
0.0
  0
VERTEX
  5
5D6C
  8
0
 10
153.120679233342
 20
146.76976580202279
 30
0.0
  0
VERTEX
  5
5D6D
  8
0
 10
153.2879655675342
 20
147.8312211779627
 30
0.0
  0
VERTEX
  5
5D6E
  8
0
 10
153.39316959276519
 20
148.9111583873258
 30
0.0
  0
VERTEX
  5
5D6F
  8
0
 10
153.42907797847869
 20
149.99999999999989
 30
0.0
  0
SEQEND
  5
5D70
  8
0
  0
POLYLINE
  5
50D7
  8
0
 66
     1
 10
0.0
 20
0.0
 30
0.0
  0
VERTEX
  5
5D71
  8
0
 10
153.42907797847869
 20
141.77275866404781
 30
0.0
  0
VERTEX
  5
5D72
  8
0
 10
153.42445695942169
 20
141.96778239173841
 30
0.0
  0
VERTEX
  5
5D73
  8
0
 10
153.34529001860261
 20
142.60619077502821
 30
0.0
  0
VERTEX
  5
5D74
  8
0
 10
153.17218211391801
 20
143.24348667760771
 30
0.0
  0
VERTEX
  5
5D75
  8
0
 10
152.9124472820057
 20
143.882409317319
 30
0.0
  0
VERTEX
  5
5D76
  8
0
 10
152.5805722024468
 20
144.51517244269851
 30
0.0
  0
SEQEND
  5
5D77
  8
0
  0
POLYLINE
  5
50D8
  8
0
 66
     1
 10
0.0
 20
0.0
 30
0.0
  0
VERTEX
  5
5D78
  8
0
 10
143.4290779784786
 20
158.2272413359521
 30
0.0
  0
VERTEX
  5
5D79
  8
0
 10
143.4336989975356
 20
158.0322176082615
 30
0.0
  0
VERTEX
  5
5D7A
  8
0
 10
143.51286593835491
 20
157.39380922497159
 30
0.0
  0
VERTEX
  5
5D7B
  8
0
 10
143.68597384303931
 20
156.7565133223921
 30
0.0
  0
VERTEX
  5
5D7C
  8
0
 10
143.9457086749517
 20
156.11759068268091
 30
0.0
  0
VERTEX
  5
5D7D
  8
0
 10
144.27758375451049
 20
155.4848275573014
 30
0.0
  0
SEQEND
  5
5D7E
  8
0
  0
POLYLINE
  5
50D9
  8
0
 66
     1
 10
0.0
 20
0.0
 30
0.0
  0
VERTEX
  5
5D7F
  8
0
 10
144.27758375451049
 20
155.4848275573014
 30
0.0
  0
VERTEX
  5
5D80
  8
0
 10
144.00600939384151
 20
154.47043570924589
 30
0.0
  0
VERTEX
  5
5D81
  8
0
 10
143.7786405912033
 20
153.44533394147669
 30
0.0
  0
VERTEX
  5
5D82
  8
0
 10
143.60152392399999
 20
152.4002303884439
 30
0.0
  0
VERTEX
  5
5D83
  8
0
 10
143.48392839920521
 20
151.3468839225209
 30
0.0
  0
VERTEX
  5
5D84
  8
0
 10
143.44288696760029
 20
150.67454548325509
 30
0.0
  0
VERTEX
  5
5D85
  8
0
 10
143.4290779784786
 20
149.99999999999989
 30
0.0
  0
SEQEND
  5
5D86
  8
0
  0
POLYLINE
  5
50DA
  8
0
 66
     1
 10
0.0
 20
0.0
 30
0.0
  0
VERTEX
  5
5D87
  8
0
 10
153.42907797847869
 20
149.99999999999989
 30
0.0
  0
VERTEX
  5
5D88
  8
0
 10
153.41531407750091
 20
150.67344196126041
 30
0.0
  0
VERTEX
  5
5D89
  8
0
 10
153.37422755775211
 20
151.3468839225209
 30
0.0
  0
VERTEX
  5
5D8A
  8
0
 10
153.25812096375299
 20
152.3897026551858
 30
0.0
  0
VERTEX
  5
5D8B
  8
0
 10
153.08361247129119
 20
153.42446370304631
 30
0.0
  0
VERTEX
  5
5D8C
  8
0
 10
152.85468301277561
 20
154.46010665041831
 30
0.0
  0
VERTEX
  5
5D8D
  8
0
 10
152.5805722024468
 20
155.4848275573014
 30
0.0
  0
SEQEND
  5
5D8E
  8
0
  0
POLYLINE
  5
50DB
  8
0
 66
     1
 10
0.0
 20
0.0
 30
0.0
  0
VERTEX
  5
5D8F
  8
0
 10
152.5805722024468
 20
155.4848275573014
 30
0.0
  0
VERTEX
  5
5D90
  8
0
 10
152.92795964819351
 20
156.1509077580229
 30
0.0
  0
VERTEX
  5
5D91
  8
0
 10
153.1961881448492
 20
156.82841356888599
 30
0.0
  0
VERTEX
  5
5D92
  8
0
 10
153.36916036051429
 20
157.52321769005971
 30
0.0
  0
VERTEX
  5
5D93
  8
0
 10
153.42907797847869
 20
158.2272413359521
 30
0.0
  0
SEQEND
  5
5D94
  8
0
  0
POLYLINE
  5
50DC
  8
0
 66
     1
 10
0.0
 20
0.0
 30
0.0
  0
VERTEX
  5
5D95
  8
0
 10
143.4290779784786
 20
149.99999999999989
 30
0.0
  0
VERTEX
  5
5D96
  8
0
 10
143.46373666973369
 20
148.93033400352681
 30
0.0
  0
VERTEX
  5
5D97
  8
0
 10
143.56643094051441
 20
147.86066800705379
 30
0.0
  0
VERTEX
  5
5D98
  8
0
 10
143.7342177702858
 20
146.78734288925301
 30
0.0
  0
VERTEX
  5
5D99
  8
0
 10
143.95970178978271
 20
145.72133601410769
 30
0.0
  0
VERTEX
  5
5D9A
  8
0
 10
144.27758375451049
 20
144.51517244269851
 30
0.0
  0
SEQEND
  5
5D9B
  8
0
  0
POLYLINE
  5
50DD
  8
0
 66
     1
 10
0.0
 20
0.0
 30
0.0
  0
VERTEX
  5
5D9C
  8
0
 10
144.27758375451049
 20
144.51517244269851
 30
0.0
  0
VERTEX
  5
5D9D
  8
0
 10
143.93019630876381
 20
143.84909224197699
 30
0.0
  0
VERTEX
  5
5D9E
  8
0
 10
143.66196781210809
 20
143.17158643111389
 30
0.0
  0
VERTEX
  5
5D9F
  8
0
 10
143.48899559644309
 20
142.47678230994009
 30
0.0
  0
VERTEX
  5
5DA0
  8
0
 10
143.4290779784786
 20
141.77275866404781
 30
0.0
  0
SEQEND
  5
5DA1
  8
0
  0
LINE
  5
50DE
  8
3
 10
160.50000000000011
 20
154.9265
 30
0.0
 11
153.4290779784786
 21
154.9265
 31
0.0
  0
LINE
  5
50DF
  8
3
 10
160.50000000000011
 20
145.07349999999991
 30
0.0
 11
153.4290779784786
 21
145.0735
 31
0.0
  0
LINE
  5
50E0
  8
0
 10
143.4290779784786
 20
235.49999999999989
 30
0.0
 11
143.4290779784786
 21
216.5
 31
0.0
  0
LINE
  5
50E1
  8
0
 10
143.4290779784786
 20
216.5
 30
0.0
 11
144.27758375451049
 21
215.030344885397
 31
0.0
  0
LINE
  5
50E2
  8
0
 10
153.42907797847869
 20
235.49999999999989
 30
0.0
 11
153.42907797847869
 21
216.5
 31
0.0
  0
LINE
  5
50E3
  8
0
 10
152.5805722024468
 20
215.030344885397
 30
0.0
 11
153.42907797847869
 21
216.5
 31
0.0
  0
LINE
  5
50E4
  8
0
 10
144.27758375451049
 20
236.96965511460289
 30
0.0
 11
143.4290779784786
 21
235.49999999999989
 31
0.0
  0
LINE
  5
50E5
  8
0
 10
153.42907797847869
 20
235.49999999999989
 30
0.0
 11
152.5805722024468
 21
236.96965511460289
 31
0.0
  0
LINE
  5
50E6
  8
0
 10
160.50000000000011
 20
230.9265
 30
0.0
 11
159.42650000000009
 21
231.99999999999989
 31
0.0
  0
LINE
  5
50E7
  8
0
 10
159.42650000000009
 20
219.99999999999989
 30
0.0
 11
160.50000000000011
 21
221.07349999999991
 31
0.0
  0
LINE
  5
50E8
  8
0
 10
160.50000000000011
 20
230.9265
 30
0.0
 11
160.50000000000011
 21
221.07349999999991
 31
0.0
  0
LINE
  5
50E9
  8
0
 10
153.42907797847869
 20
219.99999999999989
 30
0.0
 11
159.42650000000009
 21
219.99999999999989
 31
0.0
  0
LINE
  5
50EA
  8
0
 10
159.42650000000009
 20
231.99999999999989
 30
0.0
 11
153.42907797847869
 21
231.99999999999989
 31
0.0
  0
LINE
  5
50EB
  8
0
 10
159.42650000000009
 20
231.99999999999989
 30
0.0
 11
159.42650000000009
 21
219.99999999999989
 31
0.0
  0
LINE
  5
50EE
  8
0
 10
140.0
 20
219.99999999999989
 30
0.0
 11
141.20429790267889
 21
219.99999999999989
 31
0.0
  0
LINE
  5
50EF
  8
0
 10
143.4290779784786
 20
231.99999999999989
 30
0.0
 11
141.99917381297209
 21
231.99999999999989
 31
0.0
  0
LINE
  5
50F1
  8
0
 10
122.0
 20
227.0
 30
0.0
 11
123.5
 21
227.0
 31
0.0
  0
LINE
  5
50F2
  8
0
 10
122.59999999999999
 20
234.49999999999989
 30
0.0
 11
122.0
 21
233.89999999999989
 31
0.0
  0
LINE
  5
50F3
  8
0
 10
122.0
 20
233.89999999999989
 30
0.0
 11
122.0
 21
227.0
 31
0.0
  0
LINE
  5
50F4
  8
0
 10
122.0
 20
225.0
 30
0.0
 11
123.5
 21
225.0
 31
0.0
  0
LINE
  5
50F5
  8
0
 10
122.0
 20
225.0
 30
0.0
 11
122.0
 21
218.09999999999999
 31
0.0
  0
LINE
  5
50F6
  8
0
 10
122.0
 20
218.09999999999999
 30
0.0
 11
122.59999999999999
 21
217.49999999999989
 31
0.0
  0
LINE
  5
50F7
  8
0
 10
122.59999999999999
 20
225.0
 30
0.0
 11
122.59999999999999
 21
217.49999999999989
 31
0.0
  0
LINE
  5
50F8
  8
0
 10
122.59999999999999
 20
217.49999999999989
 30
0.0
 11
123.5
 21
217.49999999999989
 31
0.0
  0
LINE
  5
50F9
  8
0
 10
123.5
 20
234.49999999999989
 30
0.0
 11
122.59999999999999
 21
234.49999999999989
 31
0.0
  0
LINE
  5
50FA
  8
0
 10
122.59999999999999
 20
234.49999999999989
 30
0.0
 11
122.59999999999999
 21
227.0
 31
0.0
  0
POLYLINE
  5
50FB
  8
0
 66
     1
 10
0.0
 20
0.0
 30
0.0
  0
VERTEX
  5
5DA2
  8
0
 10
143.4290779784786
 20
217.77275866404781
 30
0.0
  0
VERTEX
  5
5DA3
  8
0
 10
143.4336989975356
 20
217.57773493635719
 30
0.0
  0
VERTEX
  5
5DA4
  8
0
 10
143.51286593835491
 20
216.93932655306719
 30
0.0
  0
VERTEX
  5
5DA5
  8
0
 10
143.68597384303931
 20
216.30203065048789
 30
0.0
  0
VERTEX
  5
5DA6
  8
0
 10
143.9457086749517
 20
215.66310801077651
 30
0.0
  0
VERTEX
  5
5DA7
  8
0
 10
144.27758375451049
 20
215.030344885397
 30
0.0
  0
SEQEND
  5
5DA8
  8
0
  0
LINE
  5
50FC
  8
0
 10
152.5805722024468
 20
215.030344885397
 30
0.0
 11
144.27758375451049
 21
215.030344885397
 31
0.0
  0
POLYLINE
  5
50FD
  8
0
 66
     1
 10
0.0
 20
0.0
 30
0.0
  0
VERTEX
  5
5DA9
  8
0
 10
152.5805722024468
 20
215.030344885397
 30
0.0
  0
VERTEX
  5
5DAA
  8
0
 10
152.92795964819351
 20
215.6964250861185
 30
0.0
  0
VERTEX
  5
5DAB
  8
0
 10
153.1961881448492
 20
216.3739308969817
 30
0.0
  0
VERTEX
  5
5DAC
  8
0
 10
153.36916036051429
 20
217.06873501815539
 30
0.0
  0
VERTEX
  5
5DAD
  8
0
 10
153.42907797847869
 20
217.77275866404781
 30
0.0
  0
SEQEND
  5
5DAE
  8
0
  0
LINE
  5
50FE
  8
0
 10
152.5805722024468
 20
220.5151724426984
 30
0.0
 11
144.27758375451049
 21
220.5151724426984
 31
0.0
  0
POLYLINE
  5
50FF
  8
0
 66
     1
 10
0.0
 20
0.0
 30
0.0
  0
VERTEX
  5
5DAF
  8
0
 10
144.27758375451049
 20
236.96965511460289
 30
0.0
  0
VERTEX
  5
5DB0
  8
0
 10
143.93019630876381
 20
236.30357491388139
 30
0.0
  0
VERTEX
  5
5DB1
  8
0
 10
143.66196781210809
 20
235.62606910301821
 30
0.0
  0
VERTEX
  5
5DB2
  8
0
 10
143.48899559644309
 20
234.93126498184441
 30
0.0
  0
VERTEX
  5
5DB3
  8
0
 10
143.4290779784786
 20
234.2272413359521
 30
0.0
  0
SEQEND
  5
5DB4
  8
0
  0
LINE
  5
5100
  8
0
 10
152.5805722024468
 20
231.48482755730129
 30
0.0
 11
144.27758375451049
 21
231.48482755730129
 31
0.0
  0
POLYLINE
  5
5101
  8
0
 66
     1
 10
0.0
 20
0.0
 30
0.0
  0
VERTEX
  5
5DB5
  8
0
 10
153.42907797847869
 20
234.2272413359521
 30
0.0
  0
VERTEX
  5
5DB6
  8
0
 10
153.42445695942169
 20
234.4222650636427
 30
0.0
  0
VERTEX
  5
5DB7
  8
0
 10
153.3452900186025
 20
235.0606734469327
 30
0.0
  0
VERTEX
  5
5DB8
  8
0
 10
153.17218211391801
 20
235.69796934951199
 30
0.0
  0
VERTEX
  5
5DB9
  8
0
 10
152.91244728200559
 20
236.3368919892234
 30
0.0
  0
VERTEX
  5
5DBA
  8
0
 10
152.5805722024468
 20
236.96965511460289
 30
0.0
  0
SEQEND
  5
5DBB
  8
0
  0
LINE
  5
5102
  8
0
 10
152.5805722024468
 20
236.96965511460289
 30
0.0
 11
144.27758375451049
 21
236.96965511460289
 31
0.0
  0
POLYLINE
  5
5103
  8
0
 66
     1
 10
0.0
 20
0.0
 30
0.0
  0
VERTEX
  5
5DBC
  8
0
 10
152.5805722024468
 20
220.5151724426984
 30
0.0
  0
VERTEX
  5
5DBD
  8
0
 10
152.89845416717461
 20
221.72133601410769
 30
0.0
  0
VERTEX
  5
5DBE
  8
0
 10
153.120679233342
 20
222.7697658020229
 30
0.0
  0
VERTEX
  5
5DBF
  8
0
 10
153.2879655675342
 20
223.8312211779627
 30
0.0
  0
VERTEX
  5
5DC0
  8
0
 10
153.39316959276519
 20
224.9111583873258
 30
0.0
  0
VERTEX
  5
5DC1
  8
0
 10
153.42907797847869
 20
225.99999999999989
 30
0.0
  0
SEQEND
  5
5DC2
  8
0
  0
POLYLINE
  5
5104
  8
0
 66
     1
 10
0.0
 20
0.0
 30
0.0
  0
VERTEX
  5
5DC3
  8
0
 10
153.42907797847869
 20
217.77275866404781
 30
0.0
  0
VERTEX
  5
5DC4
  8
0
 10
153.42445695942169
 20
217.9677823917383
 30
0.0
  0
VERTEX
  5
5DC5
  8
0
 10
153.34529001860261
 20
218.6061907750283
 30
0.0
  0
VERTEX
  5
5DC6
  8
0
 10
153.17218211391801
 20
219.24348667760771
 30
0.0
  0
VERTEX
  5
5DC7
  8
0
 10
152.9124472820057
 20
219.88240931731909
 30
0.0
  0
VERTEX
  5
5DC8
  8
0
 10
152.5805722024468
 20
220.5151724426984
 30
0.0
  0
SEQEND
  5
5DC9
  8
0
  0
POLYLINE
  5
5105
  8
0
 66
     1
 10
0.0
 20
0.0
 30
0.0
  0
VERTEX
  5
5DCA
  8
0
 10
143.4290779784786
 20
234.2272413359521
 30
0.0
  0
VERTEX
  5
5DCB
  8
0
 10
143.4336989975356
 20
234.0322176082615
 30
0.0
  0
VERTEX
  5
5DCC
  8
0
 10
143.51286593835491
 20
233.39380922497159
 30
0.0
  0
VERTEX
  5
5DCD
  8
0
 10
143.68597384303931
 20
232.75651332239221
 30
0.0
  0
VERTEX
  5
5DCE
  8
0
 10
143.9457086749517
 20
232.1175906826808
 30
0.0
  0
VERTEX
  5
5DCF
  8
0
 10
144.27758375451049
 20
231.48482755730129
 30
0.0
  0
SEQEND
  5
5DD0
  8
0
  0
POLYLINE
  5
5106
  8
0
 66
     1
 10
0.0
 20
0.0
 30
0.0
  0
VERTEX
  5
5DD1
  8
0
 10
144.27758375451049
 20
231.48482755730129
 30
0.0
  0
VERTEX
  5
5DD2
  8
0
 10
144.00600939384151
 20
230.47043570924589
 30
0.0
  0
VERTEX
  5
5DD3
  8
0
 10
143.7786405912033
 20
229.44533394147669
 30
0.0
  0
VERTEX
  5
5DD4
  8
0
 10
143.60152392399979
 20
228.4002303884439
 30
0.0
  0
VERTEX
  5
5DD5
  8
0
 10
143.48392839920521
 20
227.3468839225209
 30
0.0
  0
VERTEX
  5
5DD6
  8
0
 10
143.44288696760029
 20
226.674545483255
 30
0.0
  0
VERTEX
  5
5DD7
  8
0
 10
143.4290779784786
 20
225.99999999999989
 30
0.0
  0
SEQEND
  5
5DD8
  8
0
  0
POLYLINE
  5
5107
  8
0
 66
     1
 10
0.0
 20
0.0
 30
0.0
  0
VERTEX
  5
5DD9
  8
0
 10
153.42907797847869
 20
225.99999999999989
 30
0.0
  0
VERTEX
  5
5DDA
  8
0
 10
153.4153140775008
 20
226.67344196126049
 30
0.0
  0
VERTEX
  5
5DDB
  8
0
 10
153.37422755775211
 20
227.3468839225209
 30
0.0
  0
VERTEX
  5
5DDC
  8
0
 10
153.2581209637529
 20
228.3897026551858
 30
0.0
  0
VERTEX
  5
5DDD
  8
0
 10
153.08361247129119
 20
229.4244637030462
 30
0.0
  0
VERTEX
  5
5DDE
  8
0
 10
152.85468301277561
 20
230.4601066504184
 30
0.0
  0
VERTEX
  5
5DDF
  8
0
 10
152.5805722024468
 20
231.48482755730129
 30
0.0
  0
SEQEND
  5
5DE0
  8
0
  0
POLYLINE
  5
5108
  8
0
 66
     1
 10
0.0
 20
0.0
 30
0.0
  0
VERTEX
  5
5DE1
  8
0
 10
152.5805722024468
 20
231.48482755730129
 30
0.0
  0
VERTEX
  5
5DE2
  8
0
 10
152.92795964819351
 20
232.1509077580229
 30
0.0
  0
VERTEX
  5
5DE3
  8
0
 10
153.1961881448492
 20
232.82841356888599
 30
0.0
  0
VERTEX
  5
5DE4
  8
0
 10
153.36916036051429
 20
233.52321769005979
 30
0.0
  0
VERTEX
  5
5DE5
  8
0
 10
153.42907797847869
 20
234.2272413359521
 30
0.0
  0
SEQEND
  5
5DE6
  8
0
  0
POLYLINE
  5
5109
  8
0
 66
     1
 10
0.0
 20
0.0
 30
0.0
  0
VERTEX
  5
5DE7
  8
0
 10
143.4290779784786
 20
225.99999999999989
 30
0.0
  0
VERTEX
  5
5DE8
  8
0
 10
143.46373666973369
 20
224.93033400352689
 30
0.0
  0
VERTEX
  5
5DE9
  8
0
 10
143.56643094051441
 20
223.86066800705379
 30
0.0
  0
VERTEX
  5
5DEA
  8
0
 10
143.7342177702858
 20
222.78734288925301
 30
0.0
  0
VERTEX
  5
5DEB
  8
0
 10
143.95970178978271
 20
221.72133601410769
 30
0.0
  0
VERTEX
  5
5DEC
  8
0
 10
144.27758375451049
 20
220.5151724426984
 30
0.0
  0
SEQEND
  5
5DED
  8
0
  0
POLYLINE
  5
510A
  8
0
 66
     1
 10
0.0
 20
0.0
 30
0.0
  0
VERTEX
  5
5DEE
  8
0
 10
144.27758375451049
 20
220.5151724426984
 30
0.0
  0
VERTEX
  5
5DEF
  8
0
 10
143.93019630876381
 20
219.8490922419771
 30
0.0
  0
VERTEX
  5
5DF0
  8
0
 10
143.66196781210809
 20
219.17158643111389
 30
0.0
  0
VERTEX
  5
5DF1
  8
0
 10
143.48899559644309
 20
218.47678230994009
 30
0.0
  0
VERTEX
  5
5DF2
  8
0
 10
143.4290779784786
 20
217.77275866404781
 30
0.0
  0
SEQEND
  5
5DF3
  8
0
  0
LINE
  5
510B
  8
3
 10
160.50000000000011
 20
230.9265
 30
0.0
 11
153.4290779784786
 21
230.9265
 31
0.0
  0
LINE
  5
510C
  8
3
 10
160.50000000000011
 20
221.07349999999991
 30
0.0
 11
153.4290779784786
 21
221.07349999999991
 31
0.0
  0
LINE
  5
5121
  8
0
 10
50.999999999999432
 20
70.499999999999886
 30
0.0
 11
70.999999999999375
 21
70.499999999999815
 31
0.0
  0
LINE
  5
5122
  8
0
 10
57.573017763836333
 20
68.874191327154108
 30
0.0
 11
56.129882723802211
 21
70.09479606245452
 31
0.0
  0
LINE
  5
5123
  8
0
 10
57.074661209909891
 20
69.295701686694997
 30
0.0
 11
58.090130397568139
 21
69.295701733888336
 31
0.0
  0
LINE
  5
5128
  8
0
 10
56.660307227085241
 20
67.486938166653204
 30
0.0
 11
59.456963584445468
 21
69.766557116669333
 31
0.0
  0
LINE
  5
5129
  8
0
 10
59.113145808920528
 20
70.129585135697425
 30
0.0
 11
56.316489458308752
 21
67.84996619207277
 31
0.0
  0
LINE
  5
5133
  8
0
 10
50.999999999999432
 20
71.999999999999886
 30
0.0
 11
50.999999999999432
 21
70.499999999999886
 31
0.0
  0
LINE
  5
5135
  8
0
 10
50.750000015570549
 20
68.520854074886415
 30
0.0
 11
50.749999986762077
 21
69.295701392759611
 31
0.0
  0
LINE
  5
5136
  8
0
 10
50.749999963995613
 20
69.295701392759611
 30
0.0
 11
54.952262835331112
 21
69.295701588057554
 31
0.0
  0
LINE
  5
5137
  8
0
 10
53.646957316495218
 20
67.454255954395876
 30
0.0
 11
54.075217509786633
 21
67.196199347799052
 31
0.0
  0
LINE
  5
5138
  8
0
 10
54.075217509786633
 20
67.196199347799052
 30
0.0
 11
56.161736094021308
 21
70.139732859767264
 31
0.0
  0
LINE
  5
5139
  8
0
 10
56.161736094021308
 20
70.139732859767264
 30
0.0
 11
55.733475895932543
 21
70.397789458402826
 31
0.0
  0
LINE
  5
513A
  8
0
 10
55.733475895932543
 20
70.397789458402826
 30
0.0
 11
53.646957316495218
 21
67.454255954395876
 31
0.0
  0
LINE
  5
513B
  8
0
 10
56.316489458308752
 20
67.84996619207277
 30
0.0
 11
56.660307227085241
 21
67.486938166653204
 31
0.0
  0
LINE
  5
513C
  8
0
 10
50.749999986762077
 20
68.520854074886415
 30
0.0
 11
52.839528029035129
 21
68.520854191418152
 31
0.0
  0
LINE
  5
513D
  8
0
 10
53.52381905224518
 20
68.520854229580493
 30
0.0
 11
54.403013674354042
 21
68.520854278612717
 31
0.0
  0
LINE
  5
513E
  8
0
 10
55.56344602269359
 20
69.295701616462111
 30
0.0
 11
56.395692808556987
 21
69.295701655140306
 31
0.0
  0
LINE
  5
513F
  8
0
 10
54.073472182717524
 20
68.055957185842203
 30
0.0
 11
52.60770822282575
 21
69.295701479095669
 31
0.0
  0
LINE
  5
5140
  8
0
 10
51.959769099727957
 20
69.295701448982982
 30
0.0
 11
53.802077120035158
 21
67.673089538412214
 31
0.0
  0
LINE
  5
5141
  8
0
 10
55.887090551228987
 20
69.743652850807393
 30
0.0
 11
57.21012606480258
 21
68.578389952980729
 31
0.0
  0
LINE
  5
5142
  8
0
 10
55.629434781090588
 20
70.251014581653749
 30
0.0
 11
52.980073699310651
 21
69.295610853769404
 31
0.0
  0
LINE
  5
514C
  8
0
 10
62.931329563920819
 20
67.36890005927512
 30
0.0
 11
65.535431542422657
 21
69.866219066530675
 31
0.0
  0
LINE
  5
514D
  8
0
 10
65.163510008295574
 20
70.200396231847208
 30
0.0
 11
62.559408036006062
 21
67.703077231505503
 31
0.0
  0
LINE
  5
514E
  8
0
 10
64.132540809266857
 20
68.520854821222429
 30
0.0
 11
66.309433719871777
 21
68.520854942626329
 31
0.0
  0
LINE
  5
5151
  8
0
 10
59.456963584445468
 20
69.766557116669333
 30
0.0
 11
59.113145808920528
 21
70.129585135697425
 31
0.0
  0
LINE
  5
5152
  8
0
 10
59.487495307826521
 20
67.739858457144805
 30
0.0
 11
59.849660517699931
 21
67.395131947975983
 31
0.0
  0
LINE
  5
5153
  8
0
 10
59.849660517699931
 20
67.395131947975983
 30
0.0
 11
62.524448737988678
 21
69.816589631901252
 31
0.0
  0
LINE
  5
5154
  8
0
 10
62.524448737988678
 20
69.816589631901252
 30
0.0
 11
62.162283521706968
 21
70.16131613433754
 31
0.0
  0
LINE
  5
5155
  8
0
 10
62.162283521706968
 20
70.16131613433754
 30
0.0
 11
59.487495307826521
 21
67.739858457144805
 31
0.0
  0
LINE
  5
5156
  8
0
 10
62.559408036006062
 20
67.703077231505503
 30
0.0
 11
62.931329563920819
 21
67.36890005927512
 31
0.0
  0
LINE
  5
5157
  8
0
 10
61.093155230520779
 20
68.520854651717741
 30
0.0
 11
63.329841454484487
 21
68.520854776456403
 31
0.0
  0
LINE
  5
5158
  8
0
 10
61.949066255262331
 20
69.295701913230346
 30
0.0
 11
62.450082635885792
 21
69.295701936514888
 31
0.0
  0
LINE
  5
5159
  8
0
 10
58.879314150065511
 20
69.295701770565302
 30
0.0
 11
59.326571434668949
 21
69.295701791351348
 31
0.0
  0
LINE
  5
515A
  8
0
 10
60.621436209750748
 20
68.766403246073594
 30
0.0
 11
59.447786750583873
 21
69.759076868223019
 31
0.0
  0
LINE
  5
515B
  8
0
 10
59.111596737981699
 20
69.485040652970042
 30
0.0
 11
60.279252762993558
 21
68.456628165617303
 31
0.0
  0
LINE
  5
515C
  8
0
 10
63.704791273885341
 20
68.801493250949534
 30
0.0
 11
62.514876559112508
 21
69.80792403889626
 31
0.0
  0
LINE
  5
515D
  8
0
 10
62.196132504391016
 20
69.519368393759009
 30
0.0
 11
63.3727475758526
 21
68.483065230516885
 31
0.0
  0
LINE
  5
515E
  8
0
 10
59.995640405332999
 20
69.295701822445949
 30
0.0
 11
61.206109548257473
 21
69.295701878701934
 31
0.0
  0
LINE
  5
515F
  8
0
 10
63.12048261477139
 20
69.295701967671334
 30
0.0
 11
64.220131935949667
 21
69.295702018777092
 31
0.0
  0
LINE
  5
5160
  8
0
 10
57.928724748077222
 20
68.520854475239389
 30
0.0
 11
60.206330286231371
 21
68.520854602260101
 31
0.0
  0
LINE
  5
5161
  8
0
 10
70.999999999999432
 20
71.999999999999886
 30
0.0
 11
70.999999999999432
 21
70.499999999999886
 31
0.0
  0
LINE
  5
5162
  8
0
 10
68.121053263386784
 20
70.315205046183564
 30
0.0
 11
67.656455770485294
 21
70.499999999999886
 31
0.0
  0
LINE
  5
5163
  8
0
 10
71.250000033669039
 20
68.520855218158644
 30
0.0
 11
71.249999963995606
 21
69.295702345486461
 31
0.0
  0
LINE
  5
5164
  8
0
 10
67.247855271235949
 20
68.52085499496161
 30
0.0
 11
71.250000053914391
 21
68.520855218158644
 31
0.0
  0
LINE
  5
5165
  8
0
 10
68.675597391933252
 20
69.295702225842433
 30
0.0
 11
71.249999963995606
 21
69.295702345486461
 31
0.0
  0
LINE
  5
5166
  8
0
 10
67.780736647214098
 20
69.61588239181367
 30
0.0
 11
68.763872308061764
 21
68.52085507950892
 31
0.0
  0
LINE
  5
5167
  8
0
 10
69.399811388493163
 20
68.520855114974765
 30
0.0
 11
67.984665793523448
 21
70.034940013813866
 31
0.0
  0
LINE
  5
5168
  8
0
 10
65.535431542422657
 20
69.866219066530675
 30
0.0
 11
65.163510008295574
 21
70.200396231847208
 31
0.0
  0
LINE
  5
5169
  8
0
 10
66.077666049376603
 20
67.255716983974594
 30
0.0
 11
66.542263538842917
 21
67.070922021521369
 31
0.0
  0
LINE
  5
516A
  8
0
 10
64.940519766504849
 20
69.295702052256715
 30
0.0
 11
65.429674932717944
 21
69.29570207498989
 31
0.0
  0
LINE
  5
516B
  8
0
 10
65.174695412014842
 20
69.520275166288457
 30
0.0
 11
66.578154384360687
 21
68.284179345489747
 31
0.0
  0
LINE
  5
516C
  8
0
 10
66.786474484095606
 20
68.712260015404809
 30
0.0
 11
65.482336339685617
 21
69.815301068662734
 31
0.0
  0
LINE
  5
516D
  8
0
 10
66.542263538842917
 20
67.070922021521369
 30
0.0
 11
68.121053263386784
 21
70.315205046183564
 31
0.0
  0
LINE
  5
516E
  8
0
 10
67.656455770485294
 20
70.499999999999886
 30
0.0
 11
66.077666049376603
 21
67.255716983974594
 31
0.0
  0
LINE
  5
516F
  8
0
 10
66.542263538842917
 20
67.070922021521369
 30
0.0
 11
68.95283974174572
 21
68.520855090047462
 31
0.0
  0
LINE
  5
5170
  8
0
 10
66.096664179088066
 20
69.295702105987857
 30
0.0
 11
67.070399296564574
 21
69.295702151241699
 31
0.0
  0
LINE
  5
518B
  8
3
 10
65.926499999999351
 20
69.439627100539525
 30
0.0
 11
65.926499999999351
 21
70.499999999999815
 31
0.0
  0
LINE
  5
518D
  8
0
 10
66.999999999999304
 20
69.295702147969919
 30
0.0
 11
66.999999999999304
 21
70.499999999999773
 31
0.0
  0
LINE
  5
51D3
  8
3
 10
56.073499999999278
 20
70.192901252258153
 30
0.0
 11
56.073499999999292
 21
70.499999999999815
 31
0.0
  0
LINE
  5
51D5
  8
3
 10
56.073499999999292
 20
69.295701640166541
 30
0.0
 11
56.073499999999292
 21
69.579472817673107
 31
0.0
  0
LINE
  5
51D6
  8
0
 10
54.999999999999318
 20
68.500826237676932
 30
0.0
 11
54.999999999999318
 21
67.070922021521369
 31
0.0
  0
LINE
  5
51D7
  8
0
 10
55.014196865966092
 20
68.520854312698077
 30
0.0
 11
57.13954098620934
 21
68.520854431227121
 31
0.0
  0
LINE
  5
52AC
  8
0
 10
141.20429865312701
 20
139.74999996399629
 30
0.0
 11
141.20429845782891
 21
143.95226283533179
 31
0.0
  0
LINE
  5
52AF
  8
0
 10
143.3038006980874
 20
143.07521750978731
 30
0.0
 11
140.3602671861193
 21
145.16173609402199
 31
0.0
  0
LINE
  5
52B0
  8
0
 10
140.10221058748371
 20
144.73347589593311
 30
0.0
 11
143.04574409149069
 21
142.6469573164957
 31
0.0
  0
LINE
  5
52B1
  8
0
 10
140.2489854642327
 20
144.62943478109119
 30
0.0
 11
141.20438919211719
 21
141.9800736993113
 31
0.0
  0
LINE
  5
52BA
  8
0
 10
138.50000000000011
 20
139.99999999999989
 30
0.0
 11
140.00000000000011
 21
139.99999999999989
 31
0.0
  0
LINE
  5
52BB
  8
0
 10
142.4440428600445
 20
143.07347218271821
 30
0.0
 11
141.2042985667909
 21
141.6077082228264
 31
0.0
  0
LINE
  5
52BC
  8
0
 10
141.20429859690361
 20
140.95976909972859
 30
0.0
 11
142.82691050747431
 21
142.8020771200357
 31
0.0
  0
LINE
  5
52BD
  8
0
 10
141.97914597100009
 20
139.75000001557109
 30
0.0
 11
141.20429865312701
 21
139.74999998676259
 31
0.0
  0
LINE
  5
52BE
  8
0
 10
141.97914597100009
 20
139.74999998676259
 30
0.0
 11
141.9791458544685
 21
141.83952802903579
 31
0.0
  0
LINE
  5
52BF
  8
0
 10
143.04574409149069
 20
142.6469573164957
 30
0.0
 11
143.3038006980874
 21
143.07521750978731
 31
0.0
  0
LINE
  5
52CB
  8
0
 10
141.97914522466419
 20
153.1325408092674
 30
0.0
 11
141.97914510326029
 21
155.30943371987249
 31
0.0
  0
LINE
  5
52CC
  8
0
 10
141.20429799362989
 20
153.94051976650539
 30
0.0
 11
141.20429797089659
 21
154.42967493271851
 31
0.0
  0
LINE
  5
52CD
  8
0
 10
140.00000000000011
 20
159.99999999999989
 30
0.0
 11
140.00000000000011
 21
140.0
 31
0.0
  0
LINE
  5
52CE
  8
0
 10
143.1310999866115
 20
151.93132956392151
 30
0.0
 11
140.63378097935589
 21
154.5354315424232
 31
0.0
  0
LINE
  5
52CF
  8
0
 10
140.29960381403939
 20
154.1635100082961
 30
0.0
 11
142.79692281438099
 21
151.5594080360068
 31
0.0
  0
LINE
  5
52D1
  8
0
 10
143.0130618792335
 20
145.66030722708581
 30
0.0
 11
140.7334429292174
 21
148.45696358444599
 31
0.0
  0
LINE
  5
52D2
  8
0
 10
143.1048680979105
 20
148.84966051770061
 30
0.0
 11
140.68341041398531
 21
151.5244487379893
 31
0.0
  0
LINE
  5
52D3
  8
0
 10
141.97914557064709
 20
146.92872474807791
 30
0.0
 11
141.97914544362641
 21
149.20633028623209
 31
0.0
  0
LINE
  5
52D4
  8
0
 10
141.20429827532129
 20
147.87931415006599
 30
0.0
 11
141.2042982545353
 21
148.3265714346696
 31
0.0
  0
LINE
  5
52D5
  8
0
 10
140.75303143188179
 20
144.8833258450222
 30
0.0
 11
141.92161009290601
 21
146.21012606480309
 31
0.0
  0
LINE
  5
52D6
  8
0
 10
141.7335967998128
 20
149.62143620975129
 30
0.0
 11
140.7409231776636
 21
148.44778675058461
 31
0.0
  0
LINE
  5
52D7
  8
0
 10
141.01495939291641
 20
148.11159673798241
 30
0.0
 11
142.04337188026921
 21
149.2792527629941
 31
0.0
  0
LINE
  5
52D8
  8
0
 10
141.20429835919151
 20
146.0746612099104
 30
0.0
 11
141.20429831199829
 21
147.09013039756869
 31
0.0
  0
LINE
  5
52D9
  8
0
 10
141.20429813265611
 20
150.94906625526289
 30
0.0
 11
141.20429810937171
 21
151.45008263588639
 31
0.0
  0
LINE
  5
52DA
  8
0
 10
141.2042982234405
 20
148.99564040533369
 30
0.0
 11
141.20429816718459
 21
150.2061095482581
 31
0.0
  0
LINE
  5
52DB
  8
0
 10
142.6500338538138
 20
145.31648945830941
 30
0.0
 11
143.0130618792335
 21
145.66030722708581
 31
0.0
  0
LINE
  5
52DC
  8
0
 10
142.7601415887417
 20
148.48749530782709
 30
0.0
 11
143.1048680979105
 21
148.84966051770061
 31
0.0
  0
LINE
  5
52DD
  8
0
 10
142.79692281438099
 20
151.5594080360068
 30
0.0
 11
143.1310999866115
 21
151.93132956392151
 31
0.0
  0
LINE
  5
52DE
  8
0
 10
141.97914581630599
 20
142.52381905224581
 30
0.0
 11
141.97914576727379
 21
143.40301367435461
 31
0.0
  0
LINE
  5
52DF
  8
0
 10
141.20429842942451
 20
144.56344602269419
 30
0.0
 11
141.2042983907462
 21
145.39569280855761
 31
0.0
  0
LINE
  5
52E0
  8
0
 10
140.3602671861193
 20
145.16173609402199
 30
0.0
 11
140.10221058748371
 21
144.73347589593311
 31
0.0
  0
LINE
  5
52E1
  8
0
 10
140.3704149101892
 20
148.1131458089211
 30
0.0
 11
142.6500338538138
 21
145.31648945830941
 31
0.0
  0
LINE
  5
52E2
  8
0
 10
140.33868391154911
 20
151.16228352170751
 30
0.0
 11
142.7601415887417
 21
148.48749530782709
 31
0.0
  0
LINE
  5
52E3
  8
0
 10
140.7334429292174
 20
148.45696358444599
 30
0.0
 11
140.3704149101892
 21
148.1131458089211
 31
0.0
  0
LINE
  5
52E4
  8
0
 10
141.6258087187324
 20
146.57301776383699
 30
0.0
 11
140.40520398343199
 21
145.12988272380281
 31
0.0
  0
LINE
  5
52E5
  8
0
 10
140.68341041398531
 20
151.5244487379893
 30
0.0
 11
140.33868391154911
 21
151.16228352170751
 31
0.0
  0
LINE
  5
52E6
  8
0
 10
141.20429807821509
 20
152.1204826147719
 30
0.0
 11
141.2042980271095
 21
153.22013193595041
 31
0.0
  0
LINE
  5
52E7
  8
0
 10
141.97914539416871
 20
150.09315523052129
 30
0.0
 11
141.97914526943021
 21
152.32984145448521
 31
0.0
  0
LINE
  5
52E8
  8
0
 10
141.69850679493709
 20
152.70479127388589
 30
0.0
 11
140.69207600699031
 21
151.5148765591133
 31
0.0
  0
LINE
  5
52E9
  8
0
 10
140.9806316521275
 20
151.19613250439161
 30
0.0
 11
142.01693481536961
 21
152.3727475758532
 31
0.0
  0
LINE
  5
52EA
  8
0
 10
138.50000000000011
 20
159.99999999999989
 30
0.0
 11
140.00000000000011
 21
159.99999999999989
 31
0.0
  0
LINE
  5
52EB
  8
0
 10
143.42907802436511
 20
155.54226353884351
 30
0.0
 11
141.9791449558391
 21
157.9528397417464
 31
0.0
  0
LINE
  5
52EC
  8
0
 10
140.88411765407281
 20
156.78073664721461
 30
0.0
 11
141.9791449663777
 21
157.7638723080625
 31
0.0
  0
LINE
  5
52ED
  8
0
 10
140.97972487959811
 20
154.1746954120155
 30
0.0
 11
142.2158207003969
 21
155.5781543843612
 31
0.0
  0
LINE
  5
52EE
  8
0
 10
141.78774003048181
 20
155.7864744840962
 30
0.0
 11
140.6846989772238
 21
154.48233633968621
 31
0.0
  0
LINE
  5
52EF
  8
0
 10
141.20429793989871
 20
155.09666417908861
 30
0.0
 11
141.20429789464481
 21
156.07039929656511
 31
0.0
  0
LINE
  5
52F0
  8
0
 10
141.9791449309117
 20
158.39981138849379
 30
0.0
 11
140.46506003207261
 21
156.98466579352419
 31
0.0
  0
LINE
  5
52F1
  8
0
 10
143.24428306191211
 20
155.0776660493772
 30
0.0
 11
143.42907802436511
 21
155.54226353884351
 31
0.0
  0
LINE
  5
52F2
  8
0
 10
141.97914482772799
 20
160.25000003366961
 30
0.0
 11
141.2042977004001
 21
160.2499999639962
 31
0.0
  0
LINE
  5
52F4
  8
0
 10
141.97914505092501
 20
156.24785527123649
 30
0.0
 11
141.97914482772799
 21
160.2500000539151
 31
0.0
  0
LINE
  5
52F5
  8
0
 10
141.20429782004419
 20
157.67559739193391
 30
0.0
 11
141.2042977004001
 21
160.2499999639962
 31
0.0
  0
LINE
  5
52F6
  8
0
 10
140.184794999703
 20
157.12105326338741
 30
0.0
 11
140.00000004588659
 21
156.65645577048591
 31
0.0
  0
LINE
  5
52F7
  8
0
 10
143.42907802436511
 20
155.54226353884351
 30
0.0
 11
140.184794999703
 21
157.12105326338741
 31
0.0
  0
LINE
  5
52F8
  8
0
 10
140.00000004588659
 20
156.65645577048591
 30
0.0
 11
143.24428306191211
 21
155.0776660493772
 31
0.0
  0
LINE
  5
52F9
  8
0
 10
140.63378097935589
 20
154.5354315424232
 30
0.0
 11
140.29960381403939
 21
154.1635100082961
 31
0.0
  0
LINE
  5
530C
  8
0
 10
140.0
 20
216.0
 30
0.0
 11
140.0
 21
235.99999999999989
 31
0.0
  0
LINE
  5
5310
  8
0
 10
143.13109999137379
 20
224.06867043607829
 30
0.0
 11
140.6337809841182
 21
221.4645684575766
 31
0.0
  0
LINE
  5
5311
  8
0
 10
140.2996038188017
 20
221.8364899917037
 30
0.0
 11
142.79692281914319
 21
224.44059196399311
 31
0.0
  0
LINE
  5
5312
  8
0
 10
141.97914522942639
 20
222.8674591907324
 30
0.0
 11
141.97914510802261
 21
220.6905662801274
 31
0.0
  0
LINE
  5
531B
  8
0
 10
138.5
 20
216.0
 30
0.0
 11
140.0
 21
216.0
 31
0.0
  0
LINE
  5
531C
  8
0
 10
140.6337809841182
 20
221.4645684575766
 30
0.0
 11
140.2996038188017
 21
221.8364899917037
 31
0.0
  0
LINE
  5
531D
  8
0
 10
143.2442830666744
 20
220.92233395062269
 30
0.0
 11
143.4290780291274
 21
220.4577364611564
 31
0.0
  0
LINE
  5
531E
  8
0
 10
143.4290780291274
 20
220.4577364611564
 30
0.0
 11
140.18479500446529
 21
218.87894673661251
 31
0.0
  0
LINE
  5
531F
  8
0
 10
140.18479500446529
 20
218.87894673661251
 30
0.0
 11
140.00000005064891
 21
219.34354422951401
 31
0.0
  0
LINE
  5
5320
  8
0
 10
140.00000005064891
 20
219.34354422951401
 30
0.0
 11
143.2442830666744
 21
220.92233395062269
 31
0.0
  0
LINE
  5
5321
  8
0
 10
141.20429799839221
 20
222.05948023349441
 30
0.0
 11
141.2042979756589
 21
221.57032506728129
 31
0.0
  0
LINE
  5
5322
  8
0
 10
140.88411765883509
 20
219.21926335278519
 30
0.0
 11
141.97914497113999
 21
218.23612769193741
 31
0.0
  0
LINE
  5
5323
  8
0
 10
143.4290780291274
 20
220.4577364611564
 30
0.0
 11
141.97914496060139
 21
218.04716025825351
 31
0.0
  0
LINE
  5
5324
  8
0
 10
140.97972488436031
 20
221.82530458798439
 30
0.0
 11
142.2158207051591
 21
220.4218456156386
 31
0.0
  0
LINE
  5
5325
  8
0
 10
141.7877400352441
 20
220.21352551590371
 30
0.0
 11
140.684698981986
 21
221.51766366031359
 31
0.0
  0
LINE
  5
5326
  8
0
 10
141.20429794466099
 20
220.9033358209112
 30
0.0
 11
141.20429789940709
 21
219.92960070343469
 31
0.0
  0
LINE
  5
5327
  8
0
 10
141.97914483249019
 20
215.74999996633019
 30
0.0
 11
141.20429770516239
 21
215.75000003600371
 31
0.0
  0
LINE
  5
5329
  8
0
 10
141.9791450556873
 20
219.75214472876331
 30
0.0
 11
141.97914483249019
 21
215.7499999460847
 31
0.0
  0
LINE
  5
532A
  8
0
 10
141.20429787363591
 20
219.3750750465515
 30
0.0
 11
141.2042978530348
 21
218.93179968564391
 31
0.0
  0
LINE
  5
532B
  8
0
 10
141.97914493567399
 20
217.6001886115061
 30
0.0
 11
140.4650600368349
 21
219.0153342064757
 31
0.0
  0
LINE
  5
5334
  8
0
 10
143.045744096253
 20
233.35304268350399
 30
0.0
 11
143.30380070284971
 21
232.92478249021249
 31
0.0
  0
LINE
  5
5335
  8
0
 10
140.10221059224591
 20
231.26652410406669
 30
0.0
 11
143.045744096253
 21
233.35304268350399
 31
0.0
  0
LINE
  5
5336
  8
0
 10
142.44404286480679
 20
232.9265278172816
 30
0.0
 11
141.20429857155321
 21
234.3922917771734
 31
0.0
  0
LINE
  5
5337
  8
0
 10
140.24898546899499
 20
231.37056521890869
 30
0.0
 11
141.2043891968795
 21
234.0199263006885
 31
0.0
  0
LINE
  5
5339
  8
0
 10
141.2042986578893
 20
236.25000003600351
 30
0.0
 11
141.2042984625912
 21
232.04773716466809
 31
0.0
  0
LINE
  5
533A
  8
0
 10
143.30380070284971
 20
232.92478249021249
 30
0.0
 11
140.36026719088159
 21
230.83826390597781
 31
0.0
  0
LINE
  5
533B
  8
0
 10
140.36026719088159
 20
230.83826390597781
 30
0.0
 11
140.10221059224591
 21
231.26652410406669
 31
0.0
  0
LINE
  5
533C
  8
0
 10
142.65003385857611
 20
230.68351054169051
 30
0.0
 11
143.01306188399579
 21
230.33969277291399
 31
0.0
  0
LINE
  5
533D
  8
0
 10
143.01306188399579
 20
230.33969277291399
 30
0.0
 11
140.73344293397969
 21
227.54303641555379
 31
0.0
  0
LINE
  5
533E
  8
0
 10
140.73344293397969
 20
227.54303641555379
 30
0.0
 11
140.37041491495151
 21
227.8868541910787
 31
0.0
  0
LINE
  5
533F
  8
0
 10
140.37041491495151
 20
227.8868541910787
 30
0.0
 11
142.65003385857611
 21
230.68351054169051
 31
0.0
  0
LINE
  5
5340
  8
0
 10
142.76014159350399
 20
227.51250469217271
 30
0.0
 11
143.10486810267281
 21
227.1503394822993
 31
0.0
  0
LINE
  5
5341
  8
0
 10
141.9791455754094
 20
229.07127525192189
 30
0.0
 11
141.97914544838869
 21
226.79366971376771
 31
0.0
  0
LINE
  5
5342
  8
0
 10
141.20429828008361
 20
228.12068584993369
 30
0.0
 11
141.2042982592975
 21
227.67342856533031
 31
0.0
  0
LINE
  5
5343
  8
0
 10
141.97914573795089
 20
231.98580313403309
 30
0.0
 11
141.97914561942159
 21
229.86045901378969
 31
0.0
  0
LINE
  5
5344
  8
0
 10
141.2042984341868
 20
231.43655397730561
 30
0.0
 11
141.20429839550849
 21
230.6043071914423
 31
0.0
  0
LINE
  5
5345
  8
0
 10
141.62580872349471
 20
229.42698223616279
 30
0.0
 11
140.40520398819419
 21
230.87011727619711
 31
0.0
  0
LINE
  5
5346
  8
0
 10
140.75303143664411
 20
231.1166741549776
 30
0.0
 11
141.92161009766829
 21
229.78987393519671
 31
0.0
  0
LINE
  5
5347
  8
0
 10
141.7335968045752
 20
226.37856379024859
 30
0.0
 11
140.7409231824258
 21
227.5522132494153
 31
0.0
  0
LINE
  5
5348
  8
0
 10
141.01495939767869
 20
227.8884032620175
 30
0.0
 11
142.0433718850316
 21
226.72074723700581
 31
0.0
  0
LINE
  5
5349
  8
0
 10
141.2042983639538
 20
229.9253387900894
 30
0.0
 11
141.2042983167606
 21
228.90986960243109
 31
0.0
  0
LINE
  5
534A
  8
0
 10
140.6834104187476
 20
224.4755512620105
 30
0.0
 11
140.33868391631131
 21
224.83771647829229
 31
0.0
  0
LINE
  5
534B
  8
0
 10
142.79692281914319
 20
224.44059196399311
 30
0.0
 11
143.13109999137379
 21
224.06867043607829
 31
0.0
  0
LINE
  5
534C
  8
0
 10
141.979145398931
 20
225.90684476947851
 30
0.0
 11
141.97914527419249
 21
223.67015854551471
 31
0.0
  0
LINE
  5
534D
  8
0
 10
141.20429813741839
 20
225.05093374473691
 30
0.0
 11
141.20429811413399
 21
224.5499173641135
 31
0.0
  0
LINE
  5
534E
  8
0
 10
141.6985067996994
 20
223.29520872611391
 30
0.0
 11
140.6920760117527
 21
224.48512344088681
 31
0.0
  0
LINE
  5
534F
  8
0
 10
140.98063165688981
 20
224.80386749560819
 30
0.0
 11
142.01693482013189
 21
223.62725242414669
 31
0.0
  0
LINE
  5
5350
  8
0
 10
141.2042980829774
 20
223.8795173852279
 30
0.0
 11
141.20429803187179
 21
222.77986806404951
 31
0.0
  0
LINE
  5
5351
  8
0
 10
143.10486810267281
 20
227.1503394822993
 30
0.0
 11
140.6834104187476
 21
224.4755512620105
 31
0.0
  0
LINE
  5
5352
  8
0
 10
140.33868391631131
 20
224.83771647829229
 30
0.0
 11
142.76014159350399
 21
227.51250469217271
 31
0.0
  0
LINE
  5
5353
  8
0
 10
141.20429822820279
 20
227.0043595946662
 30
0.0
 11
141.2042981719469
 21
225.79389045174179
 31
0.0
  0
LINE
  5
5354
  8
0
 10
138.5
 20
235.99999999999989
 30
0.0
 11
140.0
 21
235.99999999999989
 31
0.0
  0
LINE
  5
5355
  8
0
 10
141.97914597576229
 20
236.24999998442871
 30
0.0
 11
141.2042986578893
 21
236.25000001323721
 31
0.0
  0
LINE
  5
5356
  8
0
 10
141.97914597576229
 20
236.25000001323721
 30
0.0
 11
141.97914585923081
 21
234.1604719709639
 31
0.0
  0
LINE
  5
5357
  8
0
 10
141.2042986016659
 20
235.04023090027121
 30
0.0
 11
142.82691051223651
 21
233.1979228799641
 31
0.0
  0
LINE
  5
537A
  8
3
 10
143.4290779784786
 20
230.9265
 30
0.0
 11
141.979145673679
 21
230.9265
 31
0.0
  0
LINE
  5
537B
  8
3
 10
143.4290779784786
 20
221.07349999999991
 30
0.0
 11
141.9791451241833
 21
221.07349999999991
 31
0.0
  0
LINE
  5
537C
  8
3
 10
143.4290779784786
 20
154.9265
 30
0.0
 11
141.9791451241833
 21
154.9265
 31
0.0
  0
LINE
  5
537D
  8
3
 10
143.4290779784786
 20
145.0735
 30
0.0
 11
141.97914567367889
 21
145.07349999999991
 31
0.0
  0
LINE
  5
5404
  8
0
 10
141.2042978979166
 20
156.0
 30
0.0
 11
140.0
 21
155.99999999999989
 31
0.0
  0
LINE
  5
5405
  8
3
 10
141.06037294534701
 20
154.92649999999989
 30
0.0
 11
140.00000000000011
 21
154.9265
 31
0.0
  0
LINE
  5
5406
  8
3
 10
141.20429840615279
 20
145.07349999999991
 30
0.0
 11
140.9205272282135
 21
145.0735
 31
0.0
  0
LINE
  5
5407
  8
3
 10
140.3070987936284
 20
145.07349999999991
 30
0.0
 11
140.00000000000011
 21
145.07349999999991
 31
0.0
  0
LINE
  5
5408
  8
0
 10
141.99917380820969
 20
144.0
 30
0.0
 11
143.4290779784786
 21
143.99999999999989
 31
0.0
  0
LINE
  5
54D2
  8
3
 10
141.20429840615279
 20
230.9265
 30
0.0
 11
140.9205272329757
 21
230.9265
 31
0.0
  0
LINE
  5
54D3
  8
0
 10
140.4759701335054
 20
231.99999999999989
 30
0.0
 11
140.0
 21
231.9999999999998
 31
0.0
  0
LINE
  5
54D4
  8
3
 10
140.3070987983906
 20
230.92649999999989
 30
0.0
 11
139.99999999999989
 21
230.9265
 31
0.0
  0
LINE
  5
54D5
  8
0
 10
141.97914573318849
 20
144.0141968659668
 30
0.0
 11
141.97914561465939
 21
146.13954098621011
 31
0.0
  0
LINE
  5
5519
  8
0
 10
141.97914582106841
 20
233.47618094775399
 30
0.0
 11
141.9791457720363
 21
232.59698632564519
 31
0.0
  0
LINE
  5
551A
  8
3
 10
141.06037295010941
 20
221.0734999999998
 30
0.0
 11
139.99999999999989
 21
221.0734999999998
 31
0.0
  0
LINE
  5
551B
  8
0
 10
141.2042978248065
 20
218.3244026080659
 30
0.0
 11
141.20429770516239
 21
215.75000003600371
 31
0.0
  0
LINE
  5
551C
  8
0
 10
143.15375496284079
 20
220.0
 30
0.0
 11
143.4290779784786
 21
219.99999999999989
 31
0.0
  0
ARC
  5
560E
  8
0
 10
61.0
 20
149.99999999999989
 30
0.0
 40
7.9000000000000004
 50
7.2721395549403187
 51
172.72786044505969
  0
ARC
  5
560F
  8
0
 10
61.0
 20
149.99999999999989
 30
0.0
 40
7.9000000000000004
 50
187.27213955493849
 51
352.72786044506148
  0
ARC
  5
5610
  8
0
 10
61.00000000000022
 20
225.99999999999989
 30
0.0
 40
7.9000000000000004
 50
7.2721395549384544
 51
172.72786044506009
  0
ARC
  5
5611
  8
0
 10
61.00000000000022
 20
225.99999999999989
 30
0.0
 40
7.9000000000000004
 50
187.27213955493869
 51
352.72786044505989
  0
INSERT
  5
5903
  8
0
  6
CONTINUOUS
  2
*U0
 10
0.0
 20
0.0
 30
0.0
1001
GRADIENTCOLOR1ACI
1070
     5
1001
GRADIENTCOLOR2ACI
1070
     2
1001
ACAD
1002
{
1000
R14_HATCH_DATA
1000
5903
1011
1.0
1021
0.0
1031
0.0
1021
0.0
1031
0.0
1011
0.0
1021
0.0
1031
0.0
1021
1.0
1031
0.0
1011
0.0
1021
0.0
1031
0.0
1021
0.0
1031
1.0
1040
0.0
1010
0.0
1020
0.0
1030
1.0
1000
SOLID
1070
     1
1070
     0
1071
        2
1071
        7
1070
     0
1070
     1
1071
        4
1040
53.499999999998998
1040
208.65000000000009
1040
53.499999999998998
1040
207.35000000000011
1040
59.899999999999658
1040
207.35000000000011
1040
59.899999999999658
1040
208.65000000000009
1071
        0
1071
        7
1070
     0
1070
     1
1071
        4
1040
68.499999999999005
1040
207.35000000000011
1040
68.499999999999005
1040
208.65000000000009
1040
62.099999999999589
1040
208.65000000000009
1040
62.099999999999589
1040
207.35000000000011
1071
        0
1070
     1
1070
     1
1040
0.0763185417084659
1071
        2
1040
54.87903615317051
1040
208.18126961154869
1040
0.0
1040
67.322450571736312
1040
207.79967709393239
1040
0.0
1002
}
  0
LINE
  5
5904
  8
0
 10
59.899999999999707
 20
169.34052176940691
 30
0.0
 11
59.899999999999658
 21
213.62977178700871
 31
0.0
  0
LINE
  5
5905
  8
0
 10
62.099999999999653
 20
169.34999999999951
 30
0.0
 11
62.099999999999589
 21
213.62977178700871
 31
0.0
  0
INSERT
  5
5906
  8
0
  6
CONTINUOUS
  2
*U1
 10
0.0
 20
0.0
 30
0.0
1001
GRADIENTCOLOR1ACI
1070
     5
1001
GRADIENTCOLOR2ACI
1070
     2
1001
ACAD
1002
{
1000
R14_HATCH_DATA
1000
5906
1011
1.0
1021
0.0
1031
0.0
1021
0.0
1031
0.0
1011
0.0
1021
0.0
1031
0.0
1021
1.0
1031
0.0
1011
0.0
1021
0.0
1031
0.0
1021
0.0
1031
1.0
1040
0.0
1010
0.0
1020
0.0
1030
1.0
1000
SOLID
1070
     1
1070
     0
1071
        2
1071
        1
1071
        4
1070
     1
1040
53.499999999998998
1040
168.7499999999996
1040
53.499999999998998
1040
167.2499999999998
1070
     1
1040
53.499999999998998
1040
167.2499999999998
1040
58.922477188087782
1040
167.24999999999969
1070
     2
1040
60.99999999999946
1040
167.55642938172809
1040
2.0999999999999681
1040
2.9951510511471828
1040
3.7461123513637031
1070
     0
1070
     1
1040
59.272172121072082
1040
168.7499999999996
1040
53.499999999998998
1040
168.7499999999996
1071
        0
1071
        1
1071
        4
1070
     1
1040
68.499999999999005
1040
167.2499999999998
1040
68.499999999999005
1040
168.7499999999998
1070
     1
1040
68.499999999999005
1040
168.7499999999998
1040
62.727827878926689
1040
168.74999999999989
1070
     2
1040
60.999999999999467
1040
167.55642938172809
1040
2.1000000000000121
1040
5.6786656094055106
1040
6.4296269096221366
1070
     0
1070
     1
1040
63.077522811911209
1040
167.2499999999998
1040
68.499999999999005
1040
167.2499999999998
1071
        0
1070
     1
1070
     1
1071
        2
1040
58.196279916511308
1040
168.40487871975569
1040
0.0
1040
66.95629721546274
1040
167.8971942532805
1040
0.0
1002
}
  0
LINE
  5
5907
  8
0
 10
68.499999999999005
 20
213.4999999999998
 30
0.0
 11
68.499999999999005
 21
162.4999999999998
 31
0.0
  0
LINE
  5
5908
  8
0
 10
53.499999999998998
 20
162.49999999999969
 30
0.0
 11
53.499999999998998
 21
213.5
 31
0.0
  0
LINE
  5
5914
  8
0
 10
68.499999999999005
 20
167.2499999999998
 30
0.0
 11
63.077522811911209
 21
167.2499999999998
 31
0.0
  0
LINE
  5
5915
  8
0
 10
58.922477188087782
 20
167.24999999999969
 30
0.0
 11
53.499999999998998
 21
167.2499999999996
 31
0.0
  0
LINE
  5
5917
  8
0
 10
59.272172121072082
 20
168.7499999999996
 30
0.0
 11
53.499999999998998
 21
168.7499999999996
 31
0.0
  0
LINE
  5
5918
  8
0
 10
68.499999999999005
 20
168.75
 30
0.0
 11
62.727827878926668
 21
168.74999999999989
 31
0.0
  0
LINE
  5
591A
  8
0
 10
67.499999999999005
 20
161.4999999999998
 30
0.0
 11
63.510442116688537
 21
161.4999999999998
 31
0.0
  0
LINE
  5
591B
  8
0
 10
58.489557883310759
 20
161.4999999999998
 30
0.0
 11
54.499999999998991
 21
161.49999999999969
 31
0.0
  0
ARC
  5
591C
  8
0
 10
60.845881559334913
 20
166.1095574342333
 30
0.0
 40
2.4058329130009191
 50
143.66528979749361
 51
168.3561764750381
  0
LINE
  5
591E
  8
0
 10
58.489557883310759
 20
160.99999999999989
 30
0.0
 11
58.489557883310823
 21
166.5951197258978
 31
0.0
  0
TEXT
  5
591F
  8
0
 10
54.392621787568778
 20
164.52797555115211
 30
0.0
 40
1.1999999999999991
  1
HCZ
 41
1.129999999999999
  7
SIM110
 72
     1
 11
56.232907501854491
 21
164.52797555115211
 31
0.0
  0
ARC
  5
5920
  8
0
 10
54.499999999998991
 20
162.49999999999969
 30
0.0
 40
1.0
 50
180.0
 51
270.0
  0
LINE
  5
5921
  8
0
 10
59.899999999999771
 20
172.34999999999991
 30
0.0
 11
58.784537893613468
 21
172.34999999999991
 31
0.0
  0
LINE
  5
5922
  8
0
 10
58.784537893613468
 20
172.34999999999991
 30
0.0
 11
58.784537893613468
 21
169.34999999999991
 31
0.0
  0
LINE
  5
5923
  8
0
 10
59.899999999999771
 20
169.34999999999991
 30
0.0
 11
58.784537893613468
 21
169.34999999999991
 31
0.0
  0
LINE
  5
5924
  8
0
 10
59.899999999999771
 20
176.2999999999997
 30
0.0
 11
58.249999999998991
 21
176.2999999999997
 31
0.0
  0
LINE
  5
5925
  8
0
 10
59.899999999999771
 20
175.1399999999997
 30
0.0
 11
58.249999999998991
 21
175.1399999999997
 31
0.0
  0
LINE
  5
5926
  8
0
 10
59.899999999999771
 20
177.4599999999997
 30
0.0
 11
58.249999999998991
 21
177.4599999999997
 31
0.0
  0
LINE
  5
5927
  8
0
 10
59.899999999999771
 20
173.97999999999971
 30
0.0
 11
58.249999999998991
 21
173.97999999999971
 31
0.0
  0
LINE
  5
5928
  8
0
 10
59.899999999999771
 20
172.81999999999979
 30
0.0
 11
53.999999999998991
 21
172.81999999999971
 31
0.0
  0
TEXT
  5
5929
  8
0
 10
54.202407082972989
 20
173.55523804411649
 30
0.0
 40
1.7
  1
75
 41
0.8
  7
SIMPLEX
  0
ARC
  5
592A
  8
0
 10
61.154118440664341
 20
166.1095574342333
 30
0.0
 40
2.4058329130009191
 50
11.64382352496191
 51
35.723355232651173
  0
TEXT
  5
592B
  8
0
 10
63.87330939520259
 20
164.5509222722049
 30
0.0
 40
1.1999999999999991
  1
76/T
 41
0.8599999999999999
  7
SIMPLEX
  0
ARC
  5
592C
  8
0
 10
67.499999999999005
 20
162.4999999999998
 30
0.0
 40
1.0
 50
270.0
 51
0.0
  0
LINE
  5
592D
  8
0
 10
63.510442116688537
 20
160.99999999999989
 30
0.0
 11
63.510442116688537
 21
166.5951197258978
 31
0.0
  0
TEXT
  5
592F
  8
0
 10
65.45428868166303
 20
175.83636712401801
 30
0.0
 40
1.7
  1
30
 41
0.8
  7
SIMPLEX
  0
LINE
  5
5930
  8
0
 10
62.099999999999703
 20
175.29999999999981
 30
0.0
 11
67.999999999999005
 21
175.29999999999981
 31
0.0
  0
LINE
  5
5931
  8
0
 10
62.099999999999817
 20
172.34999999999991
 30
0.0
 11
63.215462106386013
 21
172.34999999999991
 31
0.0
  0
LINE
  5
5932
  8
0
 10
63.215462106386013
 20
172.34999999999991
 30
0.0
 11
63.215462106386013
 21
169.34999999999991
 31
0.0
  0
LINE
  5
5933
  8
0
 10
63.215462106386013
 20
169.34999999999991
 30
0.0
 11
62.099999999999703
 21
169.34999999999991
 31
0.0
  0
LINE
  5
5934
  8
0
 10
62.099999999999703
 20
177.39999999999981
 30
0.0
 11
63.749999999998998
 21
177.39999999999981
 31
0.0
  0
LINE
  5
5935
  8
0
 10
62.099999999999703
 20
173.19999999999979
 30
0.0
 11
63.749999999998998
 21
173.19999999999979
 31
0.0
  0
LINE
  5
5936
  8
0
 10
59.899999999999658
 20
187.89999999999969
 30
0.0
 11
58.249999999998991
 21
187.89999999999969
 31
0.0
  0
LINE
  5
5937
  8
0
 10
59.899999999999658
 20
183.25999999999971
 30
0.0
 11
58.249999999998991
 21
183.25999999999971
 31
0.0
  0
LINE
  5
5938
  8
0
 10
59.899999999999658
 20
182.09999999999971
 30
0.0
 11
58.249999999998991
 21
182.09999999999971
 31
0.0
  0
LINE
  5
5939
  8
0
 10
59.899999999999658
 20
186.7399999999997
 30
0.0
 11
58.249999999998991
 21
186.7399999999997
 31
0.0
  0
LINE
  5
593A
  8
0
 10
59.899999999999658
 20
185.57999999999959
 30
0.0
 11
58.249999999998991
 21
185.57999999999959
 31
0.0
  0
LINE
  5
593B
  8
0
 10
59.899999999999658
 20
180.9399999999996
 30
0.0
 11
58.249999999998991
 21
180.9399999999996
 31
0.0
  0
LINE
  5
593C
  8
0
 10
59.899999999999658
 20
179.77999999999969
 30
0.0
 11
58.249999999998991
 21
179.77999999999969
 31
0.0
  0
LINE
  5
593D
  8
0
 10
59.899999999999658
 20
184.4199999999997
 30
0.0
 11
53.999999999998991
 21
184.4199999999997
 31
0.0
  0
LINE
  5
593E
  8
0
 10
59.899999999999658
 20
178.61999999999981
 30
0.0
 11
53.999999999998991
 21
178.61999999999969
 31
0.0
  0
TEXT
  5
593F
  8
0
 10
54.202407082972989
 20
185.0498749737497
 30
0.0
 40
1.7
  1
125
 41
0.8
  7
SIMPLEX
  0
TEXT
  5
5940
  8
0
 10
54.202407082972989
 20
179.14850467379361
 30
0.0
 40
1.7
  1
100
 41
0.8
  7
SIMPLEX
  0
LINE
  5
5941
  8
0
 10
59.899999999999658
 20
198.33999999999961
 30
0.0
 11
58.249999999998991
 21
198.33999999999961
 31
0.0
  0
LINE
  5
5942
  8
0
 10
59.899999999999658
 20
194.85999999999959
 30
0.0
 11
58.249999999998991
 21
194.85999999999959
 31
0.0
  0
LINE
  5
5943
  8
0
 10
59.899999999999658
 20
197.17999999999969
 30
0.0
 11
58.249999999998991
 21
197.17999999999969
 31
0.0
  0
LINE
  5
5944
  8
0
 10
59.899999999999658
 20
189.05999999999969
 30
0.0
 11
58.249999999998991
 21
189.05999999999969
 31
0.0
  0
LINE
  5
5945
  8
0
 10
59.899999999999658
 20
193.69999999999959
 30
0.0
 11
58.249999999998991
 21
193.69999999999959
 31
0.0
  0
LINE
  5
5946
  8
0
 10
59.899999999999658
 20
192.53999999999971
 30
0.0
 11
58.249999999998991
 21
192.53999999999971
 31
0.0
  0
LINE
  5
5947
  8
0
 10
59.899999999999658
 20
191.37999999999971
 30
0.0
 11
58.249999999998991
 21
191.3799999999996
 31
0.0
  0
TEXT
  5
5948
  8
0
 10
54.202407082972989
 20
196.6801444267183
 30
0.0
 40
1.7
  1
175
 41
0.8
  7
SIMPLEX
  0
LINE
  5
5949
  8
0
 10
59.899999999999658
 20
196.0199999999997
 30
0.0
 11
53.999999999998991
 21
196.01999999999961
 31
0.0
  0
LINE
  5
594A
  8
0
 10
59.899999999999658
 20
190.2199999999996
 30
0.0
 11
53.999999999998991
 21
190.2199999999996
 31
0.0
  0
TEXT
  5
594B
  8
0
 10
54.202407082972989
 20
190.88014442671829
 30
0.0
 40
1.7
  1
150
 41
0.8
  7
SIMPLEX
  0
TEXT
  5
594C
  8
0
 10
65.45428868166303
 20
184.3447684801794
 30
0.0
 40
1.7
  1
50
 41
0.8
  7
SIMPLEX
  0
LINE
  5
594D
  8
0
 10
62.099999999999703
 20
183.69999999999979
 30
0.0
 11
67.999999999999005
 21
183.69999999999979
 31
0.0
  0
LINE
  5
594E
  8
0
 10
62.099999999999589
 20
187.89999999999961
 30
0.0
 11
65.899999999998983
 21
187.89999999999969
 31
0.0
  0
LINE
  5
594F
  8
0
 10
62.099999999999589
 20
179.49999999999969
 30
0.0
 11
65.899999999998983
 21
179.49999999999969
 31
0.0
  0
LINE
  5
5950
  8
0
 10
62.099999999999589
 20
185.7999999999997
 30
0.0
 11
63.749999999998998
 21
185.7999999999997
 31
0.0
  0
LINE
  5
5951
  8
0
 10
62.099999999999589
 20
181.59999999999971
 30
0.0
 11
63.749999999998998
 21
181.59999999999971
 31
0.0
  0
TEXT
  5
5952
  8
0
 10
65.45428868166303
 20
192.77021884818899
 30
0.0
 40
1.7
  1
70
 41
0.8
  7
SIMPLEX
  0
LINE
  5
5953
  8
0
 10
62.099999999999703
 20
192.09999999999971
 30
0.0
 11
67.999999999999005
 21
192.09999999999971
 31
0.0
  0
LINE
  5
5954
  8
0
 10
62.099999999999589
 20
196.2999999999997
 30
0.0
 11
65.899999999998983
 21
196.2999999999997
 31
0.0
  0
LINE
  5
5955
  8
0
 10
62.099999999999589
 20
198.39999999999969
 30
0.0
 11
63.749999999998998
 21
198.39999999999969
 31
0.0
  0
LINE
  5
5956
  8
0
 10
62.099999999999589
 20
194.1999999999997
 30
0.0
 11
63.749999999998998
 21
194.1999999999997
 31
0.0
  0
LINE
  5
5957
  8
0
 10
62.099999999999589
 20
189.99999999999969
 30
0.0
 11
63.749999999998998
 21
189.99999999999969
 31
0.0
  0
ARC
  5
595B
  8
0
 10
60.999999999999567
 20
213.62977178700871
 30
0.0
 40
1.1000000000000001
 50
0.0
 51
180.0
  0
LINE
  5
595C
  8
0
 10
54.499999999998991
 20
214.5
 30
0.0
 11
60.327168031887098
 21
214.5
 31
0.0
  0
LINE
  5
595D
  8
0
 10
61.672831968112078
 20
214.49999999999989
 30
0.0
 11
67.499999999999005
 21
214.49999999999989
 31
0.0
  0
LINE
  5
595E
  8
0
 10
68.499999999999005
 20
207.35000000000011
 30
0.0
 11
62.099999999999589
 21
207.35000000000011
 31
0.0
  0
LINE
  5
595F
  8
0
 10
59.899999999999707
 20
207.35000000000011
 30
0.0
 11
53.499999999998998
 21
207.35000000000011
 31
0.0
  0
LINE
  5
5960
  8
0
 10
68.499999999999005
 20
208.65000000000009
 30
0.0
 11
62.098438904720602
 21
208.65000000000009
 31
0.0
  0
LINE
  5
5961
  8
0
 10
59.901561095278588
 20
208.65000000000009
 30
0.0
 11
53.499999999998998
 21
208.65000000000009
 31
0.0
  0
TEXT
  5
5962
  8
0
 10
54.28333333333245
 20
210.75613357732871
 30
0.0
 40
1.0
  1
EL SA
 41
3.1000000000000001
  7
SIM300
 72
     1
 11
60.999999999999112
 21
210.75613357732871
 31
0.0
  0
LINE
  5
5963
  8
0
 10
58.784537893613241
 20
206.77607310124569
 30
0.0
 11
58.784537893613241
 21
205.1628755655351
 31
0.0
  0
LINE
  5
5964
  8
0
 10
59.899999999999537
 20
206.77607310124569
 30
0.0
 11
58.784537893613241
 21
206.77607310124569
 31
0.0
  0
LINE
  5
5965
  8
0
 10
59.899999999999658
 20
205.1628755655351
 30
0.0
 11
58.784537893613241
 21
205.1628755655351
 31
0.0
  0
LINE
  5
5966
  8
0
 10
56.099999999998907
 20
201.81999999999971
 30
0.0
 11
59.899999999999658
 21
201.81999999999971
 31
0.0
  0
LINE
  5
5967
  8
0
 10
58.249999999998991
 20
202.97999999999971
 30
0.0
 11
59.899999999999658
 21
202.97999999999971
 31
0.0
  0
LINE
  5
5968
  8
0
 10
58.249999999998991
 20
204.13999999999959
 30
0.0
 11
59.899999999999658
 21
204.1399999999997
 31
0.0
  0
LINE
  5
5969
  8
0
 10
59.899999999999658
 20
200.65999999999971
 30
0.0
 11
58.249999999998991
 21
200.65999999999971
 31
0.0
  0
TEXT
  5
596A
  8
0
 10
53.954890936670971
 20
204.48489811295079
 30
0.0
 40
2.0
  1
%%dF
 41
0.8
  7
SIMPLEX
  0
LINE
  5
596B
  8
0
 10
59.899999999999658
 20
199.4999999999996
 30
0.0
 11
58.249999999998991
 21
199.4999999999996
 31
0.0
  0
ARC
  5
596D
  8
0
 10
54.499999999998991
 20
213.5
 30
0.0
 40
1.0
 50
90.0
 51
180.0
  0
TEXT
  5
596E
  8
0
 10
65.45428868166303
 20
201.17021884818899
 30
0.0
 40
1.7
  1
90
 41
0.8
  7
SIMPLEX
  0
TEXT
  5
596F
  8
0
 10
66.193951967875051
 20
204.48489811295079
 30
0.0
 40
2.0
  1
%%dC
 41
0.8
  7
SIMPLEX
  0
LINE
  5
5970
  8
0
 10
62.099999999999703
 20
200.4999999999998
 30
0.0
 11
67.999999999999005
 21
200.4999999999998
 31
0.0
  0
LINE
  5
5971
  8
0
 10
63.215462106385779
 20
206.77607310124569
 30
0.0
 11
63.215462106385779
 21
205.1628755655351
 31
0.0
  0
LINE
  5
5972
  8
0
 10
62.099999999999589
 20
206.77607310124569
 30
0.0
 11
63.215462106385779
 21
206.77607310124569
 31
0.0
  0
LINE
  5
5973
  8
0
 10
63.215462106385779
 20
205.1628755655351
 30
0.0
 11
62.099999999999589
 21
205.1628755655351
 31
0.0
  0
LINE
  5
5974
  8
0
 10
62.099999999999589
 20
204.6999999999997
 30
0.0
 11
65.899999999998983
 21
204.6999999999997
 31
0.0
  0
LINE
  5
5975
  8
0
 10
62.099999999999589
 20
202.5999999999998
 30
0.0
 11
63.749999999998998
 21
202.59999999999971
 31
0.0
  0
ARC
  5
5976
  8
0
 10
67.499999999999005
 20
213.4999999999998
 30
0.0
 40
1.0
 50
0.0
 51
90.0
  0
CIRCLE
  5
5A36
  8
0
 10
60.999999999999488
 20
167.55642938172809
 30
0.0
 40
2.0999999999999939
  0
LINE
  5
5A37
  8
0
 10
59.598141677019001
 20
211.76186683919161
 30
0.0
 11
59.598141677019001
 21
210.75436791352621
 31
0.0
  0
LINE
  5
5A38
  8
0
 10
59.598141677019001
 20
211.76186683919161
 30
0.0
 11
59.899999999999658
 21
211.76186683919161
 31
0.0
  0
LINE
  5
5A39
  8
0
 10
59.598141677019001
 20
211.25811737635891
 30
0.0
 11
59.899999999999658
 21
211.25811737635891
 31
0.0
  0
LINE
  5
5A3A
  8
0
 10
59.598141677019001
 20
210.75436791352621
 30
0.0
 11
59.899999999999658
 21
210.75436791352621
 31
0.0
  0
ENDSEC
  0
EOF
