  0
SECTION
  2
HEADER
  9
$ACADVER
  1
AC1009
  9
$INSBASE
 10
0.0
 20
0.0
 30
0.0
  9
$EXTMIN
 10
0.0
 20
-1.4802182810368341
 30
0.0
  9
$EXTMAX
 10
108.1102093537358
 20
74.842742842522966
 30
0.0
  9
$LIMMIN
 10
0.0
 20
0.0
  9
$LIMMAX
 10
187.5
 20
135.0
  9
$ORTHOMODE
 70
     1
  9
$REGENMODE
 70
     1
  9
$FILLMODE
 70
     1
  9
$QTEXTMODE
 70
     0
  9
$MIRRTEXT
 70
     0
  9
$DRAGMODE
 70
     2
  9
$LTSCALE
 40
2.0
  9
$OSMODE
 70
  3071
  9
$ATTMODE
 70
     1
  9
$TEXTSIZE
 40
2.0
  9
$TRACEWID
 40
0.05
  9
$TEXTSTYLE
  7
STANDARD
  9
$CLAYER
  8
0
  9
$CELTYPE
  6
BYLAYER
  9
$CECOLOR
 62
   256
  9
$DIMSCALE
 40
0.5
  9
$DIMASZ
 40
3.0
  9
$DIMEXO
 40
2.0
  9
$DIMDLI
 40
10.0
  9
$DIMRND
 40
0.0
  9
$DIMDLE
 40
0.0
  9
$DIMEXE
 40
2.0
  9
$DIMTP
 40
0.0
  9
$DIMTM
 40
0.0
  9
$DIMTXT
 40
3.2000000000000002
  9
$DIMCEN
 40
0.09
  9
$DIMTSZ
 40
0.0
  9
$DIMTOL
 70
     0
  9
$DIMLIM
 70
     0
  9
$DIMTIH
 70
     0
  9
$DIMTOH
 70
     0
  9
$DIMSE1
 70
     0
  9
$DIMSE2
 70
     0
  9
$DIMTAD
 70
     1
  9
$DIMZIN
 70
     0
  9
$DIMBLK
  1

  9
$DIMASO
 70
     1
  9
$DIMSHO
 70
     0
  9
$DIMPOST
  1

  9
$DIMAPOST
  1

  9
$DIMALT
 70
     0
  9
$DIMALTD
 70
     2
  9
$DIMALTF
 40
25.399999999999999
  9
$DIMLFAC
 40
1.0
  9
$DIMTOFL
 70
     1
  9
$DIMTVP
 40
1.6000000000000001
  9
$DIMTIX
 70
     0
  9
$DIMSOXD
 70
     0
  9
$DIMSAH
 70
     0
  9
$DIMBLK1
  1

  9
$DIMBLK2
  1

  9
$DIMSTYLE
  2
STANDARD
  9
$DIMCLRD
 70
     0
  9
$DIMCLRE
 70
     0
  9
$DIMCLRT
 70
     0
  9
$DIMTFAC
 40
1.0
  9
$DIMGAP
 40
0.09
  9
$LUNITS
 70
     2
  9
$LUPREC
 70
     4
  9
$SKETCHINC
 40
0.1
  9
$FILLETRAD
 40
0.5
  9
$AUNITS
 70
     0
  9
$AUPREC
 70
     0
  9
$MENU
  1
E:\r13\win\SUPPORT\ACAD
  9
$ELEVATION
 40
0.0
  9
$PELEVATION
 40
0.0
  9
$THICKNESS
 40
0.0
  9
$LIMCHECK
 70
     0
  9
$BLIPMODE
 70
     0
  9
$CHAMFERA
 40
0.0
  9
$CHAMFERB
 40
0.0
  9
$SKPOLY
 70
     0
  9
$TDCREATE
 40
2449840.6187615739
  9
$TDUPDATE
 40
2456597.6085340041
  9
$TDINDWG
 40
0.0041145602
  9
$TDUSRTIMER
 40
0.0041145602
  9
$USRTIMER
 70
     1
  9
$ANGBASE
 50
0.0
  9
$ANGDIR
 70
     0
  9
$PDMODE
 70
     0
  9
$PDSIZE
 40
0.0
  9
$PLINEWID
 40
0.0
  9
$COORDS
 70
     1
  9
$SPLFRAME
 70
     0
  9
$SPLINETYPE
 70
     6
  9
$SPLINESEGS
 70
     8
  9
$ATTDIA
 70
     0
  9
$ATTREQ
 70
     1
  9
$HANDLING
 70
     1
  9
$HANDSEED
  5
2D4
  9
$SURFTAB1
 70
     6
  9
$SURFTAB2
 70
     6
  9
$SURFTYPE
 70
     6
  9
$SURFU
 70
     6
  9
$SURFV
 70
     6
  9
$UCSNAME
  2

  9
$UCSORG
 10
0.0
 20
0.0
 30
0.0
  9
$UCSXDIR
 10
1.0
 20
0.0
 30
0.0
  9
$UCSYDIR
 10
0.0
 20
1.0
 30
0.0
  9
$PUCSNAME
  2

  9
$PUCSORG
 10
0.0
 20
0.0
 30
0.0
  9
$PUCSXDIR
 10
1.0
 20
0.0
 30
0.0
  9
$PUCSYDIR
 10
0.0
 20
1.0
 30
0.0
  9
$USERI1
 70
     0
  9
$USERI2
 70
     1
  9
$USERI3
 70
     1
  9
$USERI4
 70
     0
  9
$USERI5
 70
     0
  9
$USERR1
 40
0.0
  9
$USERR2
 40
0.0
  9
$USERR3
 40
0.0
  9
$USERR4
 40
0.0
  9
$USERR5
 40
0.0
  9
$WORLDVIEW
 70
     1
  9
$SHADEDGE
 70
     3
  9
$SHADEDIF
 70
    70
  9
$TILEMODE
 70
     1
  9
$MAXACTVP
 70
    16
  9
$PLIMCHECK
 70
     0
  9
$PEXTMIN
 10
1.0000000000000000E+020
 20
1.0000000000000000E+020
 30
1.0000000000000000E+020
  9
$PEXTMAX
 10
-1.0000000000000000E+020
 20
-1.0000000000000000E+020
 30
-1.0000000000000000E+020
  9
$PLIMMIN
 10
0.0
 20
0.0
  9
$PLIMMAX
 10
12.0
 20
9.0
  9
$UNITMODE
 70
     0
  9
$VISRETAIN
 70
     0
  9
$PLINEGEN
 70
     0
  9
$PSLTSCALE
 70
     0
  0
ENDSEC
  0
SECTION
  2
TABLES
  0
TABLE
  2
VPORT
 70
     1
  0
VPORT
  2
*ACTIVE
 70
     0
 10
0.0
 20
0.0
 11
1.0
 21
1.0
 12
93.747139195326156
 22
67.05183146954721
 13
0.0
 23
0.0
 14
5.0
 24
5.0
 15
5.0
 25
5.0
 16
0.0
 26
0.0
 36
1.0
 17
0.0
 27
0.0
 37
0.0
 40
138.6470298934976
 41
2.304913294797688
 42
50.0
 43
0.0
 44
0.0
 50
0.0
 51
0.0
 71
     0
 72
   100
 73
     1
 74
     0
 75
     0
 76
     0
 77
     0
 78
     0
  0
ENDTAB
  0
TABLE
  2
LTYPE
 70
     4
  0
LTYPE
  2
CONTINUOUS
 70
     0
  3
Solid Line
 72
    65
 73
     0
 40
0.0
  0
LTYPE
  2
CENTER
 70
     0
  3
____ _ ____ _ ____ _ ____ _ ____ _ ____ _ ____
 72
    65
 73
     4
 40
2.0
 49
1.25
 49
-0.25
 49
0.25
 49
-0.25
  0
LTYPE
  2
HIDDEN
 70
     0
  3
_ _ _ _ _ _ _ _ _ _ _ _ _ _ _ _ _ _ _ _ _ _ _
 72
    65
 73
     2
 40
0.375
 49
0.25
 49
-0.125
  0
LTYPE
  2
PHANTOM2
 70
     0
  3
___ _ _ ___ _ _ ___ _ _ ___ _ _
 72
    65
 73
     6
 40
1.25
 49
0.625
 49
-0.125
 49
0.125
 49
-0.125
 49
0.125
 49
-0.125
  0
ENDTAB
  0
TABLE
  2
LAYER
 70
     5
  0
LAYER
  2
0
 70
     0
 62
     7
  6
CONTINUOUS
  0
LAYER
  2
1
 70
     0
 62
     1
  6
CENTER
  0
LAYER
  2
2
 70
     0
 62
     2
  6
HIDDEN
  0
LAYER
  2
3
 70
     0
 62
     3
  6
CONTINUOUS
  0
LAYER
  2
DEFPOINTS
 70
     0
 62
     7
  6
CONTINUOUS
  0
ENDTAB
  0
TABLE
  2
STYLE
 70
     2
  0
STYLE
  2
STANDARD
 70
     0
 40
0.0
 41
1.0
 50
0.0
 71
     0
 42
2.0
  3
ROMANS
  4
BIGFONT
  0
STYLE
  2
STANDARD1
 70
     0
 40
0.0
 41
1.0
 50
0.0
 71
     0
 42
3.0
  3
txt
  4

  0
ENDTAB
  0
TABLE
  2
VIEW
 70
     1
  0
VIEW
  2
ALL
 70
     0
 40
135.0
 10
110.29971
 20
67.5
 41
220.59942000000001
 11
0.0
 21
0.0
 31
1.0
 12
0.0
 22
0.0
 32
0.0
 42
0.0
 43
0.0
 44
0.0
 50
0.0
 71
     0
  0
ENDTAB
  0
TABLE
  2
UCS
 70
     0
  0
ENDTAB
  0
TABLE
  2
APPID
 70
     3
  0
APPID
  2
ACAD
 70
     0
  0
APPID
  2
ACAD_MLEADERVER
 70
     0
  0
APPID
  2
ACAD_NAV_VCDISPLAY
 70
     0
  0
ENDTAB
  0
TABLE
  2
DIMSTYLE
 70
     1
  0
DIMSTYLE
  2
STANDARD
 70
     0
  3

  4

  5

  6

  7

 40
1.0
 41
0.18
 42
0.0625
 43
0.38
 44
0.18
 45
0.0
 46
0.0
 47
0.0
 48
0.0
140
0.18
141
0.09
142
0.0
143
25.399999999999999
144
1.0
145
0.0
146
1.0
147
0.09
 71
     0
 72
     0
 73
     1
 74
     1
 75
     0
 76
     0
 77
     0
 78
     0
170
     0
171
     2
172
     0
173
     0
174
     0
175
     0
176
     0
177
     0
178
     0
  0
ENDTAB
  0
ENDSEC
  0
SECTION
  2
BLOCKS
  0
BLOCK
  8
0
  2
$MODEL_SPACE
 70
     0
 10
0.0
 20
0.0
 30
0.0
  3
$MODEL_SPACE
  1

  0
ENDBLK
  5
D4
  8
0
  0
BLOCK
 67
     1
  8
0
  2
$PAPER_SPACE
 70
     0
 10
0.0
 20
0.0
 30
0.0
  3
$PAPER_SPACE
  1

  0
ENDBLK
  5
D2
 67
     1
  8
0
  0
ENDSEC
  0
SECTION
  2
ENTITIES
  0
LINE
  5
39
  8
1
 10
47.478777353735801
 20
47.20558884252295
 30
0.0
 11
70.478777353735808
 21
47.20558884252295
 31
0.0
  0
ARC
  5
3A
  8
0
 10
101.6102093537358
 20
47.20558884252295
 30
0.0
 40
4.0
 50
93.906460999999993
 51
86.093539000000007
  0
LINE
  5
3B
  8
0
 10
64.778777353735805
 20
51.205588842522957
 30
0.0
 11
51.178777353735811
 21
51.205588842522957
 31
0.0
  0
LINE
  5
3C
  8
3
 10
65.455277353735809
 20
50.529088842522953
 30
0.0
 11
50.502277353735813
 21
50.529088842522953
 31
0.0
  0
LINE
  5
3D
  8
3
 10
65.455277353735809
 20
43.882088842522947
 30
0.0
 11
50.502277353735813
 21
43.882088842522947
 31
0.0
  0
LINE
  5
3E
  8
0
 10
64.778777353735805
 20
43.20558884252295
 30
0.0
 11
51.178777353735811
 21
43.20558884252295
 31
0.0
  0
LINE
  5
3F
  8
0
 10
49.978777353735808
 20
50.005588842522961
 30
0.0
 11
49.978777353735808
 21
47.805588842522951
 31
0.0
  0
LINE
  5
40
  8
0
 10
65.978777353735808
 20
50.005588842522961
 30
0.0
 11
65.978777353735808
 21
44.40558884252296
 31
0.0
  0
LINE
  5
41
  8
0
 10
49.978777353735808
 20
46.605588842522963
 30
0.0
 11
51.978777353735822
 21
46.605588842522963
 31
0.0
  0
LINE
  5
42
  8
0
 10
49.978777353735808
 20
47.805588842522951
 30
0.0
 11
51.978777353735822
 21
47.805588842522958
 31
0.0
  0
LINE
  5
43
  8
0
 10
16.0268133537358
 20
47.805588842522951
 30
0.0
 11
23.936301353735811
 21
47.805588842522951
 31
0.0
  0
LINE
  5
44
  8
0
 10
16.0268133537358
 20
46.605588842522963
 30
0.0
 11
23.936301353735811
 21
46.605588842522963
 31
0.0
  0
LINE
  5
45
  8
0
 10
49.978777353735808
 20
46.605588842522963
 30
0.0
 11
49.978777353735808
 21
44.40558884252296
 31
0.0
  0
ARC
  5
46
  8
0
 10
65.978777353735808
 20
47.20558884252295
 30
0.0
 40
2.0
 50
270.0
 51
90.0
  0
LINE
  5
47
  8
0
 10
65.978777353735808
 20
50.005588842522961
 30
0.0
 11
64.778777353735805
 21
51.205588842522957
 31
0.0
  0
LINE
  5
48
  8
0
 10
65.978777353735808
 20
44.40558884252296
 30
0.0
 11
64.778777353735805
 21
43.20558884252295
 31
0.0
  0
LINE
  5
49
  8
0
 10
49.978777353735808
 20
44.40558884252296
 30
0.0
 11
51.178777353735811
 21
43.20558884252295
 31
0.0
  0
LINE
  5
4A
  8
0
 10
51.178777353735811
 20
51.205588842522957
 30
0.0
 11
49.978777353735808
 21
50.005588842522961
 31
0.0
  0
LINE
  5
4B
  8
0
 10
51.178777353735811
 20
51.205588842522957
 30
0.0
 11
51.178777353735811
 21
47.805588842522951
 31
0.0
  0
CIRCLE
  5
4C
  8
0
 10
101.6102093537358
 20
47.20558884252295
 30
0.0
 40
2.0
  0
LINE
  5
4D
  8
0
 10
51.978777353735822
 20
47.805588842522951
 30
0.0
 11
51.978777353735822
 21
46.605588842522963
 31
0.0
  0
LINE
  5
4E
  8
0
 10
51.178777353735811
 20
46.605588842522963
 30
0.0
 11
51.178777353735811
 21
43.20558884252295
 31
0.0
  0
LINE
  5
4F
  8
0
 10
64.778777353735805
 20
51.205588842522957
 30
0.0
 11
64.778777353735805
 21
43.20558884252295
 31
0.0
  0
CIRCLE
  5
50
  8
0
 10
19.981557353735809
 20
47.20558884252295
 30
0.0
 40
4.0
  0
CIRCLE
  5
51
  8
3
 10
19.981557353735809
 20
47.20558884252295
 30
0.0
 40
3.3235000000000001
  0
ARC
  5
52
  8
2
 10
63.978777353735801
 20
47.20558884252295
 30
0.0
 40
2.0
 50
270.0
 51
90.0
  0
LINE
  5
53
  8
1
 10
26.481557353735798
 20
47.20558884252295
 30
0.0
 11
13.481557353735811
 21
47.20558884252295
 31
0.0
  0
LINE
  5
54
  8
1
 10
19.981557353735809
 20
53.705588842522957
 30
0.0
 11
19.981557353735809
 21
40.70558884252295
 31
0.0
  0
LINE
  5
55
  8
1
 10
108.1102093537358
 20
47.20558884252295
 30
0.0
 11
95.110209353735812
 21
47.20558884252295
 31
0.0
  0
LINE
  5
56
  8
1
 10
101.6102093537358
 20
53.705588842522957
 30
0.0
 11
101.6102093537358
 21
40.70558884252295
 31
0.0
  0
LINE
  5
57
  8
2
 10
65.878777353735813
 20
50.105588842522963
 30
0.0
 11
53.578777353735802
 21
50.105588842522963
 31
0.0
  0
LINE
  5
58
  8
2
 10
53.078777353735802
 20
50.605588842522963
 30
0.0
 11
53.078777353735802
 21
51.205588842522957
 31
0.0
  0
LINE
  5
59
  8
0
 10
54.955277353735809
 20
51.205588842522957
 30
0.0
 11
54.955277353735809
 21
51.305588842522951
 31
0.0
  0
LINE
  5
5A
  8
0
 10
54.955277353735809
 20
51.305588842522951
 30
0.0
 11
62.955277353735809
 21
51.305588842522951
 31
0.0
  0
LINE
  5
5B
  8
0
 10
62.955277353735809
 20
51.305588842522951
 30
0.0
 11
62.955277353735809
 21
51.205588842522957
 31
0.0
  0
LINE
  5
5C
  8
2
 10
54.955277353735809
 20
51.205588842522957
 30
0.0
 11
54.955277353735809
 21
50.105588842522963
 31
0.0
  0
LINE
  5
5D
  8
2
 10
62.955277353735809
 20
51.205588842522957
 30
0.0
 11
62.955277353735809
 21
50.105588842522963
 31
0.0
  0
LINE
  5
5E
  8
0
 10
101.1352093537358
 20
50.105588842522963
 30
0.0
 11
102.08520935373581
 21
50.105588842522963
 31
0.0
  0
LINE
  5
5F
  8
0
 10
101.1352093537358
 20
51.177284842522958
 30
0.0
 11
101.1352093537358
 21
50.105588842522963
 31
0.0
  0
LINE
  5
60
  8
0
 10
102.08520935373581
 20
51.177284842522958
 30
0.0
 11
102.08520935373581
 21
50.105588842522963
 31
0.0
  0
POLYLINE
  5
61
  8
0
 66
     1
 10
0.0
 20
0.0
 30
0.0
 70
     1
  0
VERTEX
  5
62
  8
0
 10
101.1352093537358
 20
50.705588842522957
 30
0.0
 42
0.079384
  0
VERTEX
  5
63
  8
0
 10
101.1728273537358
 20
50.470147842522962
 30
0.0
 42
0.088422
  0
VERTEX
  5
64
  8
0
 10
101.2743343537358
 20
50.281324842522963
 30
0.0
 42
0.105162
 70
     2
 50
308.36748499999999
  0
VERTEX
  5
65
  8
0
 10
101.43436835373581
 20
50.148810842522963
 30
0.0
 42
0.121099
 50
308.36748499999999
  0
VERTEX
  5
66
  8
0
 10
101.6102093537358
 20
50.105588842522963
 30
0.0
 42
0.121099
  0
VERTEX
  5
67
  8
0
 10
101.7860513537358
 20
50.148810842522963
 30
0.0
 42
0.105162
  0
VERTEX
  5
68
  8
0
 10
101.9460853537358
 20
50.281324842522963
 30
0.0
 42
0.088422
 70
     2
 50
51.632515000000012
  0
VERTEX
  5
69
  8
0
 10
102.04759235373579
 20
50.470147842522962
 30
0.0
 42
0.079384
 50
51.632515000000012
  0
VERTEX
  5
6A
  8
0
 10
102.08520935373581
 20
50.705588842522957
 30
0.0
 42
0.079384
  0
VERTEX
  5
6B
  8
0
 10
102.04759235373579
 20
50.941028842522947
 30
0.0
 42
0.088422
  0
VERTEX
  5
6C
  8
0
 10
101.9460853537358
 20
51.129852842522958
 30
0.0
 42
0.105162
 70
     2
 50
128.36748499999999
  0
VERTEX
  5
6D
  8
0
 10
101.7860513537358
 20
51.262365842522946
 30
0.0
 42
0.121099
 50
128.36748499999999
  0
VERTEX
  5
6E
  8
0
 10
101.6102093537358
 20
51.305588842522951
 30
0.0
 42
0.121099
  0
VERTEX
  5
6F
  8
0
 10
101.43436835373581
 20
51.262365842522946
 30
0.0
 42
0.105162
  0
VERTEX
  5
70
  8
0
 10
101.2743343537358
 20
51.129852842522958
 30
0.0
 42
0.088422
 70
     2
 50
231.63251500000001
  0
VERTEX
  5
71
  8
0
 10
101.1728273537358
 20
50.941028842522947
 30
0.0
 42
0.079384
 50
231.63251500000001
  0
SEQEND
  5
72
  8
0
  0
ARC
  5
73
  8
2
 10
53.578777353735802
 20
50.605588842522963
 30
0.0
 40
0.5
 50
180.0
 51
270.0
  0
POLYLINE
  5
74
  8
0
 66
     1
 10
0.0
 20
0.0
 30
0.0
  0
VERTEX
  5
75
  8
0
 10
20.254069353735812
 20
51.19629484252296
 30
0.0
 42
0.058818
 70
     2
 50
128.36748499999999
  0
VERTEX
  5
76
  8
0
 10
20.157399353735808
 20
51.262365842522946
 30
0.0
 42
0.121099
 50
128.36748499999999
  0
VERTEX
  5
77
  8
0
 10
19.981557353735809
 20
51.305588842522951
 30
0.0
 42
0.121099
  0
VERTEX
  5
78
  8
0
 10
19.8057163537358
 20
51.262365842522946
 30
0.0
 42
0.058818
  0
VERTEX
  5
79
  8
0
 10
19.7090463537358
 20
51.19629484252296
 30
0.0
 42
0.088422
 70
     2
 50
231.63251500000001
  0
SEQEND
  5
7A
  8
0
  0
CIRCLE
  5
7B
  8
3
 10
101.6102093537358
 20
47.20558884252295
 30
0.0
 40
3.3235000000000001
  0
LINE
  5
7C
  8
0
 10
62.955277353735809
 20
71.442742842522961
 30
0.0
 11
62.955277353735809
 21
70.242742842522958
 31
0.0
  0
LINE
  5
7D
  8
0
 10
54.955277353735809
 20
70.242742842522958
 30
0.0
 11
54.955277353735809
 21
71.442742842522961
 31
0.0
  0
LINE
  5
7E
  8
0
 10
53.078777353735802
 20
70.242742842522958
 30
0.0
 11
53.078777353735802
 21
71.442742842522961
 31
0.0
  0
LINE
  5
7F
  8
0
 10
65.878777353735813
 20
70.242742842522958
 30
0.0
 11
53.078777353735802
 21
70.242742842522958
 31
0.0
  0
ARC
  5
80
  8
2
 10
63.978777353735801
 20
70.842742842522966
 30
0.0
 40
2.0
 50
270.0
 51
90.0
  0
LINE
  5
81
  8
0
 10
64.778777353735805
 20
74.842742842522966
 30
0.0
 11
64.778777353735805
 21
71.442742842522961
 31
0.0
  0
LINE
  5
82
  8
0
 10
51.178777353735811
 20
74.842742842522966
 30
0.0
 11
51.178777353735811
 21
66.842742842522966
 31
0.0
  0
LINE
  5
83
  8
0
 10
51.178777353735811
 20
74.842742842522966
 30
0.0
 11
49.978777353735808
 21
73.642742842522964
 31
0.0
  0
LINE
  5
84
  8
0
 10
49.978777353735808
 20
68.042742842522955
 30
0.0
 11
51.178777353735811
 21
66.842742842522966
 31
0.0
  0
LINE
  5
85
  8
0
 10
65.978777353735808
 20
68.042742842522955
 30
0.0
 11
64.778777353735805
 21
66.842742842522966
 31
0.0
  0
LINE
  5
86
  8
0
 10
65.978777353735808
 20
73.642742842522964
 30
0.0
 11
64.778777353735805
 21
74.842742842522966
 31
0.0
  0
ARC
  5
87
  8
0
 10
65.978777353735808
 20
70.842742842522966
 30
0.0
 40
2.0
 50
270.0
 51
90.0
  0
LINE
  5
88
  8
0
 10
49.978777353735808
 20
73.642742842522964
 30
0.0
 11
49.978777353735808
 21
68.042742842522955
 31
0.0
  0
LINE
  5
89
  8
0
 10
65.978777353735808
 20
73.642742842522964
 30
0.0
 11
65.978777353735808
 21
68.042742842522955
 31
0.0
  0
LINE
  5
8A
  8
0
 10
64.778777353735805
 20
66.842742842522966
 30
0.0
 11
51.178777353735811
 21
66.842742842522966
 31
0.0
  0
LINE
  5
8B
  8
3
 10
65.455277353735809
 20
67.519242842522956
 30
0.0
 11
50.502277353735813
 21
67.519242842522956
 31
0.0
  0
LINE
  5
8C
  8
3
 10
65.455277353735809
 20
74.166242842522962
 30
0.0
 11
50.502277353735813
 21
74.166242842522962
 31
0.0
  0
LINE
  5
8D
  8
0
 10
64.778777353735805
 20
74.842742842522966
 30
0.0
 11
51.178777353735811
 21
74.842742842522966
 31
0.0
  0
LINE
  5
8E
  8
1
 10
47.478777353735801
 20
70.842742842522966
 30
0.0
 11
70.478777353735808
 21
70.842742842522966
 31
0.0
  0
LINE
  5
8F
  8
0
 10
65.878777353735813
 20
71.442742842522961
 30
0.0
 11
53.078777353735802
 21
71.442742842522961
 31
0.0
  0
LINE
  5
90
  8
0
 10
64.778777353735805
 20
70.242742842522958
 30
0.0
 11
64.778777353735805
 21
66.842742842522966
 31
0.0
  0
LINE
  5
91
  8
1
 10
47.478777353735801
 20
23.568433842522971
 30
0.0
 11
70.478777353735808
 21
23.568433842522971
 31
0.0
  0
LINE
  5
92
  8
0
 10
64.778777353735805
 20
19.56843384252296
 30
0.0
 11
51.178777353735811
 21
19.56843384252296
 31
0.0
  0
LINE
  5
93
  8
3
 10
65.455277353735809
 20
20.244933842522961
 30
0.0
 11
50.502277353735813
 21
20.244933842522961
 31
0.0
  0
LINE
  5
94
  8
3
 10
65.455277353735809
 20
26.89193384252297
 30
0.0
 11
50.502277353735813
 21
26.89193384252297
 31
0.0
  0
LINE
  5
95
  8
0
 10
64.778777353735805
 20
27.568433842522971
 30
0.0
 11
51.178777353735811
 21
27.568433842522971
 31
0.0
  0
LINE
  5
96
  8
0
 10
65.978777353735808
 20
20.76843384252297
 30
0.0
 11
65.978777353735808
 21
26.368433842522961
 31
0.0
  0
LINE
  5
97
  8
0
 10
49.978777353735808
 20
20.76843384252297
 30
0.0
 11
49.978777353735808
 21
26.368433842522961
 31
0.0
  0
ARC
  5
98
  8
0
 10
65.978777353735808
 20
23.568433842522971
 30
0.0
 40
2.0
 50
270.0
 51
90.0
  0
LINE
  5
99
  8
0
 10
65.978777353735808
 20
20.76843384252297
 30
0.0
 11
64.778777353735805
 21
19.56843384252296
 31
0.0
  0
LINE
  5
9A
  8
0
 10
65.978777353735808
 20
26.368433842522961
 30
0.0
 11
64.778777353735805
 21
27.568433842522971
 31
0.0
  0
LINE
  5
9B
  8
0
 10
49.978777353735808
 20
26.368433842522961
 30
0.0
 11
51.178777353735811
 21
27.568433842522971
 31
0.0
  0
LINE
  5
9C
  8
0
 10
51.178777353735811
 20
19.56843384252296
 30
0.0
 11
49.978777353735808
 21
20.76843384252297
 31
0.0
  0
LINE
  5
9D
  8
0
 10
51.178777353735811
 20
19.56843384252296
 30
0.0
 11
51.178777353735811
 21
27.568433842522971
 31
0.0
  0
LINE
  5
9E
  8
0
 10
64.778777353735805
 20
19.56843384252296
 30
0.0
 11
64.778777353735805
 21
27.568433842522971
 31
0.0
  0
ARC
  5
9F
  8
2
 10
63.978777353735801
 20
23.568433842522971
 30
0.0
 40
2.0
 50
270.0
 51
90.0
  0
LINE
  5
A0
  8
0
 10
65.878777353735813
 20
70.242742842522958
 30
0.0
 11
65.878777353735813
 21
71.442742842522961
 31
0.0
  0
TEXT
  5
245
  8
0
 62
     3
 10
0.0
 20
0.0
 30
0.0
 40
5.0
  1
LSPL8-SUS
  7
STANDARD1
  0
ENDSEC
  0
EOF
