  0
SECTION
  2
HEADER
  9
$ACADVER
  1
AC1009
  9
$INSBASE
 10
0.0
 20
0.0
 30
0.0
  9
$EXTMIN
 10
0.0
 20
-1.4802182810368341
 30
0.0
  9
$EXTMAX
 10
111.96095860988081
 20
97.98162102034199
 30
0.0
  9
$LIMMIN
 10
0.0
 20
0.0
  9
$LIMMAX
 10
187.5
 20
135.0
  9
$ORTHOMODE
 70
     0
  9
$REGENMODE
 70
     1
  9
$FILLMODE
 70
     1
  9
$QTEXTMODE
 70
     0
  9
$MIRRTEXT
 70
     0
  9
$DRAGMODE
 70
     2
  9
$LTSCALE
 40
2.0
  9
$OSMODE
 70
  3071
  9
$ATTMODE
 70
     1
  9
$TEXTSIZE
 40
2.0
  9
$TRACEWID
 40
0.05
  9
$TEXTSTYLE
  7
STANDARD
  9
$CLAYER
  8
0
  9
$CELTYPE
  6
BYLAYER
  9
$CECOLOR
 62
   256
  9
$DIMSCALE
 40
0.5
  9
$DIMASZ
 40
3.0
  9
$DIMEXO
 40
2.0
  9
$DIMDLI
 40
10.0
  9
$DIMRND
 40
0.0
  9
$DIMDLE
 40
0.0
  9
$DIMEXE
 40
2.0
  9
$DIMTP
 40
0.0
  9
$DIMTM
 40
0.0
  9
$DIMTXT
 40
3.2000000000000002
  9
$DIMCEN
 40
0.09
  9
$DIMTSZ
 40
0.0
  9
$DIMTOL
 70
     0
  9
$DIMLIM
 70
     0
  9
$DIMTIH
 70
     0
  9
$DIMTOH
 70
     0
  9
$DIMSE1
 70
     0
  9
$DIMSE2
 70
     0
  9
$DIMTAD
 70
     1
  9
$DIMZIN
 70
     0
  9
$DIMBLK
  1

  9
$DIMASO
 70
     1
  9
$DIMSHO
 70
     0
  9
$DIMPOST
  1

  9
$DIMAPOST
  1

  9
$DIMALT
 70
     0
  9
$DIMALTD
 70
     2
  9
$DIMALTF
 40
25.399999999999999
  9
$DIMLFAC
 40
1.0
  9
$DIMTOFL
 70
     1
  9
$DIMTVP
 40
1.6000000000000001
  9
$DIMTIX
 70
     0
  9
$DIMSOXD
 70
     0
  9
$DIMSAH
 70
     0
  9
$DIMBLK1
  1

  9
$DIMBLK2
  1

  9
$DIMSTYLE
  2
STANDARD
  9
$DIMCLRD
 70
     0
  9
$DIMCLRE
 70
     0
  9
$DIMCLRT
 70
     0
  9
$DIMTFAC
 40
1.0
  9
$DIMGAP
 40
0.09
  9
$LUNITS
 70
     2
  9
$LUPREC
 70
     4
  9
$SKETCHINC
 40
0.1
  9
$FILLETRAD
 40
0.5
  9
$AUNITS
 70
     0
  9
$AUPREC
 70
     0
  9
$MENU
  1
E:\r13\win\SUPPORT\ACAD
  9
$ELEVATION
 40
0.0
  9
$PELEVATION
 40
0.0
  9
$THICKNESS
 40
0.0
  9
$LIMCHECK
 70
     0
  9
$BLIPMODE
 70
     0
  9
$CHAMFERA
 40
0.0
  9
$CHAMFERB
 40
0.0
  9
$SKPOLY
 70
     0
  9
$TDCREATE
 40
2449840.6187847229
  9
$TDUPDATE
 40
2456597.6084374068
  9
$TDINDWG
 40
0.0006629861
  9
$TDUSRTIMER
 40
0.0006629861
  9
$USRTIMER
 70
     1
  9
$ANGBASE
 50
0.0
  9
$ANGDIR
 70
     0
  9
$PDMODE
 70
     0
  9
$PDSIZE
 40
0.0
  9
$PLINEWID
 40
0.0
  9
$COORDS
 70
     1
  9
$SPLFRAME
 70
     0
  9
$SPLINETYPE
 70
     6
  9
$SPLINESEGS
 70
     8
  9
$ATTDIA
 70
     0
  9
$ATTREQ
 70
     1
  9
$HANDLING
 70
     1
  9
$HANDSEED
  5
270
  9
$SURFTAB1
 70
     6
  9
$SURFTAB2
 70
     6
  9
$SURFTYPE
 70
     6
  9
$SURFU
 70
     6
  9
$SURFV
 70
     6
  9
$UCSNAME
  2

  9
$UCSORG
 10
0.0
 20
0.0
 30
0.0
  9
$UCSXDIR
 10
1.0
 20
0.0
 30
0.0
  9
$UCSYDIR
 10
0.0
 20
1.0
 30
0.0
  9
$PUCSNAME
  2

  9
$PUCSORG
 10
0.0
 20
0.0
 30
0.0
  9
$PUCSXDIR
 10
1.0
 20
0.0
 30
0.0
  9
$PUCSYDIR
 10
0.0
 20
1.0
 30
0.0
  9
$USERI1
 70
     0
  9
$USERI2
 70
     1
  9
$USERI3
 70
     1
  9
$USERI4
 70
     0
  9
$USERI5
 70
     0
  9
$USERR1
 40
0.0
  9
$USERR2
 40
0.0
  9
$USERR3
 40
0.0
  9
$USERR4
 40
0.0
  9
$USERR5
 40
0.0
  9
$WORLDVIEW
 70
     1
  9
$SHADEDGE
 70
     3
  9
$SHADEDIF
 70
    70
  9
$TILEMODE
 70
     1
  9
$MAXACTVP
 70
    16
  9
$PLIMCHECK
 70
     0
  9
$PEXTMIN
 10
1.0000000000000000E+020
 20
1.0000000000000000E+020
 30
1.0000000000000000E+020
  9
$PEXTMAX
 10
-1.0000000000000000E+020
 20
-1.0000000000000000E+020
 30
-1.0000000000000000E+020
  9
$PLIMMIN
 10
0.0
 20
0.0
  9
$PLIMMAX
 10
12.0
 20
9.0
  9
$UNITMODE
 70
     0
  9
$VISRETAIN
 70
     0
  9
$PLINEGEN
 70
     0
  9
$PSLTSCALE
 70
     0
  0
ENDSEC
  0
SECTION
  2
TABLES
  0
TABLE
  2
VPORT
 70
     1
  0
VPORT
  2
*ACTIVE
 70
     0
 10
0.0
 20
0.0
 11
1.0
 21
1.0
 12
93.747139195326156
 22
67.05183146954721
 13
0.0
 23
0.0
 14
5.0
 24
5.0
 15
5.0
 25
5.0
 16
0.0
 26
0.0
 36
1.0
 17
0.0
 27
0.0
 37
0.0
 40
138.6470298934976
 41
2.304913294797688
 42
50.0
 43
0.0
 44
0.0
 50
0.0
 51
0.0
 71
     0
 72
   100
 73
     1
 74
     0
 75
     0
 76
     0
 77
     0
 78
     0
  0
ENDTAB
  0
TABLE
  2
LTYPE
 70
     4
  0
LTYPE
  2
CONTINUOUS
 70
     0
  3
Solid Line
 72
    65
 73
     0
 40
0.0
  0
LTYPE
  2
CENTER
 70
     0
  3
____ _ ____ _ ____ _ ____ _ ____ _ ____ _ ____
 72
    65
 73
     4
 40
2.0
 49
1.25
 49
-0.25
 49
0.25
 49
-0.25
  0
LTYPE
  2
HIDDEN
 70
     0
  3
_ _ _ _ _ _ _ _ _ _ _ _ _ _ _ _ _ _ _ _ _ _ _
 72
    65
 73
     2
 40
0.375
 49
0.25
 49
-0.125
  0
LTYPE
  2
PHANTOM2
 70
     0
  3
___ _ _ ___ _ _ ___ _ _ ___ _ _
 72
    65
 73
     6
 40
1.25
 49
0.625
 49
-0.125
 49
0.125
 49
-0.125
 49
0.125
 49
-0.125
  0
ENDTAB
  0
TABLE
  2
LAYER
 70
     4
  0
LAYER
  2
0
 70
     0
 62
     7
  6
CONTINUOUS
  0
LAYER
  2
1
 70
     0
 62
     1
  6
CENTER
  0
LAYER
  2
2
 70
     0
 62
     2
  6
HIDDEN
  0
LAYER
  2
3
 70
     0
 62
     3
  6
CONTINUOUS
  0
ENDTAB
  0
TABLE
  2
STYLE
 70
     2
  0
STYLE
  2
STANDARD
 70
     0
 40
0.0
 41
1.0
 50
0.0
 71
     0
 42
2.0
  3
ROMANS
  4
BIGFONT
  0
STYLE
  2
STANDARD1
 70
     0
 40
0.0
 41
1.0
 50
0.0
 71
     0
 42
3.0
  3
txt
  4

  0
ENDTAB
  0
TABLE
  2
VIEW
 70
     1
  0
VIEW
  2
ALL
 70
     0
 40
135.0
 10
110.29971
 20
67.5
 41
220.59942000000001
 11
0.0
 21
0.0
 31
1.0
 12
0.0
 22
0.0
 32
0.0
 42
0.0
 43
0.0
 44
0.0
 50
0.0
 71
     0
  0
ENDTAB
  0
TABLE
  2
UCS
 70
     0
  0
ENDTAB
  0
TABLE
  2
APPID
 70
     3
  0
APPID
  2
ACAD
 70
     0
  0
APPID
  2
ACAD_MLEADERVER
 70
     0
  0
APPID
  2
ACAD_NAV_VCDISPLAY
 70
     0
  0
ENDTAB
  0
TABLE
  2
DIMSTYLE
 70
     1
  0
DIMSTYLE
  2
STANDARD
 70
     0
  3

  4

  5

  6

  7

 40
1.0
 41
0.18
 42
0.0625
 43
0.38
 44
0.18
 45
0.0
 46
0.0
 47
0.0
 48
0.0
140
0.18
141
0.09
142
0.0
143
25.399999999999999
144
1.0
145
0.0
146
1.0
147
0.09
 71
     0
 72
     0
 73
     1
 74
     1
 75
     0
 76
     0
 77
     0
 78
     0
170
     0
171
     2
172
     0
173
     0
174
     0
175
     0
176
     0
177
     0
178
     0
  0
ENDTAB
  0
ENDSEC
  0
SECTION
  2
BLOCKS
  0
BLOCK
  8
0
  2
$MODEL_SPACE
 70
     0
 10
0.0
 20
0.0
 30
0.0
  3
$MODEL_SPACE
  1

  0
ENDBLK
  5
D9
  8
0
  0
BLOCK
 67
     1
  8
0
  2
$PAPER_SPACE
 70
     0
 10
0.0
 20
0.0
 30
0.0
  3
$PAPER_SPACE
  1

  0
ENDBLK
  5
D7
 67
     1
  8
0
  0
ENDSEC
  0
SECTION
  2
ENTITIES
  0
LINE
  5
39
  8
1
 10
51.798122609880863
 20
62.051846020342012
 30
0.0
 11
78.298122609880863
 21
62.051846020342012
 31
0.0
  0
ARC
  5
3A
  8
0
 10
104.46095860988081
 20
62.051846020342012
 30
0.0
 40
5.0
 50
93.49034300000001
 51
86.509656999999976
  0
LINE
  5
3B
  8
0
 10
72.298122609880863
 20
67.051846020342012
 30
0.0
 11
55.298122609880863
 21
67.051846020342012
 31
0.0
  0
LINE
  5
3C
  8
3
 10
73.110122609880861
 20
66.239846020342
 30
0.0
 11
54.486122609880859
 21
66.239846020342
 31
0.0
  0
LINE
  5
3D
  8
3
 10
73.110122609880861
 20
57.86384602034201
 30
0.0
 11
54.486122609880859
 21
57.86384602034201
 31
0.0
  0
LINE
  5
3E
  8
0
 10
72.298122609880863
 20
57.051846020342012
 30
0.0
 11
55.298122609880863
 21
57.051846020342012
 31
0.0
  0
LINE
  5
3F
  8
0
 10
54.298122609880863
 20
66.051846020342012
 30
0.0
 11
54.298122609880863
 21
62.851846020342009
 31
0.0
  0
LINE
  5
40
  8
0
 10
73.298122609880863
 20
66.051846020342012
 30
0.0
 11
73.298122609880863
 21
58.051846020342012
 31
0.0
  0
LINE
  5
41
  8
0
 10
54.298122609880863
 20
62.851846020342009
 30
0.0
 11
56.298122609880863
 21
62.851846020342009
 31
0.0
  0
LINE
  5
42
  8
0
 10
54.298122609880863
 20
61.251846020342001
 30
0.0
 11
56.298122609880863
 21
61.251846020342001
 31
0.0
  0
LINE
  5
43
  8
0
 10
19.36253760988086
 20
62.851846020342009
 30
0.0
 11
29.233707609880859
 21
62.851846020342009
 31
0.0
  0
LINE
  5
44
  8
0
 10
19.36253760988086
 20
61.251846020342001
 30
0.0
 11
29.233707609880859
 21
61.251846020342001
 31
0.0
  0
LINE
  5
45
  8
0
 10
73.298122609880863
 20
64.301846020342012
 30
0.0
 11
73.548122609880863
 21
64.301846020342012
 31
0.0
  0
LINE
  5
46
  8
0
 10
73.298122609880863
 20
59.801846020342012
 30
0.0
 11
73.548122609880863
 21
59.801846020342012
 31
0.0
  0
LINE
  5
47
  8
0
 10
54.298122609880863
 20
61.251846020342001
 30
0.0
 11
54.298122609880863
 21
58.051846020342012
 31
0.0
  0
ARC
  5
48
  8
0
 10
73.548122609880863
 20
62.051846020342012
 30
0.0
 40
2.25
 50
270.0
 51
90.0
  0
LINE
  5
49
  8
0
 10
72.298122609880863
 20
67.051846020342012
 30
0.0
 11
73.298122609880863
 21
66.051846020342012
 31
0.0
  0
LINE
  5
4A
  8
0
 10
55.298122609880863
 20
67.051846020342012
 30
0.0
 11
54.298122609880863
 21
66.051846020342012
 31
0.0
  0
LINE
  5
4B
  8
0
 10
72.298122609880863
 20
57.051846020342012
 30
0.0
 11
73.298122609880863
 21
58.051846020342012
 31
0.0
  0
LINE
  5
4C
  8
0
 10
54.298122609880863
 20
58.051846020342012
 30
0.0
 11
55.298122609880863
 21
57.051846020342012
 31
0.0
  0
LINE
  5
4D
  8
0
 10
55.298122609880863
 20
67.051846020342012
 30
0.0
 11
55.298122609880863
 21
62.851846020342009
 31
0.0
  0
LINE
  5
4E
  8
0
 10
56.298122609880863
 20
62.851846020342009
 30
0.0
 11
56.298122609880863
 21
61.251846020342001
 31
0.0
  0
LINE
  5
4F
  8
0
 10
55.298122609880863
 20
61.251846020342001
 30
0.0
 11
55.298122609880863
 21
57.051846020342012
 31
0.0
  0
CIRCLE
  5
50
  8
0
 10
104.46095860988081
 20
62.051846020342012
 30
0.0
 40
2.25
  0
CIRCLE
  5
51
  8
0
 10
24.29812260988086
 20
62.051846020342012
 30
0.0
 40
5.0
  0
CIRCLE
  5
52
  8
3
 10
24.29812260988086
 20
62.051846020342012
 30
0.0
 40
4.1879999999999988
  0
LINE
  5
53
  8
0
 10
72.298122609880863
 20
67.051846020342012
 30
0.0
 11
72.298122609880863
 21
57.051846020342012
 31
0.0
  0
ARC
  5
54
  8
2
 10
71.048122609880863
 20
62.051846020342012
 30
0.0
 40
2.25
 50
270.0
 51
90.0
  0
LINE
  5
55
  8
1
 10
31.79812260988086
 20
62.051846020342012
 30
0.0
 11
16.79812260988086
 21
62.051846020342012
 31
0.0
  0
LINE
  5
56
  8
1
 10
24.29812260988086
 20
69.551846020342012
 30
0.0
 11
24.29812260988086
 21
54.551846020342012
 31
0.0
  0
LINE
  5
57
  8
1
 10
111.96095860988081
 20
62.051846020342012
 30
0.0
 11
96.960958609880876
 21
62.051846020342012
 31
0.0
  0
LINE
  5
58
  8
1
 10
104.46095860988081
 20
69.551846020342012
 30
0.0
 11
104.46095860988081
 21
54.551846020342012
 31
0.0
  0
LINE
  5
59
  8
2
 10
73.298122609880863
 20
65.851846020342009
 30
0.0
 11
58.898122609880858
 21
65.851846020342009
 31
0.0
  0
LINE
  5
5A
  8
2
 10
58.398122609880858
 20
66.351846020341995
 30
0.0
 11
58.398122609880858
 21
67.051846020342012
 31
0.0
  0
LINE
  5
5B
  8
0
 10
61.298122609880863
 20
67.051846020342012
 30
0.0
 11
61.298122609880863
 21
67.151846020342006
 31
0.0
  0
LINE
  5
5C
  8
0
 10
61.298122609880863
 20
67.151846020342006
 30
0.0
 11
70.298122609880863
 21
67.151846020342006
 31
0.0
  0
LINE
  5
5D
  8
0
 10
70.298122609880863
 20
67.151846020342006
 30
0.0
 11
70.298122609880863
 21
67.051846020342012
 31
0.0
  0
LINE
  5
5E
  8
2
 10
61.298122609880863
 20
67.051846020342012
 30
0.0
 11
61.298122609880863
 21
65.851846020342009
 31
0.0
  0
LINE
  5
5F
  8
2
 10
70.298122609880863
 20
67.051846020342012
 30
0.0
 11
70.298122609880863
 21
65.851846020342009
 31
0.0
  0
ARC
  5
60
  8
2
 10
58.898122609880858
 20
66.351846020341995
 30
0.0
 40
0.5
 50
180.0
 51
270.0
  0
LINE
  5
61
  8
0
 10
103.91095860988079
 20
65.851846020342009
 30
0.0
 11
105.0109586098809
 21
65.851846020342009
 31
0.0
  0
LINE
  5
62
  8
0
 10
103.91095860988079
 20
67.021504020342007
 30
0.0
 11
103.91095860988079
 21
65.851846020342009
 31
0.0
  0
LINE
  5
63
  8
0
 10
105.0109586098809
 20
67.021504020342007
 30
0.0
 11
105.0109586098809
 21
65.851846020342009
 31
0.0
  0
POLYLINE
  5
64
  8
0
 66
     1
 10
0.0
 20
0.0
 30
0.0
 70
     1
  0
VERTEX
  5
65
  8
0
 10
103.91095860988079
 20
66.501846020342001
 30
0.0
 42
0.084478
  0
VERTEX
  5
66
  8
0
 10
103.9540866098809
 20
66.248405020342005
 30
0.0
 42
0.091541
  0
VERTEX
  5
67
  8
0
 10
104.07204960988081
 20
66.042227020341997
 30
0.0
 42
0.103696
 70
     2
 50
310.236358
  0
VERTEX
  5
68
  8
0
 10
104.2552416098808
 20
65.899496020341999
 30
0.0
 42
0.114302
 50
310.236358
  0
VERTEX
  5
69
  8
0
 10
104.46095860988081
 20
65.851846020342009
 30
0.0
 42
0.114302
  0
VERTEX
  5
6A
  8
0
 10
104.6666756098808
 20
65.899496020341999
 30
0.0
 42
0.103696
  0
VERTEX
  5
6B
  8
0
 10
104.8498676098809
 20
66.042227020341997
 30
0.0
 42
0.091541
 70
     2
 50
49.763641999999997
  0
VERTEX
  5
6C
  8
0
 10
104.96783060988081
 20
66.248405020342005
 30
0.0
 42
0.084478
 50
49.76364199999999
  0
VERTEX
  5
6D
  8
0
 10
105.0109586098809
 20
66.501846020342001
 30
0.0
 42
0.084478
  0
VERTEX
  5
6E
  8
0
 10
104.96783060988081
 20
66.755287020341996
 30
0.0
 42
0.091541
  0
VERTEX
  5
6F
  8
0
 10
104.8498676098809
 20
66.961465020342004
 30
0.0
 42
0.103696
 70
     2
 50
130.236358
  0
VERTEX
  5
70
  8
0
 10
104.6666756098808
 20
67.104196020342002
 30
0.0
 42
0.114302
 50
130.236358
  0
VERTEX
  5
71
  8
0
 10
104.46095860988081
 20
67.151846020342006
 30
0.0
 42
0.114302
  0
VERTEX
  5
72
  8
0
 10
104.2552416098808
 20
67.104196020342002
 30
0.0
 42
0.103696
  0
VERTEX
  5
73
  8
0
 10
104.07204960988081
 20
66.961465020342004
 30
0.0
 42
0.091541
 70
     2
 50
229.763642
  0
VERTEX
  5
74
  8
0
 10
103.9540866098809
 20
66.755287020341996
 30
0.0
 42
0.084478
 50
229.763642
  0
SEQEND
  5
75
  8
0
  0
POLYLINE
  5
76
  8
0
 66
     1
 10
0.0
 20
0.0
 30
0.0
  0
VERTEX
  5
77
  8
0
 10
24.602524609880859
 20
67.04257102034201
 30
0.0
 42
0.051534
 70
     2
 50
130.236358
  0
VERTEX
  5
78
  8
0
 10
24.503840609880861
 20
67.104196020342002
 30
0.0
 42
0.114302
 50
130.236358
  0
VERTEX
  5
79
  8
0
 10
24.29812260988086
 20
67.151846020342006
 30
0.0
 42
0.114302
  0
VERTEX
  5
7A
  8
0
 10
24.092405609880871
 20
67.104196020342002
 30
0.0
 42
0.051534
  0
VERTEX
  5
7B
  8
0
 10
23.993721609880861
 20
67.04257102034201
 30
0.0
 42
0.091541
 70
     2
 50
229.763642
  0
SEQEND
  5
7C
  8
0
  0
CIRCLE
  5
7D
  8
3
 10
104.46095860988081
 20
62.051846020342012
 30
0.0
 40
4.1879999999999988
  0
LINE
  5
7E
  8
0
 10
70.298122609880863
 20
93.631621020341996
 30
0.0
 11
70.298122609880863
 21
92.331621020341984
 31
0.0
  0
LINE
  5
7F
  8
0
 10
61.298122609880863
 20
92.331621020341984
 30
0.0
 11
61.298122609880863
 21
93.631621020341996
 31
0.0
  0
LINE
  5
80
  8
0
 10
58.398122609880858
 20
92.331621020341984
 30
0.0
 11
58.398122609880858
 21
93.631621020341996
 31
0.0
  0
LINE
  5
81
  8
0
 10
73.298122609880863
 20
92.331621020341984
 30
0.0
 11
58.398122609880858
 21
92.331621020341984
 31
0.0
  0
ARC
  5
82
  8
2
 10
71.048122609880863
 20
92.981621020342004
 30
0.0
 40
2.25
 50
270.0
 51
90.0
  0
LINE
  5
83
  8
0
 10
72.298122609880863
 20
97.98162102034199
 30
0.0
 11
72.298122609880863
 21
93.631621020341996
 31
0.0
  0
LINE
  5
84
  8
0
 10
55.298122609880863
 20
97.98162102034199
 30
0.0
 11
55.298122609880863
 21
87.981621020342004
 31
0.0
  0
LINE
  5
85
  8
0
 10
54.298122609880863
 20
88.981621020342004
 30
0.0
 11
55.298122609880863
 21
87.981621020342004
 31
0.0
  0
LINE
  5
86
  8
0
 10
72.298122609880863
 20
87.981621020342004
 30
0.0
 11
73.298122609880863
 21
88.981621020342004
 31
0.0
  0
LINE
  5
87
  8
0
 10
55.298122609880863
 20
97.98162102034199
 30
0.0
 11
54.298122609880863
 21
96.98162102034199
 31
0.0
  0
LINE
  5
88
  8
0
 10
72.298122609880863
 20
97.98162102034199
 30
0.0
 11
73.298122609880863
 21
96.98162102034199
 31
0.0
  0
ARC
  5
89
  8
0
 10
73.548122609880863
 20
92.981621020342004
 30
0.0
 40
2.25
 50
270.0
 51
90.0
  0
LINE
  5
8A
  8
0
 10
54.298122609880863
 20
96.98162102034199
 30
0.0
 11
54.298122609880863
 21
88.981621020342004
 31
0.0
  0
LINE
  5
8B
  8
0
 10
73.298122609880863
 20
90.731621020342004
 30
0.0
 11
73.548122609880863
 21
90.731621020342004
 31
0.0
  0
LINE
  5
8C
  8
0
 10
73.298122609880863
 20
95.231621020341976
 30
0.0
 11
73.548122609880863
 21
95.231621020341976
 31
0.0
  0
LINE
  5
8D
  8
0
 10
73.298122609880863
 20
96.98162102034199
 30
0.0
 11
73.298122609880863
 21
88.981621020342004
 31
0.0
  0
LINE
  5
8E
  8
0
 10
72.298122609880863
 20
87.981621020342004
 30
0.0
 11
55.298122609880863
 21
87.981621020342004
 31
0.0
  0
LINE
  5
8F
  8
3
 10
73.110122609880861
 20
88.793621020342002
 30
0.0
 11
54.486122609880859
 21
88.793621020342002
 31
0.0
  0
LINE
  5
90
  8
3
 10
73.110122609880861
 20
97.169621020342007
 30
0.0
 11
54.486122609880859
 21
97.169621020342007
 31
0.0
  0
LINE
  5
91
  8
0
 10
72.298122609880863
 20
97.98162102034199
 30
0.0
 11
55.298122609880863
 21
97.98162102034199
 31
0.0
  0
LINE
  5
92
  8
1
 10
51.798122609880863
 20
92.981621020342004
 30
0.0
 11
78.298122609880863
 21
92.981621020342004
 31
0.0
  0
LINE
  5
93
  8
0
 10
73.298122609880863
 20
93.631621020341996
 30
0.0
 11
58.398122609880858
 21
93.631621020341996
 31
0.0
  0
LINE
  5
94
  8
0
 10
72.298122609880863
 20
92.331621020341984
 30
0.0
 11
72.298122609880863
 21
87.981621020342004
 31
0.0
  0
LINE
  5
95
  8
0
 10
72.298122609880863
 20
35.916065020342003
 30
0.0
 11
72.298122609880863
 21
25.916065020341989
 31
0.0
  0
LINE
  5
96
  8
1
 10
51.798122609880863
 20
30.916065020341989
 30
0.0
 11
78.298122609880863
 21
30.916065020341989
 31
0.0
  0
LINE
  5
97
  8
0
 10
72.298122609880863
 20
35.916065020342003
 30
0.0
 11
55.298122609880863
 21
35.916065020342003
 31
0.0
  0
LINE
  5
98
  8
3
 10
73.110122609880861
 20
35.104065020341999
 30
0.0
 11
54.486122609880859
 21
35.104065020341999
 31
0.0
  0
LINE
  5
99
  8
3
 10
73.110122609880861
 20
26.728065020342001
 30
0.0
 11
54.486122609880859
 21
26.728065020342001
 31
0.0
  0
LINE
  5
9A
  8
0
 10
72.298122609880863
 20
25.916065020341989
 30
0.0
 11
55.298122609880863
 21
25.916065020341989
 31
0.0
  0
LINE
  5
9B
  8
0
 10
73.298122609880863
 20
34.916065020342003
 30
0.0
 11
73.298122609880863
 21
26.916065020341989
 31
0.0
  0
LINE
  5
9C
  8
0
 10
73.298122609880863
 20
33.166065020342003
 30
0.0
 11
73.548122609880863
 21
33.166065020342003
 31
0.0
  0
LINE
  5
9D
  8
0
 10
73.298122609880863
 20
28.666065020341989
 30
0.0
 11
73.548122609880863
 21
28.666065020341989
 31
0.0
  0
LINE
  5
9E
  8
0
 10
54.298122609880863
 20
34.916065020342003
 30
0.0
 11
54.298122609880863
 21
26.916065020341989
 31
0.0
  0
ARC
  5
9F
  8
0
 10
73.548122609880863
 20
30.916065020341989
 30
0.0
 40
2.25
 50
270.0
 51
90.0
  0
LINE
  5
A0
  8
0
 10
72.298122609880863
 20
35.916065020342003
 30
0.0
 11
73.298122609880863
 21
34.916065020342003
 31
0.0
  0
LINE
  5
A1
  8
0
 10
55.298122609880863
 20
35.916065020342003
 30
0.0
 11
54.298122609880863
 21
34.916065020342003
 31
0.0
  0
LINE
  5
A2
  8
0
 10
72.298122609880863
 20
25.916065020341989
 30
0.0
 11
73.298122609880863
 21
26.916065020341989
 31
0.0
  0
LINE
  5
A3
  8
0
 10
54.298122609880863
 20
26.916065020341989
 30
0.0
 11
55.298122609880863
 21
25.916065020341989
 31
0.0
  0
LINE
  5
A4
  8
0
 10
55.298122609880863
 20
35.916065020342003
 30
0.0
 11
55.298122609880863
 21
25.916065020341989
 31
0.0
  0
ARC
  5
A5
  8
2
 10
71.048122609880863
 20
30.916065020341989
 30
0.0
 40
2.25
 50
270.0
 51
90.0
  0
TEXT
  5
1E1
  8
0
 62
     3
 10
0.0
 20
0.0
 30
0.0
 40
5.0
  1
LSPL10
  7
STANDARD1
  0
ENDSEC
  0
EOF
