  0
SECTION
  2
HEADER
  9
$ACADVER
  1
AC1009
  9
$INSBASE
 10
0.0
 20
0.0
 30
0.0
  9
$EXTMIN
 10
0.0
 20
-2.960436562073669
 30
0.0
  9
$EXTMAX
 10
173.0
 20
302.00000000000011
 30
0.0
  9
$LIMMIN
 10
0.0
 20
0.0
  9
$LIMMAX
 10
750.0
 20
540.0
  9
$ORTHOMODE
 70
     1
  9
$REGENMODE
 70
     1
  9
$FILLMODE
 70
     1
  9
$QTEXTMODE
 70
     0
  9
$MIRRTEXT
 70
     0
  9
$DRAGMODE
 70
     2
  9
$LTSCALE
 40
10.0
  9
$OSMODE
 70
    37
  9
$ATTMODE
 70
     1
  9
$TEXTSIZE
 40
0.2
  9
$TRACEWID
 40
0.05
  9
$TEXTSTYLE
  7
STANDARD
  9
$CLAYER
  8
0
  9
$CELTYPE
  6
BYLAYER
  9
$CECOLOR
 62
   256
  9
$DIMSCALE
 40
2.0
  9
$DIMASZ
 40
3.0
  9
$DIMEXO
 40
2.0
  9
$DIMDLI
 40
0.38
  9
$DIMRND
 40
0.0
  9
$DIMDLE
 40
0.0
  9
$DIMEXE
 40
2.0
  9
$DIMTP
 40
0.0
  9
$DIMTM
 40
0.0
  9
$DIMTXT
 40
3.2000000000000002
  9
$DIMCEN
 40
0.0
  9
$DIMTSZ
 40
0.0
  9
$DIMTOL
 70
     0
  9
$DIMLIM
 70
     0
  9
$DIMTIH
 70
     0
  9
$DIMTOH
 70
     0
  9
$DIMSE1
 70
     0
  9
$DIMSE2
 70
     0
  9
$DIMTAD
 70
     1
  9
$DIMZIN
 70
     0
  9
$DIMBLK
  1

  9
$DIMASO
 70
     1
  9
$DIMSHO
 70
     0
  9
$DIMPOST
  1

  9
$DIMAPOST
  1

  9
$DIMALT
 70
     0
  9
$DIMALTD
 70
     2
  9
$DIMALTF
 40
25.399999999999999
  9
$DIMLFAC
 40
1.0
  9
$DIMTOFL
 70
     1
  9
$DIMTVP
 40
1.6000000000000001
  9
$DIMTIX
 70
     1
  9
$DIMSOXD
 70
     0
  9
$DIMSAH
 70
     0
  9
$DIMBLK1
  1

  9
$DIMBLK2
  1

  9
$DIMSTYLE
  2
STANDARD
  9
$DIMCLRD
 70
     0
  9
$DIMCLRE
 70
     0
  9
$DIMCLRT
 70
     0
  9
$DIMTFAC
 40
1.0
  9
$DIMGAP
 40
0.09
  9
$LUNITS
 70
     2
  9
$LUPREC
 70
     1
  9
$SKETCHINC
 40
0.1
  9
$FILLETRAD
 40
0.0
  9
$AUNITS
 70
     0
  9
$AUPREC
 70
     1
  9
$MENU
  1
E:\r13\win\SUPPORT\ACAD
  9
$ELEVATION
 40
0.0
  9
$PELEVATION
 40
0.0
  9
$THICKNESS
 40
0.0
  9
$LIMCHECK
 70
     0
  9
$BLIPMODE
 70
     0
  9
$CHAMFERA
 40
0.0
  9
$CHAMFERB
 40
0.0
  9
$SKPOLY
 70
     0
  9
$TDCREATE
 40
2451614.4610555549
  9
$TDUPDATE
 40
2457163.6980308681
  9
$TDINDWG
 40
0.1003613426
  9
$TDUSRTIMER
 40
0.1003613426
  9
$USRTIMER
 70
     1
  9
$ANGBASE
 50
0.0
  9
$ANGDIR
 70
     0
  9
$PDMODE
 70
     0
  9
$PDSIZE
 40
0.0
  9
$PLINEWID
 40
0.0
  9
$COORDS
 70
     1
  9
$SPLFRAME
 70
     0
  9
$SPLINETYPE
 70
     6
  9
$SPLINESEGS
 70
     8
  9
$ATTDIA
 70
     0
  9
$ATTREQ
 70
     1
  9
$HANDLING
 70
     1
  9
$HANDSEED
  5
2388
  9
$SURFTAB1
 70
     6
  9
$SURFTAB2
 70
     6
  9
$SURFTYPE
 70
     6
  9
$SURFU
 70
     6
  9
$SURFV
 70
     6
  9
$UCSNAME
  2

  9
$UCSORG
 10
0.0
 20
0.0
 30
0.0
  9
$UCSXDIR
 10
1.0
 20
0.0
 30
0.0
  9
$UCSYDIR
 10
0.0
 20
1.0
 30
0.0
  9
$PUCSNAME
  2

  9
$PUCSORG
 10
0.0
 20
0.0
 30
0.0
  9
$PUCSXDIR
 10
1.0
 20
0.0
 30
0.0
  9
$PUCSYDIR
 10
0.0
 20
1.0
 30
0.0
  9
$USERI1
 70
     0
  9
$USERI2
 70
     1
  9
$USERI3
 70
     1
  9
$USERI4
 70
     0
  9
$USERI5
 70
     0
  9
$USERR1
 40
0.0
  9
$USERR2
 40
0.0
  9
$USERR3
 40
0.0
  9
$USERR4
 40
0.0
  9
$USERR5
 40
0.0
  9
$WORLDVIEW
 70
     1
  9
$SHADEDGE
 70
     3
  9
$SHADEDIF
 70
    70
  9
$TILEMODE
 70
     1
  9
$MAXACTVP
 70
    16
  9
$PLIMCHECK
 70
     0
  9
$PEXTMIN
 10
1.0000000000000000E+020
 20
1.0000000000000000E+020
 30
1.0000000000000000E+020
  9
$PEXTMAX
 10
-1.0000000000000000E+020
 20
-1.0000000000000000E+020
 30
-1.0000000000000000E+020
  9
$PLIMMIN
 10
0.0
 20
0.0
  9
$PLIMMAX
 10
12.0
 20
9.0
  9
$UNITMODE
 70
     0
  9
$VISRETAIN
 70
     0
  9
$PLINEGEN
 70
     0
  9
$PSLTSCALE
 70
     0
  0
ENDSEC
  0
SECTION
  2
TABLES
  0
TABLE
  2
VPORT
 70
     1
  0
VPORT
  2
*ACTIVE
 70
     0
 10
0.0
 20
0.0
 11
1.0
 21
1.0
 12
326.92307692307691
 22
180.0
 13
0.0
 23
0.0
 14
20.0
 24
20.0
 15
20.0
 25
20.0
 16
0.0
 26
0.0
 36
1.0
 17
0.0
 27
0.0
 37
0.0
 40
360.0
 41
1.816239316239316
 42
50.0
 43
0.0
 44
0.0
 50
0.0
 51
0.0
 71
     0
 72
   500
 73
     1
 74
     0
 75
     0
 76
     0
 77
     0
 78
     2
  0
ENDTAB
  0
TABLE
  2
LTYPE
 70
     3
  0
LTYPE
  2
CONTINUOUS
 70
     0
  3
Solid Line
 72
    65
 73
     0
 40
0.0
  0
LTYPE
  2
CENTER
 70
     0
  3
____ _ ____ _ ____ _ ____ _ ____ _ ____ _ ____
 72
    65
 73
     4
 40
2.0
 49
1.25
 49
-0.25
 49
0.25
 49
-0.25
  0
LTYPE
  2
PHANTOM2
 70
     0
  3
___ _ _ ___ _ _ ___ _ _ ___ _ _
 72
    65
 73
     6
 40
1.25
 49
0.625
 49
-0.125
 49
0.125
 49
-0.125
 49
0.125
 49
-0.125
  0
ENDTAB
  0
TABLE
  2
LAYER
 70
     4
  0
LAYER
  2
0
 70
     0
 62
     7
  6
CONTINUOUS
  0
LAYER
  2
1
 70
     0
 62
     1
  6
CENTER
  0
LAYER
  2
3
 70
     0
 62
     3
  6
CONTINUOUS
  0
LAYER
  2
DEFPOINTS
 70
     0
 62
     7
  6
CONTINUOUS
  0
ENDTAB
  0
TABLE
  2
STYLE
 70
     4
  0
STYLE
  2
STANDARD
 70
     0
 40
0.0
 41
1.0
 50
0.0
 71
     0
 42
0.2
  3
TXT
  4
BIGFONT
  0
STYLE
  2
STANDARD1
 70
     0
 40
0.0
 41
1.0
 50
0.0
 71
     0
 42
3.0
  3
txt
  4

  0
STYLE
  2
SIM110
 70
     0
 40
0.0
 41
1.1000000000000001
 50
0.0
 71
     0
 42
1.3
  3
SIMPLEX
  4

  0
STYLE
  2
SIMPLEX
 70
     0
 40
0.0
 41
0.8
 50
0.0
 71
     0
 42
2.8165380840108591
  3
SIMPLEX
  4

  0
ENDTAB
  0
TABLE
  2
VIEW
 70
     1
  0
VIEW
  2
ALL
 70
     0
 40
540.0
 10
441.98319327731087
 20
270.0
 41
0.0
 11
0.0
 21
0.0
 31
1.0
 12
0.0
 22
0.0
 32
0.0
 42
0.0
 43
0.0
 44
0.0
 50
0.0
 71
     0
  0
ENDTAB
  0
TABLE
  2
UCS
 70
     0
  0
ENDTAB
  0
TABLE
  2
APPID
 70
     8
  0
APPID
  2
ACAD
 70
     0
  0
APPID
  2
ACAD_MLEADERVER
 70
     0
  0
APPID
  2
ACAD_EXEMPT_FROM_CAD_STANDARDS
 70
     0
  0
APPID
  2
ACAD_NAV_VCDISPLAY
 70
     0
  0
APPID
  2
GRADIENTCOLOR1ACI
 70
     0
  0
APPID
  2
GRADIENTCOLOR2ACI
 70
     0
  0
APPID
  2
ACAD_DSTYLE_DIMJAG
 70
     0
  0
APPID
  2
ACAD_DSTYLE_DIMTALN
 70
     0
  0
ENDTAB
  0
TABLE
  2
DIMSTYLE
 70
     1
  0
DIMSTYLE
  2
STANDARD
 70
     0
  3

  4

  5

  6

  7

 40
1.0
 41
0.18
 42
0.0625
 43
0.38
 44
0.18
 45
0.0
 46
0.0
 47
0.0
 48
0.0
140
0.18
141
0.09
142
0.0
143
25.399999999999999
144
1.0
145
0.0
146
1.0
147
0.09
 71
     0
 72
     0
 73
     1
 74
     1
 75
     0
 76
     0
 77
     0
 78
     0
170
     0
171
     2
172
     0
173
     0
174
     0
175
     0
176
     0
177
     0
178
     0
  0
ENDTAB
  0
ENDSEC
  0
SECTION
  2
BLOCKS
  0
BLOCK
  8
0
  2
$MODEL_SPACE
 70
     0
 10
0.0
 20
0.0
 30
0.0
  3
$MODEL_SPACE
  1

  0
ENDBLK
  5
E98
  8
0
  0
BLOCK
 67
     1
  8
0
  2
$PAPER_SPACE
 70
     0
 10
0.0
 20
0.0
 30
0.0
  3
$PAPER_SPACE
  1

  0
ENDBLK
  5
E96
 67
     1
  8
0
  0
BLOCK
  8
0
  2
*U0
 70
     1
 10
0.0
 20
0.0
 30
0.0
  3
*U0
  1

  0
SOLID
  5
2376
  8
0
  6
CONTINUOUS
 10
63.5
 20
259.25
 30
0.0
 11
63.5
 21
257.75
 31
0.0
 12
71.0
 22
257.75
 32
0.0
 13
71.0
 23
257.75
 33
0.0
210
0.0
220
0.0
230
1.0
  0
SOLID
  5
2377
  8
0
  6
CONTINUOUS
 10
-63.5
 20
259.25
 30
0.0
 11
-71.0
 21
259.25
 31
0.0
 12
-71.0
 22
257.75
 32
0.0
 13
-71.0
 23
257.75
 33
0.0
210
0.0
220
0.0
230
-1.0
  0
SOLID
  5
2378
  8
0
  6
CONTINUOUS
 10
56.0
 20
259.25
 30
0.0
 11
56.0
 21
257.75
 31
0.0
 12
63.5
 22
257.75
 32
0.0
 13
63.5
 23
257.75
 33
0.0
210
0.0
220
0.0
230
1.0
  0
SOLID
  5
2379
  8
0
  6
CONTINUOUS
 10
-56.0
 20
259.25
 30
0.0
 11
-63.5
 21
259.25
 31
0.0
 12
-63.5
 22
257.75
 32
0.0
 13
-63.5
 23
257.75
 33
0.0
210
0.0
220
0.0
230
-1.0
  0
SOLID
  5
237A
  8
0
  6
CONTINUOUS
 10
63.5
 20
179.50000000000011
 30
0.0
 11
63.5
 21
177.50000000000011
 31
0.0
 12
71.0
 22
177.50000000000011
 32
0.0
 13
71.0
 23
177.50000000000011
 33
0.0
210
0.0
220
0.0
230
1.0
  0
SOLID
  5
237B
  8
0
  6
CONTINUOUS
 10
-63.5
 20
179.50000000000011
 30
0.0
 11
-71.0
 21
179.50000000000011
 31
0.0
 12
-71.0
 22
177.50000000000011
 32
0.0
 13
-71.0
 23
177.50000000000011
 33
0.0
210
0.0
220
0.0
230
-1.0
  0
SOLID
  5
237C
  8
0
  6
CONTINUOUS
 10
56.0
 20
179.50000000000011
 30
0.0
 11
56.0
 21
177.50000000000011
 31
0.0
 12
63.5
 22
177.50000000000011
 32
0.0
 13
63.5
 23
177.50000000000011
 33
0.0
210
0.0
220
0.0
230
1.0
  0
SOLID
  5
237D
  8
0
  6
CONTINUOUS
 10
-56.0
 20
179.50000000000011
 30
0.0
 11
-63.5
 21
179.50000000000011
 31
0.0
 12
-63.5
 22
177.50000000000011
 32
0.0
 13
-63.5
 23
177.50000000000011
 33
0.0
210
0.0
220
0.0
230
-1.0
  0
LINE
  5
237E
  8
0
  6
CONTINUOUS
 10
63.5
 20
259.25
 30
0.0
 11
63.5
 21
257.75
 31
0.0
  0
LINE
  5
237F
  8
0
  6
CONTINUOUS
 10
71.0
 20
259.25
 30
0.0
 11
71.0
 21
257.75
 31
0.0
  0
LINE
  5
2380
  8
0
  6
CONTINUOUS
 10
56.0
 20
259.25
 30
0.0
 11
56.0
 21
257.75
 31
0.0
  0
LINE
  5
2381
  8
0
  6
CONTINUOUS
 10
63.5
 20
259.25
 30
0.0
 11
63.5
 21
257.75
 31
0.0
  0
LINE
  5
2382
  8
0
  6
CONTINUOUS
 10
63.5
 20
179.50000000000011
 30
0.0
 11
63.5
 21
177.50000000000011
 31
0.0
  0
LINE
  5
2383
  8
0
  6
CONTINUOUS
 10
71.0
 20
179.50000000000011
 30
0.0
 11
71.0
 21
177.50000000000011
 31
0.0
  0
LINE
  5
2384
  8
0
  6
CONTINUOUS
 10
56.0
 20
179.50000000000011
 30
0.0
 11
56.0
 21
177.50000000000011
 31
0.0
  0
LINE
  5
2385
  8
0
  6
CONTINUOUS
 10
63.5
 20
179.50000000000011
 30
0.0
 11
63.5
 21
177.50000000000011
 31
0.0
  0
ENDBLK
  5
2387
  8
0
  0
ENDSEC
  0
SECTION
  2
ENTITIES
  0
TEXT
  5
F8E
  8
0
 62
     3
 10
0.0
 20
0.0
 30
0.0
 40
10.0
  1
LR-127CP
  7
STANDARD1
  0
LINE
  5
1150
  8
1
 10
122.0
 20
155.50000000000011
 30
0.0
 11
173.0
 21
155.50000000000011
 31
0.0
  0
LINE
  5
1151
  8
1
 10
122.0
 20
282.50000000000011
 30
0.0
 11
173.0
 21
282.50000000000011
 31
0.0
  0
LINE
  5
1153
  8
0
 10
160.92907797847849
 20
165.00000000000011
 30
0.0
 11
160.92907797847849
 21
146.00000000000011
 31
0.0
  0
LINE
  5
1154
  8
0
 10
160.0805722024466
 20
144.5303448853972
 30
0.0
 11
160.92907797847849
 21
146.00000000000011
 31
0.0
  0
LINE
  5
1155
  8
0
 10
150.92907797847849
 20
165.00000000000011
 30
0.0
 11
150.92907797847849
 21
146.00000000000011
 31
0.0
  0
LINE
  5
1156
  8
0
 10
150.92907797847849
 20
146.00000000000011
 30
0.0
 11
151.77758375451029
 21
144.5303448853972
 31
0.0
  0
LINE
  5
1157
  8
0
 10
160.92907797847849
 20
165.00000000000011
 30
0.0
 11
160.0805722024466
 21
166.469655114603
 31
0.0
  0
LINE
  5
1158
  8
0
 10
151.77758375451029
 20
166.469655114603
 30
0.0
 11
150.92907797847849
 21
165.00000000000011
 31
0.0
  0
LINE
  5
1159
  8
0
 10
168.0
 20
160.4265
 30
0.0
 11
166.9265
 21
161.50000000000011
 31
0.0
  0
LINE
  5
115A
  8
0
 10
166.9265
 20
149.50000000000011
 30
0.0
 11
168.0
 21
150.57350000000011
 31
0.0
  0
LINE
  5
115B
  8
0
 10
168.0
 20
160.4265
 30
0.0
 11
168.0
 21
150.57350000000011
 31
0.0
  0
LINE
  5
115C
  8
0
 10
160.92907797847849
 20
149.50000000000011
 30
0.0
 11
166.9265
 21
149.50000000000011
 31
0.0
  0
LINE
  5
115D
  8
0
 10
166.9265
 20
161.50000000000011
 30
0.0
 11
160.92907797847849
 21
161.50000000000011
 31
0.0
  0
LINE
  5
115E
  8
0
 10
166.9265
 20
161.50000000000011
 30
0.0
 11
166.9265
 21
149.50000000000011
 31
0.0
  0
LINE
  5
1161
  8
0
 10
147.49999999999989
 20
149.50000000000011
 30
0.0
 11
147.97597008285649
 21
149.5
 31
0.0
  0
LINE
  5
1162
  8
0
 10
150.92907797847849
 20
161.50000000000011
 30
0.0
 11
150.65375491219191
 21
161.50000000000011
 31
0.0
  0
LINE
  5
1164
  8
0
 10
127.0
 20
156.50000000000011
 30
0.0
 11
128.5
 21
156.50000000000011
 31
0.0
  0
LINE
  5
1165
  8
0
 10
127.59999999999999
 20
164.00000000000011
 30
0.0
 11
127.0
 21
163.40000000000009
 31
0.0
  0
LINE
  5
1166
  8
0
 10
127.0
 20
163.40000000000009
 30
0.0
 11
127.0
 21
156.50000000000011
 31
0.0
  0
LINE
  5
1167
  8
0
 10
127.0
 20
154.50000000000011
 30
0.0
 11
128.5
 21
154.50000000000011
 31
0.0
  0
LINE
  5
1168
  8
0
 10
127.0
 20
154.50000000000011
 30
0.0
 11
127.0
 21
147.60000000000011
 31
0.0
  0
LINE
  5
1169
  8
0
 10
127.0
 20
147.60000000000011
 30
0.0
 11
127.59999999999999
 21
147.00000000000011
 31
0.0
  0
LINE
  5
116A
  8
0
 10
127.59999999999999
 20
154.50000000000011
 30
0.0
 11
127.59999999999999
 21
147.00000000000011
 31
0.0
  0
LINE
  5
116B
  8
0
 10
127.59999999999999
 20
147.00000000000011
 30
0.0
 11
128.5
 21
147.00000000000011
 31
0.0
  0
LINE
  5
116C
  8
0
 10
128.5
 20
164.00000000000011
 30
0.0
 11
127.59999999999999
 21
164.00000000000011
 31
0.0
  0
LINE
  5
116D
  8
0
 10
127.59999999999999
 20
164.00000000000011
 30
0.0
 11
127.59999999999999
 21
156.50000000000011
 31
0.0
  0
POLYLINE
  5
116E
  8
0
 66
     1
 10
0.0
 20
0.0
 30
0.0
 70
     8
  0
VERTEX
  5
116F
  8
0
 10
151.77758375451029
 20
160.98482755730149
 30
0.0
 70
    32
  0
VERTEX
  5
1170
  8
0
 10
151.5060093938414
 20
159.97043570924609
 30
0.0
 70
    32
  0
VERTEX
  5
1171
  8
0
 10
151.2786405912031
 20
158.9453339414768
 30
0.0
 70
    32
  0
VERTEX
  5
1172
  8
0
 10
151.10152392399979
 20
157.9002303884441
 30
0.0
 70
    32
  0
VERTEX
  5
1173
  8
0
 10
150.98392839920501
 20
156.8468839225211
 30
0.0
 70
    32
  0
VERTEX
  5
1174
  8
0
 10
150.9428869676002
 20
156.17454548325529
 30
0.0
 70
    32
  0
VERTEX
  5
1175
  8
0
 10
150.92907797847849
 20
155.50000000000011
 30
0.0
 70
    32
  0
SEQEND
  5
1176
  8
0
  0
POLYLINE
  5
1177
  8
0
 66
     1
 10
0.0
 20
0.0
 30
0.0
 70
     8
  0
VERTEX
  5
1178
  8
0
 10
150.92907797847849
 20
155.50000000000011
 30
0.0
 70
    32
  0
VERTEX
  5
1179
  8
0
 10
150.96373666973349
 20
154.43033400352701
 30
0.0
 70
    32
  0
VERTEX
  5
117A
  8
0
 10
151.06643094051421
 20
153.3606680070541
 30
0.0
 70
    32
  0
VERTEX
  5
117B
  8
0
 10
151.2342177702858
 20
152.28734288925321
 30
0.0
 70
    32
  0
VERTEX
  5
117C
  8
0
 10
151.45970178978251
 20
151.22133601410789
 30
0.0
 70
    32
  0
VERTEX
  5
117D
  8
0
 10
151.77758375451029
 20
150.01517244269871
 30
0.0
 70
    32
  0
SEQEND
  5
117E
  8
0
  0
POLYLINE
  5
117F
  8
0
 66
     1
 10
0.0
 20
0.0
 30
0.0
 70
     8
  0
VERTEX
  5
1180
  8
0
 10
160.0805722024466
 20
150.01517244269871
 30
0.0
 70
    32
  0
VERTEX
  5
1181
  8
0
 10
160.39845416717461
 20
151.22133601410789
 30
0.0
 70
    32
  0
VERTEX
  5
1182
  8
0
 10
160.62067923334189
 20
152.2697658020229
 30
0.0
 70
    32
  0
VERTEX
  5
1183
  8
0
 10
160.78796556753409
 20
153.3312211779629
 30
0.0
 70
    32
  0
VERTEX
  5
1184
  8
0
 10
160.89316959276499
 20
154.41115838732591
 30
0.0
 70
    32
  0
VERTEX
  5
1185
  8
0
 10
160.92907797847849
 20
155.50000000000011
 30
0.0
 70
    32
  0
SEQEND
  5
1186
  8
0
  0
POLYLINE
  5
1187
  8
0
 66
     1
 10
0.0
 20
0.0
 30
0.0
 70
     8
  0
VERTEX
  5
1188
  8
0
 10
160.92907797847849
 20
155.50000000000011
 30
0.0
 70
    32
  0
VERTEX
  5
1189
  8
0
 10
160.9153140775006
 20
156.17344196126049
 30
0.0
 70
    32
  0
VERTEX
  5
118A
  8
0
 10
160.87422755775191
 20
156.8468839225211
 30
0.0
 70
    32
  0
VERTEX
  5
118B
  8
0
 10
160.75812096375279
 20
157.889702655186
 30
0.0
 70
    32
  0
VERTEX
  5
118C
  8
0
 10
160.58361247129099
 20
158.9244637030464
 30
0.0
 70
    32
  0
VERTEX
  5
118D
  8
0
 10
160.35468301277541
 20
159.96010665041851
 30
0.0
 70
    32
  0
VERTEX
  5
118E
  8
0
 10
160.0805722024466
 20
160.98482755730149
 30
0.0
 70
    32
  0
SEQEND
  5
118F
  8
0
  0
POLYLINE
  5
1190
  8
0
 66
     1
 10
0.0
 20
0.0
 30
0.0
 70
     8
  0
VERTEX
  5
1191
  8
0
 10
151.77758375451029
 20
166.469655114603
 30
0.0
 70
    32
  0
VERTEX
  5
1192
  8
0
 10
151.4301963087637
 20
165.80357491388139
 30
0.0
 70
    32
  0
VERTEX
  5
1193
  8
0
 10
151.16196781210789
 20
165.12606910301841
 30
0.0
 70
    32
  0
VERTEX
  5
1194
  8
0
 10
150.98899559644289
 20
164.43126498184461
 30
0.0
 70
    32
  0
VERTEX
  5
1195
  8
0
 10
150.92907797847849
 20
163.72724133595219
 30
0.0
 70
    32
  0
SEQEND
  5
1196
  8
0
  0
POLYLINE
  5
1197
  8
0
 66
     1
 10
0.0
 20
0.0
 30
0.0
 70
     8
  0
VERTEX
  5
1198
  8
0
 10
150.92907797847849
 20
163.72724133595219
 30
0.0
 70
    32
  0
VERTEX
  5
1199
  8
0
 10
150.9336989975354
 20
163.5322176082617
 30
0.0
 70
    32
  0
VERTEX
  5
119A
  8
0
 10
151.01286593835471
 20
162.89380922497179
 30
0.0
 70
    32
  0
VERTEX
  5
119B
  8
0
 10
151.18597384303911
 20
162.25651332239221
 30
0.0
 70
    32
  0
VERTEX
  5
119C
  8
0
 10
151.44570867495159
 20
161.61759068268111
 30
0.0
 70
    32
  0
VERTEX
  5
119D
  8
0
 10
151.77758375451029
 20
160.98482755730149
 30
0.0
 70
    32
  0
SEQEND
  5
119E
  8
0
  0
LINE
  5
119F
  8
0
 10
160.0805722024466
 20
160.98482755730149
 30
0.0
 11
151.77758375451029
 21
160.98482755730149
 31
0.0
  0
POLYLINE
  5
11A0
  8
0
 66
     1
 10
0.0
 20
0.0
 30
0.0
 70
     8
  0
VERTEX
  5
11A1
  8
0
 10
160.0805722024466
 20
160.98482755730149
 30
0.0
 70
    32
  0
VERTEX
  5
11A2
  8
0
 10
160.42795964819331
 20
161.6509077580231
 30
0.0
 70
    32
  0
VERTEX
  5
11A3
  8
0
 10
160.69618814484909
 20
162.32841356888611
 30
0.0
 70
    32
  0
VERTEX
  5
11A4
  8
0
 10
160.86916036051409
 20
163.02321769005991
 30
0.0
 70
    32
  0
VERTEX
  5
11A5
  8
0
 10
160.92907797847849
 20
163.72724133595219
 30
0.0
 70
    32
  0
SEQEND
  5
11A6
  8
0
  0
POLYLINE
  5
11A7
  8
0
 66
     1
 10
0.0
 20
0.0
 30
0.0
 70
     8
  0
VERTEX
  5
11A8
  8
0
 10
160.92907797847849
 20
163.72724133595219
 30
0.0
 70
    32
  0
VERTEX
  5
11A9
  8
0
 10
160.9244569594216
 20
163.9222650636429
 30
0.0
 70
    32
  0
VERTEX
  5
11AA
  8
0
 10
160.8452900186023
 20
164.5606734469327
 30
0.0
 70
    32
  0
VERTEX
  5
11AB
  8
0
 10
160.67218211391781
 20
165.19796934951219
 30
0.0
 70
    32
  0
VERTEX
  5
11AC
  8
0
 10
160.41244728200559
 20
165.83689198922349
 30
0.0
 70
    32
  0
VERTEX
  5
11AD
  8
0
 10
160.0805722024466
 20
166.469655114603
 30
0.0
 70
    32
  0
SEQEND
  5
11AE
  8
0
  0
LINE
  5
11AF
  8
0
 10
160.0805722024466
 20
166.469655114603
 30
0.0
 11
151.77758375451029
 21
166.469655114603
 31
0.0
  0
POLYLINE
  5
11B0
  8
0
 66
     1
 10
0.0
 20
0.0
 30
0.0
 70
     8
  0
VERTEX
  5
11B1
  8
0
 10
151.77758375451029
 20
150.01517244269871
 30
0.0
 70
    32
  0
VERTEX
  5
11B2
  8
0
 10
151.4301963087637
 20
149.3490922419771
 30
0.0
 70
    32
  0
VERTEX
  5
11B3
  8
0
 10
151.16196781210789
 20
148.67158643111401
 30
0.0
 70
    32
  0
VERTEX
  5
11B4
  8
0
 10
150.98899559644289
 20
147.97678230994029
 30
0.0
 70
    32
  0
VERTEX
  5
11B5
  8
0
 10
150.92907797847849
 20
147.2727586640479
 30
0.0
 70
    32
  0
SEQEND
  5
11B6
  8
0
  0
POLYLINE
  5
11B7
  8
0
 66
     1
 10
0.0
 20
0.0
 30
0.0
 70
     8
  0
VERTEX
  5
11B8
  8
0
 10
150.92907797847849
 20
147.2727586640479
 30
0.0
 70
    32
  0
VERTEX
  5
11B9
  8
0
 10
150.9336989975354
 20
147.07773493635719
 30
0.0
 70
    32
  0
VERTEX
  5
11BA
  8
0
 10
151.01286593835471
 20
146.4393265530675
 30
0.0
 70
    32
  0
VERTEX
  5
11BB
  8
0
 10
151.18597384303911
 20
145.80203065048789
 30
0.0
 70
    32
  0
VERTEX
  5
11BC
  8
0
 10
151.44570867495159
 20
145.1631080107766
 30
0.0
 70
    32
  0
VERTEX
  5
11BD
  8
0
 10
151.77758375451029
 20
144.5303448853972
 30
0.0
 70
    32
  0
SEQEND
  5
11BE
  8
0
  0
LINE
  5
11BF
  8
0
 10
160.0805722024466
 20
144.5303448853972
 30
0.0
 11
151.77758375451029
 21
144.5303448853972
 31
0.0
  0
POLYLINE
  5
11C0
  8
0
 66
     1
 10
0.0
 20
0.0
 30
0.0
 70
     8
  0
VERTEX
  5
11C1
  8
0
 10
160.0805722024466
 20
144.5303448853972
 30
0.0
 70
    32
  0
VERTEX
  5
11C2
  8
0
 10
160.42795964819331
 20
145.19642508611881
 30
0.0
 70
    32
  0
VERTEX
  5
11C3
  8
0
 10
160.69618814484909
 20
145.87393089698179
 30
0.0
 70
    32
  0
VERTEX
  5
11C4
  8
0
 10
160.86916036051409
 20
146.56873501815559
 30
0.0
 70
    32
  0
VERTEX
  5
11C5
  8
0
 10
160.92907797847849
 20
147.2727586640479
 30
0.0
 70
    32
  0
SEQEND
  5
11C6
  8
0
  0
POLYLINE
  5
11C7
  8
0
 66
     1
 10
0.0
 20
0.0
 30
0.0
 70
     8
  0
VERTEX
  5
11C8
  8
0
 10
160.92907797847849
 20
147.2727586640479
 30
0.0
 70
    32
  0
VERTEX
  5
11C9
  8
0
 10
160.9244569594216
 20
147.4677823917385
 30
0.0
 70
    32
  0
VERTEX
  5
11CA
  8
0
 10
160.8452900186023
 20
148.10619077502841
 30
0.0
 70
    32
  0
VERTEX
  5
11CB
  8
0
 10
160.67218211391781
 20
148.7434866776079
 30
0.0
 70
    32
  0
VERTEX
  5
11CC
  8
0
 10
160.41244728200559
 20
149.3824093173192
 30
0.0
 70
    32
  0
VERTEX
  5
11CD
  8
0
 10
160.0805722024466
 20
150.01517244269871
 30
0.0
 70
    32
  0
SEQEND
  5
11CE
  8
0
  0
LINE
  5
11CF
  8
0
 10
160.0805722024466
 20
150.01517244269871
 30
0.0
 11
151.77758375451029
 21
150.01517244269871
 31
0.0
  0
LINE
  5
11D0
  8
3
 10
168.0
 20
160.4265
 30
0.0
 11
160.92907797847849
 21
160.4265
 31
0.0
  0
LINE
  5
11D1
  8
3
 10
168.0
 20
150.57350000000011
 30
0.0
 11
160.92907797847849
 21
150.57350000000011
 31
0.0
  0
LINE
  5
11D2
  8
0
 10
160.92907797847849
 20
292.00000000000011
 30
0.0
 11
160.92907797847849
 21
273.00000000000011
 31
0.0
  0
LINE
  5
11D3
  8
0
 10
160.0805722024466
 20
271.5303448853972
 30
0.0
 11
160.92907797847849
 21
273.00000000000011
 31
0.0
  0
LINE
  5
11D4
  8
0
 10
150.92907797847849
 20
292.00000000000011
 30
0.0
 11
150.92907797847849
 21
273.00000000000011
 31
0.0
  0
LINE
  5
11D5
  8
0
 10
150.92907797847849
 20
273.00000000000011
 30
0.0
 11
151.77758375451029
 21
271.5303448853972
 31
0.0
  0
LINE
  5
11D6
  8
0
 10
151.77758375451029
 20
293.46965511460297
 30
0.0
 11
150.92907797847849
 21
292.00000000000011
 31
0.0
  0
LINE
  5
11D7
  8
0
 10
160.92907797847849
 20
292.00000000000011
 30
0.0
 11
160.0805722024466
 21
293.46965511460297
 31
0.0
  0
LINE
  5
11D8
  8
0
 10
168.0
 20
287.4265000000002
 30
0.0
 11
166.9265
 21
288.50000000000011
 31
0.0
  0
LINE
  5
11D9
  8
0
 10
166.9265
 20
276.50000000000011
 30
0.0
 11
168.0
 21
277.57350000000008
 31
0.0
  0
LINE
  5
11DA
  8
0
 10
168.0
 20
287.4265000000002
 30
0.0
 11
168.0
 21
277.57350000000008
 31
0.0
  0
LINE
  5
11DB
  8
0
 10
160.92907797847849
 20
276.50000000000011
 30
0.0
 11
166.9265
 21
276.50000000000011
 31
0.0
  0
LINE
  5
11DC
  8
0
 10
166.9265
 20
288.50000000000011
 30
0.0
 11
160.92907797847849
 21
288.50000000000011
 31
0.0
  0
LINE
  5
11DD
  8
0
 10
166.9265
 20
288.50000000000011
 30
0.0
 11
166.9265
 21
276.50000000000011
 31
0.0
  0
LINE
  5
11E0
  8
0
 10
147.5
 20
276.50000000000011
 30
0.0
 11
148.7042978520299
 21
276.50000000000011
 31
0.0
  0
LINE
  5
11E1
  8
0
 10
150.92907797847849
 20
288.50000000000011
 30
0.0
 11
149.4991737623231
 21
288.50000000000011
 31
0.0
  0
LINE
  5
11E3
  8
0
 10
127.0
 20
281.50000000000011
 30
0.0
 11
128.5
 21
281.50000000000011
 31
0.0
  0
LINE
  5
11E4
  8
0
 10
127.0
 20
281.50000000000011
 30
0.0
 11
127.0
 21
274.60000000000008
 31
0.0
  0
LINE
  5
11E5
  8
0
 10
127.0
 20
274.60000000000008
 30
0.0
 11
127.59999999999999
 21
274.00000000000011
 31
0.0
  0
LINE
  5
11E6
  8
0
 10
127.0
 20
283.50000000000011
 30
0.0
 11
128.5
 21
283.50000000000011
 31
0.0
  0
LINE
  5
11E7
  8
0
 10
127.59999999999999
 20
291.00000000000011
 30
0.0
 11
127.0
 21
290.40000000000009
 31
0.0
  0
LINE
  5
11E8
  8
0
 10
127.0
 20
290.40000000000009
 30
0.0
 11
127.0
 21
283.50000000000011
 31
0.0
  0
LINE
  5
11E9
  8
0
 10
127.59999999999999
 20
281.50000000000011
 30
0.0
 11
127.59999999999999
 21
274.00000000000011
 31
0.0
  0
LINE
  5
11EA
  8
0
 10
127.59999999999999
 20
274.00000000000011
 30
0.0
 11
128.5
 21
274.00000000000011
 31
0.0
  0
LINE
  5
11EB
  8
0
 10
128.5
 20
291.00000000000011
 30
0.0
 11
127.59999999999999
 21
291.00000000000011
 31
0.0
  0
LINE
  5
11EC
  8
0
 10
127.59999999999999
 20
291.00000000000011
 30
0.0
 11
127.59999999999999
 21
283.50000000000011
 31
0.0
  0
POLYLINE
  5
11ED
  8
0
 66
     1
 10
0.0
 20
0.0
 30
0.0
 70
     8
  0
VERTEX
  5
11EE
  8
0
 10
151.77758375451029
 20
287.98482755730151
 30
0.0
 70
    32
  0
VERTEX
  5
11EF
  8
0
 10
151.5060093938414
 20
286.97043570924609
 30
0.0
 70
    32
  0
VERTEX
  5
11F0
  8
0
 10
151.2786405912031
 20
285.9453339414768
 30
0.0
 70
    32
  0
VERTEX
  5
11F1
  8
0
 10
151.10152392399979
 20
284.90023038844407
 30
0.0
 70
    32
  0
VERTEX
  5
11F2
  8
0
 10
150.98392839920501
 20
283.8468839225211
 30
0.0
 70
    32
  0
VERTEX
  5
11F3
  8
0
 10
150.9428869676002
 20
283.17454548325532
 30
0.0
 70
    32
  0
VERTEX
  5
11F4
  8
0
 10
150.92907797847849
 20
282.50000000000011
 30
0.0
 70
    32
  0
SEQEND
  5
11F5
  8
0
  0
POLYLINE
  5
11F6
  8
0
 66
     1
 10
0.0
 20
0.0
 30
0.0
 70
     8
  0
VERTEX
  5
11F7
  8
0
 10
150.92907797847849
 20
282.50000000000011
 30
0.0
 70
    32
  0
VERTEX
  5
11F8
  8
0
 10
150.96373666973349
 20
281.43033400352698
 30
0.0
 70
    32
  0
VERTEX
  5
11F9
  8
0
 10
151.06643094051421
 20
280.36066800705402
 30
0.0
 70
    32
  0
VERTEX
  5
11FA
  8
0
 10
151.23421777028571
 20
279.28734288925318
 30
0.0
 70
    32
  0
VERTEX
  5
11FB
  8
0
 10
151.45970178978251
 20
278.22133601410792
 30
0.0
 70
    32
  0
VERTEX
  5
11FC
  8
0
 10
151.77758375451029
 20
277.01517244269871
 30
0.0
 70
    32
  0
SEQEND
  5
11FD
  8
0
  0
POLYLINE
  5
11FE
  8
0
 66
     1
 10
0.0
 20
0.0
 30
0.0
 70
     8
  0
VERTEX
  5
11FF
  8
0
 10
160.0805722024466
 20
277.01517244269871
 30
0.0
 70
    32
  0
VERTEX
  5
1200
  8
0
 10
160.39845416717441
 20
278.22133601410792
 30
0.0
 70
    32
  0
VERTEX
  5
1201
  8
0
 10
160.62067923334189
 20
279.2697658020229
 30
0.0
 70
    32
  0
VERTEX
  5
1202
  8
0
 10
160.78796556753409
 20
280.3312211779629
 30
0.0
 70
    32
  0
VERTEX
  5
1203
  8
0
 10
160.89316959276499
 20
281.41115838732588
 30
0.0
 70
    32
  0
VERTEX
  5
1204
  8
0
 10
160.92907797847849
 20
282.50000000000011
 30
0.0
 70
    32
  0
SEQEND
  5
1205
  8
0
  0
POLYLINE
  5
1206
  8
0
 66
     1
 10
0.0
 20
0.0
 30
0.0
 70
     8
  0
VERTEX
  5
1207
  8
0
 10
160.92907797847849
 20
282.50000000000011
 30
0.0
 70
    32
  0
VERTEX
  5
1208
  8
0
 10
160.9153140775006
 20
283.17344196126049
 30
0.0
 70
    32
  0
VERTEX
  5
1209
  8
0
 10
160.87422755775191
 20
283.8468839225211
 30
0.0
 70
    32
  0
VERTEX
  5
120A
  8
0
 10
160.75812096375279
 20
284.88970265518611
 30
0.0
 70
    32
  0
VERTEX
  5
120B
  8
0
 10
160.58361247129099
 20
285.9244637030464
 30
0.0
 70
    32
  0
VERTEX
  5
120C
  8
0
 10
160.35468301277541
 20
286.9601066504186
 30
0.0
 70
    32
  0
VERTEX
  5
120D
  8
0
 10
160.0805722024466
 20
287.98482755730151
 30
0.0
 70
    32
  0
SEQEND
  5
120E
  8
0
  0
POLYLINE
  5
120F
  8
0
 66
     1
 10
0.0
 20
0.0
 30
0.0
 70
     8
  0
VERTEX
  5
1210
  8
0
 10
151.77758375451029
 20
293.46965511460297
 30
0.0
 70
    32
  0
VERTEX
  5
1211
  8
0
 10
151.4301963087637
 20
292.80357491388139
 30
0.0
 70
    32
  0
VERTEX
  5
1212
  8
0
 10
151.16196781210789
 20
292.12606910301838
 30
0.0
 70
    32
  0
VERTEX
  5
1213
  8
0
 10
150.98899559644289
 20
291.43126498184461
 30
0.0
 70
    32
  0
VERTEX
  5
1214
  8
0
 10
150.92907797847849
 20
290.72724133595227
 30
0.0
 70
    32
  0
SEQEND
  5
1215
  8
0
  0
POLYLINE
  5
1216
  8
0
 66
     1
 10
0.0
 20
0.0
 30
0.0
 70
     8
  0
VERTEX
  5
1217
  8
0
 10
150.92907797847849
 20
290.72724133595227
 30
0.0
 70
    32
  0
VERTEX
  5
1218
  8
0
 10
150.9336989975354
 20
290.5322176082617
 30
0.0
 70
    32
  0
VERTEX
  5
1219
  8
0
 10
151.01286593835471
 20
289.89380922497179
 30
0.0
 70
    32
  0
VERTEX
  5
121A
  8
0
 10
151.18597384303911
 20
289.25651332239232
 30
0.0
 70
    32
  0
VERTEX
  5
121B
  8
0
 10
151.44570867495139
 20
288.617590682681
 30
0.0
 70
    32
  0
VERTEX
  5
121C
  8
0
 10
151.77758375451029
 20
287.98482755730151
 30
0.0
 70
    32
  0
SEQEND
  5
121D
  8
0
  0
LINE
  5
121E
  8
0
 10
160.0805722024466
 20
287.98482755730151
 30
0.0
 11
151.77758375451029
 21
287.98482755730151
 31
0.0
  0
POLYLINE
  5
121F
  8
0
 66
     1
 10
0.0
 20
0.0
 30
0.0
 70
     8
  0
VERTEX
  5
1220
  8
0
 10
160.0805722024466
 20
287.98482755730151
 30
0.0
 70
    32
  0
VERTEX
  5
1221
  8
0
 10
160.42795964819331
 20
288.6509077580231
 30
0.0
 70
    32
  0
VERTEX
  5
1222
  8
0
 10
160.69618814484909
 20
289.32841356888622
 30
0.0
 70
    32
  0
VERTEX
  5
1223
  8
0
 10
160.86916036051409
 20
290.02321769005988
 30
0.0
 70
    32
  0
VERTEX
  5
1224
  8
0
 10
160.92907797847849
 20
290.72724133595227
 30
0.0
 70
    32
  0
SEQEND
  5
1225
  8
0
  0
POLYLINE
  5
1226
  8
0
 66
     1
 10
0.0
 20
0.0
 30
0.0
 70
     8
  0
VERTEX
  5
1227
  8
0
 10
160.92907797847849
 20
290.72724133595227
 30
0.0
 70
    32
  0
VERTEX
  5
1228
  8
0
 10
160.9244569594216
 20
290.9222650636429
 30
0.0
 70
    32
  0
VERTEX
  5
1229
  8
0
 10
160.8452900186023
 20
291.5606734469327
 30
0.0
 70
    32
  0
VERTEX
  5
122A
  8
0
 10
160.67218211391781
 20
292.19796934951228
 30
0.0
 70
    32
  0
VERTEX
  5
122B
  8
0
 10
160.41244728200559
 20
292.8368919892236
 30
0.0
 70
    32
  0
VERTEX
  5
122C
  8
0
 10
160.0805722024466
 20
293.46965511460297
 30
0.0
 70
    32
  0
SEQEND
  5
122D
  8
0
  0
LINE
  5
122E
  8
0
 10
160.0805722024466
 20
293.46965511460297
 30
0.0
 11
151.77758375451029
 21
293.46965511460297
 31
0.0
  0
POLYLINE
  5
122F
  8
0
 66
     1
 10
0.0
 20
0.0
 30
0.0
 70
     8
  0
VERTEX
  5
1230
  8
0
 10
151.77758375451029
 20
277.01517244269871
 30
0.0
 70
    32
  0
VERTEX
  5
1231
  8
0
 10
151.4301963087637
 20
276.34909224197708
 30
0.0
 70
    32
  0
VERTEX
  5
1232
  8
0
 10
151.16196781210789
 20
275.67158643111412
 30
0.0
 70
    32
  0
VERTEX
  5
1233
  8
0
 10
150.98899559644289
 20
274.97678230994029
 30
0.0
 70
    32
  0
VERTEX
  5
1234
  8
0
 10
150.92907797847849
 20
274.27275866404801
 30
0.0
 70
    32
  0
SEQEND
  5
1235
  8
0
  0
POLYLINE
  5
1236
  8
0
 66
     1
 10
0.0
 20
0.0
 30
0.0
 70
     8
  0
VERTEX
  5
1237
  8
0
 10
150.92907797847849
 20
274.27275866404801
 30
0.0
 70
    32
  0
VERTEX
  5
1238
  8
0
 10
150.9336989975354
 20
274.07773493635727
 30
0.0
 70
    32
  0
VERTEX
  5
1239
  8
0
 10
151.01286593835471
 20
273.43932655306747
 30
0.0
 70
    32
  0
VERTEX
  5
123A
  8
0
 10
151.18597384303911
 20
272.80203065048801
 30
0.0
 70
    32
  0
VERTEX
  5
123B
  8
0
 10
151.44570867495139
 20
272.16310801077668
 30
0.0
 70
    32
  0
VERTEX
  5
123C
  8
0
 10
151.77758375451029
 20
271.5303448853972
 30
0.0
 70
    32
  0
SEQEND
  5
123D
  8
0
  0
LINE
  5
123E
  8
0
 10
160.0805722024466
 20
271.5303448853972
 30
0.0
 11
151.77758375451029
 21
271.5303448853972
 31
0.0
  0
POLYLINE
  5
123F
  8
0
 66
     1
 10
0.0
 20
0.0
 30
0.0
 70
     8
  0
VERTEX
  5
1240
  8
0
 10
160.0805722024466
 20
271.5303448853972
 30
0.0
 70
    32
  0
VERTEX
  5
1241
  8
0
 10
160.42795964819331
 20
272.19642508611878
 30
0.0
 70
    32
  0
VERTEX
  5
1242
  8
0
 10
160.69618814484909
 20
272.8739308969819
 30
0.0
 70
    32
  0
VERTEX
  5
1243
  8
0
 10
160.86916036051409
 20
273.56873501815562
 30
0.0
 70
    32
  0
VERTEX
  5
1244
  8
0
 10
160.92907797847849
 20
274.27275866404801
 30
0.0
 70
    32
  0
SEQEND
  5
1245
  8
0
  0
POLYLINE
  5
1246
  8
0
 66
     1
 10
0.0
 20
0.0
 30
0.0
 70
     8
  0
VERTEX
  5
1247
  8
0
 10
160.92907797847849
 20
274.27275866404801
 30
0.0
 70
    32
  0
VERTEX
  5
1248
  8
0
 10
160.9244569594216
 20
274.46778239173852
 30
0.0
 70
    32
  0
VERTEX
  5
1249
  8
0
 10
160.8452900186023
 20
275.10619077502838
 30
0.0
 70
    32
  0
VERTEX
  5
124A
  8
0
 10
160.67218211391781
 20
275.74348667760802
 30
0.0
 70
    32
  0
VERTEX
  5
124B
  8
0
 10
160.41244728200559
 20
276.38240931731917
 30
0.0
 70
    32
  0
VERTEX
  5
124C
  8
0
 10
160.0805722024466
 20
277.01517244269871
 30
0.0
 70
    32
  0
SEQEND
  5
124D
  8
0
  0
LINE
  5
124E
  8
0
 10
160.0805722024466
 20
277.01517244269871
 30
0.0
 11
151.77758375451029
 21
277.01517244269871
 31
0.0
  0
LINE
  5
124F
  8
3
 10
168.0
 20
287.4265000000002
 30
0.0
 11
160.92907797847849
 21
287.4265000000002
 31
0.0
  0
LINE
  5
1250
  8
3
 10
168.0
 20
277.57350000000008
 30
0.0
 11
160.92907797847849
 21
277.57350000000008
 31
0.0
  0
ARC
  5
1251
  8
0
 10
132.0
 20
270.00000000000011
 30
0.0
 40
1.0000000000000031
 50
0.0
 51
90.0
  0
LINE
  5
1252
  8
0
 10
137.33974596215549
 20
167.00000000000011
 30
0.0
 11
128.5
 21
167.00000000000011
 31
0.0
  0
LINE
  5
1253
  8
0
 10
128.5
 20
297.00000000000011
 30
0.0
 11
146.0
 21
297.00000000000011
 31
0.0
  0
LINE
  5
1254
  8
0
 10
128.5
 20
141.00000000000011
 30
0.0
 11
146.0
 21
141.00000000000011
 31
0.0
  0
LINE
  5
1255
  8
0
 10
128.5
 20
271.00000000000011
 30
0.0
 11
137.33974596215549
 21
271.00000000000011
 31
0.0
  0
POLYLINE
  5
1256
  8
0
 66
     1
 10
0.0
 20
0.0
 30
0.0
 70
     8
  0
VERTEX
  5
1257
  8
0
 10
137.33974596215549
 20
271.00000000000011
 30
0.0
 70
    32
  0
VERTEX
  5
1258
  8
0
 10
137.6937470884113
 20
270.97635467958531
 30
0.0
 70
    32
  0
VERTEX
  5
1259
  8
0
 10
138.10974386353519
 20
270.88690332051431
 30
0.0
 70
    32
  0
VERTEX
  5
125A
  8
0
 10
138.5026505381179
 20
270.72574290849337
 30
0.0
 70
    32
  0
VERTEX
  5
125B
  8
0
 10
138.8000413589173
 20
270.5216494735385
 30
0.0
 70
    32
  0
VERTEX
  5
125C
  8
0
 10
138.98171972648291
 20
270.30680670786683
 30
0.0
 70
    32
  0
VERTEX
  5
125D
  8
0
 10
139.0373839374779
 20
270.19080734419219
 30
0.0
 70
    32
  0
VERTEX
  5
125E
  8
0
 10
139.0717967697245
 20
270.00000000000011
 30
0.0
 70
    32
  0
SEQEND
  5
125F
  8
0
  0
LINE
  5
1260
  8
0
 10
146.0
 20
297.00000000000011
 30
0.0
 11
146.0
 21
141.00000000000011
 31
0.0
  0
POLYLINE
  5
1261
  8
0
 66
     1
 10
0.0
 20
0.0
 30
0.0
 70
     8
  0
VERTEX
  5
1262
  8
0
 10
139.0717967697245
 20
168.00000000000011
 30
0.0
 70
    32
  0
VERTEX
  5
1263
  8
0
 10
139.06201404971691
 20
167.8979939216178
 30
0.0
 70
    32
  0
VERTEX
  5
1264
  8
0
 10
139.0373839374779
 20
167.80919265580789
 30
0.0
 70
    32
  0
VERTEX
  5
1265
  8
0
 10
138.9703745171299
 20
167.67486050782369
 30
0.0
 70
    32
  0
VERTEX
  5
1266
  8
0
 10
138.8741581403049
 20
167.55114333342911
 30
0.0
 70
    32
  0
VERTEX
  5
1267
  8
0
 10
138.71818124376821
 20
167.41102442471129
 30
0.0
 70
    32
  0
VERTEX
  5
1268
  8
0
 10
138.53775588255621
 20
167.29349266378469
 30
0.0
 70
    32
  0
VERTEX
  5
1269
  8
0
 10
138.21405272181039
 20
167.14786213424389
 30
0.0
 70
    32
  0
VERTEX
  5
126A
  8
0
 10
137.8625569503028
 20
167.05165400244621
 30
0.0
 70
    32
  0
VERTEX
  5
126B
  8
0
 10
137.33974596215549
 20
167.00000000000011
 30
0.0
 70
    32
  0
SEQEND
  5
126C
  8
0
  0
ARC
  5
126D
  8
0
 10
132.0
 20
168.00000000000011
 30
0.0
 40
1.0000000000000071
 50
270.0
 51
0.0
  0
LINE
  5
126E
  8
0
 10
128.5
 20
297.00000000000011
 30
0.0
 11
128.5
 21
271.00000000000011
 31
0.0
  0
LINE
  5
1271
  8
0
 10
128.5
 20
167.00000000000011
 30
0.0
 11
128.5
 21
141.00000000000011
 31
0.0
  0
LINE
  5
1272
  8
0
 10
139.0717967697245
 20
270.00000000000011
 30
0.0
 11
139.0717967697245
 21
168.00000000000011
 31
0.0
  0
LINE
  5
1275
  8
0
 10
133.0
 20
270.00000000000011
 30
0.0
 11
133.0
 21
168.00000000000011
 31
0.0
  0
LINE
  5
12C7
  8
1
 10
50.0
 20
155.50000000000011
 30
0.0
 11
77.0
 21
155.50000000000011
 31
0.0
  0
LINE
  5
12C8
  8
1
 10
63.5
 20
136.0
 30
0.0
 11
63.50000000000005
 21
302.00000000000011
 31
0.0
  0
LINE
  5
12C9
  8
1
 10
50.0
 20
282.50000000000011
 30
0.0
 11
77.0
 21
282.50000000000011
 31
0.0
  0
LINE
  5
12CB
  8
0
 10
55.059028491932899
 20
154.50000000000011
 30
0.0
 11
71.940971508067094
 21
154.50000000000011
 31
0.0
  0
ARC
  5
12CC
  8
0
 10
63.5
 20
155.50000000000011
 30
0.0
 40
7.9000000000000021
 50
187.272139554939
 51
352.72786044506103
  0
LINE
  5
12CD
  8
0
 10
55.059028491932899
 20
156.50000000000011
 30
0.0
 11
71.940971508067094
 21
156.50000000000011
 31
0.0
  0
ARC
  5
12CE
  8
0
 10
63.5
 20
155.50000000000011
 30
0.0
 40
7.9000000000000021
 50
7.2721395549390362
 51
172.72786044506091
  0
LINE
  5
12D1
  8
0
 10
55.059028491932899
 20
281.50000000000011
 30
0.0
 11
71.940971508067094
 21
281.50000000000011
 31
0.0
  0
ARC
  5
12D3
  8
0
 10
63.5
 20
282.50000000000011
 30
0.0
 40
7.9000000000000083
 50
187.272139554939
 51
352.72786044506103
  0
LINE
  5
12D5
  8
0
 10
55.059028491932899
 20
283.50000000000011
 30
0.0
 11
71.940971508067094
 21
283.50000000000011
 31
0.0
  0
ARC
  5
12D6
  8
0
 10
63.5
 20
282.50000000000011
 30
0.0
 40
7.9000000000000039
 50
7.2721395549390362
 51
172.72786044506091
  0
LINE
  5
12DF
  8
0
 10
77.0
 20
167.00000000000011
 30
0.0
 11
50.0
 21
167.00000000000011
 31
0.0
  0
LINE
  5
12E0
  8
0
 10
50.0
 20
141.00000000000011
 30
0.0
 11
77.0
 21
141.00000000000011
 31
0.0
  0
LINE
  5
12E1
  8
0
 10
50.0
 20
271.00000000000011
 30
0.0
 11
77.0
 21
271.00000000000011
 31
0.0
  0
LINE
  5
12E3
  8
0
 10
50.0
 20
297.00000000000011
 30
0.0
 11
77.0
 21
297.00000000000011
 31
0.0
  0
LINE
  5
1388
  8
3
 10
68.426500000000033
 20
50.0
 30
0.0
 11
68.426500000000033
 21
57.070922021521483
 31
0.0
  0
LINE
  5
138A
  8
3
 10
68.426500000000033
 20
67.070922021521483
 30
0.0
 11
68.426500000000033
 21
68.520854926383151
 31
0.0
  0
LINE
  5
138B
  8
3
 10
58.57349999999996
 20
50.0
 30
0.0
 11
58.57349999999996
 21
57.070922021521483
 31
0.0
  0
LINE
  5
138D
  8
3
 10
58.57349999999996
 20
67.070922021521483
 30
0.0
 11
58.57349999999996
 21
68.520854376887371
 31
0.0
  0
LINE
  5
13A1
  8
1
 10
63.5
 20
96.000000000000114
 30
0.0
 11
63.499999999999943
 21
44.999999999999943
 31
0.0
  0
LINE
  5
13A2
  8
3
 10
68.426500000000033
 20
57.070922021521483
 30
0.0
 11
68.426500000000033
 21
57.072184034923112
 31
0.0
  0
LINE
  5
13A4
  8
3
 10
58.57349999999996
 20
57.070922021521483
 30
0.0
 11
58.57349999999996
 21
57.072184034923112
 31
0.0
  0
LINE
  5
13A6
  8
0
 10
68.426500000000033
 20
50.0
 30
0.0
 11
58.57349999999996
 21
50.0
 31
0.0
  0
LINE
  5
13A7
  8
0
 10
68.426500000000033
 20
50.0
 30
0.0
 11
69.5
 21
51.07349999999996
 31
0.0
  0
LINE
  5
13A8
  8
0
 10
57.5
 20
51.07349999999996
 30
0.0
 11
58.57349999999996
 21
50.0
 31
0.0
  0
LINE
  5
13AC
  8
0
 10
57.5
 20
70.5
 30
0.0
 11
57.5
 21
70.024029917143466
 31
0.0
  0
LINE
  5
13AD
  8
0
 10
69.5
 20
67.070922021521483
 30
0.0
 11
69.5
 21
67.346245087808114
 31
0.0
  0
LINE
  5
13AE
  8
0
 10
69.5
 20
51.07349999999996
 30
0.0
 11
57.5
 21
51.07349999999996
 31
0.0
  0
LINE
  5
13AF
  8
0
 10
57.5
 20
57.070922021521483
 30
0.0
 11
57.5
 21
51.07349999999996
 31
0.0
  0
LINE
  5
13B0
  8
0
 10
69.5
 20
51.07349999999996
 30
0.0
 11
69.5
 21
57.070922021521483
 31
0.0
  0
LINE
  5
13B1
  8
0
 10
73.0
 20
57.070922021521483
 30
0.0
 11
54.0
 21
57.070922021521483
 31
0.0
  0
LINE
  5
13B2
  8
0
 10
73.0
 20
67.070922021521483
 30
0.0
 11
73.0
 21
57.070922021521483
 31
0.0
  0
LINE
  5
13B3
  8
0
 10
73.0
 20
67.070922021521483
 30
0.0
 11
54.0
 21
67.070922021521483
 31
0.0
  0
LINE
  5
13B4
  8
0
 10
54.0
 20
57.070922021521483
 30
0.0
 11
54.0
 21
67.070922021521483
 31
0.0
  0
LINE
  5
13B5
  8
0
 10
55.059028491932899
 20
90.399999999999963
 30
0.0
 11
55.059028491932899
 21
89.500000000000114
 31
0.0
  0
LINE
  5
13B6
  8
0
 10
71.940971508067094
 20
89.500000000000114
 30
0.0
 11
71.940971508067094
 21
90.399999999999963
 31
0.0
  0
LINE
  5
13B7
  8
0
 10
71.336453279386035
 20
91.000000000000114
 30
0.0
 11
55.663546720613972
 21
91.000000000000114
 31
0.0
  0
LINE
  5
13B8
  8
0
 10
55.663546720613972
 20
91.000000000000114
 30
0.0
 11
55.059028491932899
 21
90.399999999999963
 31
0.0
  0
LINE
  5
13B9
  8
0
 10
71.940971508067094
 20
90.399999999999963
 30
0.0
 11
55.059028491932899
 21
90.399999999999963
 31
0.0
  0
LINE
  5
13BA
  8
0
 10
71.940971508067094
 20
90.399999999999963
 30
0.0
 11
71.336453279386035
 21
91.000000000000114
 31
0.0
  0
POLYLINE
  5
13BB
  8
0
 66
     1
 10
0.0
 20
0.0
 30
0.0
 70
     8
  0
VERTEX
  5
13BC
  8
0
 10
58.75
 20
67.070922021521483
 30
0.0
 70
    32
  0
VERTEX
  5
13BD
  8
0
 10
58.412208994958412
 20
67.06630100246457
 30
0.0
 70
    32
  0
VERTEX
  5
13BE
  8
0
 10
57.858685704120262
 20
67.038807624337778
 30
0.0
 70
    32
  0
VERTEX
  5
13BF
  8
0
 10
57.306453239122391
 20
66.987134061645293
 30
0.0
 70
    32
  0
VERTEX
  5
13C0
  8
0
 10
56.753239899883063
 20
66.911681469434825
 30
0.0
 70
    32
  0
VERTEX
  5
13C1
  8
0
 10
56.202624356399333
 20
66.814026156960836
 30
0.0
 70
    32
  0
VERTEX
  5
13C2
  8
0
 10
55.647591823049709
 20
66.693912259041099
 30
0.0
 70
    32
  0
VERTEX
  5
13C3
  8
0
 10
55.095977882313321
 20
66.554291325048553
 30
0.0
 70
    32
  0
VERTEX
  5
13C4
  8
0
 10
54.546168563555632
 20
66.396397177154199
 30
0.0
 70
    32
  0
VERTEX
  5
13C5
  8
0
 10
54.0
 20
66.222416245489512
 30
0.0
 70
    32
  0
SEQEND
  5
13C6
  8
0
  0
POLYLINE
  5
13C7
  8
0
 66
     1
 10
0.0
 20
0.0
 30
0.0
 70
     8
  0
VERTEX
  5
13C8
  8
0
 10
54.0
 20
57.91942779755334
 30
0.0
 70
    32
  0
VERTEX
  5
13C9
  8
0
 10
54.574827367272569
 20
57.73677683107519
 30
0.0
 70
    32
  0
VERTEX
  5
13CA
  8
0
 10
55.153684749565279
 20
57.57204035180667
 30
0.0
 70
    32
  0
VERTEX
  5
13CB
  8
0
 10
55.738527503085322
 20
57.426818982564782
 30
0.0
 70
    32
  0
VERTEX
  5
13CC
  8
0
 10
56.327159236403361
 20
57.303811855150911
 30
0.0
 70
    32
  0
VERTEX
  5
13CD
  8
0
 10
56.927440556984777
 20
57.20391305878649
 30
0.0
 70
    32
  0
VERTEX
  5
13CE
  8
0
 10
57.530595275584567
 20
57.130839639485878
 30
0.0
 70
    32
  0
VERTEX
  5
13CF
  8
0
 10
58.139753982886297
 20
57.086022016351301
 30
0.0
 70
    32
  0
VERTEX
  5
13D0
  8
0
 10
58.75
 20
57.070922021521483
 30
0.0
 70
    32
  0
SEQEND
  5
13D1
  8
0
  0
POLYLINE
  5
13D2
  8
0
 66
     1
 10
0.0
 20
0.0
 30
0.0
 70
     8
  0
VERTEX
  5
13D3
  8
0
 10
73.0
 20
66.222416245489512
 30
0.0
 70
    32
  0
VERTEX
  5
13D4
  8
0
 10
72.425172632727424
 20
66.405067211967776
 30
0.0
 70
    32
  0
VERTEX
  5
13D5
  8
0
 10
71.846315250434714
 20
66.569803691236302
 30
0.0
 70
    32
  0
VERTEX
  5
13D6
  8
0
 10
71.261472496914664
 20
66.715025060478183
 30
0.0
 70
    32
  0
VERTEX
  5
13D7
  8
0
 10
70.672840763596639
 20
66.838032187892054
 30
0.0
 70
    32
  0
VERTEX
  5
13D8
  8
0
 10
70.072559443015223
 20
66.937930984256468
 30
0.0
 70
    32
  0
VERTEX
  5
13D9
  8
0
 10
69.469404724415426
 20
67.011004403557081
 30
0.0
 70
    32
  0
VERTEX
  5
13DA
  8
0
 10
68.860246017113695
 20
67.055822026691658
 30
0.0
 70
    32
  0
VERTEX
  5
13DB
  8
0
 10
68.25
 20
67.070922021521483
 30
0.0
 70
    32
  0
SEQEND
  5
13DC
  8
0
  0
LINE
  5
13DD
  8
0
 10
63.5
 20
57.91942779755334
 30
0.0
 11
63.5
 21
66.222416245489512
 31
0.0
  0
POLYLINE
  5
13DE
  8
0
 66
     1
 10
0.0
 20
0.0
 30
0.0
 70
     8
  0
VERTEX
  5
13DF
  8
0
 10
68.25
 20
57.070922021521483
 30
0.0
 70
    32
  0
VERTEX
  5
13E0
  8
0
 10
68.587791005041595
 20
57.075543040578403
 30
0.0
 70
    32
  0
VERTEX
  5
13E1
  8
0
 10
69.141314295879738
 20
57.103036418705187
 30
0.0
 70
    32
  0
VERTEX
  5
13E2
  8
0
 10
69.693546760877553
 20
57.154709981397673
 30
0.0
 70
    32
  0
VERTEX
  5
13E3
  8
0
 10
70.246760100116944
 20
57.230162573608141
 30
0.0
 70
    32
  0
VERTEX
  5
13E4
  8
0
 10
70.797375643600674
 20
57.32781788608213
 30
0.0
 70
    32
  0
VERTEX
  5
13E5
  8
0
 10
71.352408176950291
 20
57.44793178400186
 30
0.0
 70
    32
  0
VERTEX
  5
13E6
  8
0
 10
71.904022117686679
 20
57.587552717994413
 30
0.0
 70
    32
  0
VERTEX
  5
13E7
  8
0
 10
72.453831436444375
 20
57.745446865888653
 30
0.0
 70
    32
  0
VERTEX
  5
13E8
  8
0
 10
73.0
 20
57.91942779755334
 30
0.0
 70
    32
  0
SEQEND
  5
13E9
  8
0
  0
POLYLINE
  5
13EA
  8
0
 66
     1
 10
0.0
 20
0.0
 30
0.0
 70
     8
  0
VERTEX
  5
13EB
  8
0
 10
63.5
 20
66.222416245489512
 30
0.0
 70
    32
  0
VERTEX
  5
13EC
  8
0
 10
62.925172632727417
 20
66.405067211967776
 30
0.0
 70
    32
  0
VERTEX
  5
13ED
  8
0
 10
62.346315250434721
 20
66.569803691236302
 30
0.0
 70
    32
  0
VERTEX
  5
13EE
  8
0
 10
61.761472496914671
 20
66.715025060478183
 30
0.0
 70
    32
  0
VERTEX
  5
13EF
  8
0
 10
61.172840763596639
 20
66.838032187892054
 30
0.0
 70
    32
  0
VERTEX
  5
13F0
  8
0
 10
60.572559443015223
 20
66.937930984256468
 30
0.0
 70
    32
  0
VERTEX
  5
13F1
  8
0
 10
59.969404724415362
 20
67.011004403557081
 30
0.0
 70
    32
  0
VERTEX
  5
13F2
  8
0
 10
59.360246017113703
 20
67.055822026691658
 30
0.0
 70
    32
  0
VERTEX
  5
13F3
  8
0
 10
58.75
 20
67.070922021521483
 30
0.0
 70
    32
  0
SEQEND
  5
13F4
  8
0
  0
POLYLINE
  5
13F5
  8
0
 66
     1
 10
0.0
 20
0.0
 30
0.0
 70
     8
  0
VERTEX
  5
13F6
  8
0
 10
68.25
 20
67.070922021521483
 30
0.0
 70
    32
  0
VERTEX
  5
13F7
  8
0
 10
67.912208994958405
 20
67.06630100246457
 30
0.0
 70
    32
  0
VERTEX
  5
13F8
  8
0
 10
67.358685704120262
 20
67.038807624337778
 30
0.0
 70
    32
  0
VERTEX
  5
13F9
  8
0
 10
66.806453239122433
 20
66.987134061645293
 30
0.0
 70
    32
  0
VERTEX
  5
13FA
  8
0
 10
66.253239899883056
 20
66.911681469434825
 30
0.0
 70
    32
  0
VERTEX
  5
13FB
  8
0
 10
65.702624356399326
 20
66.814026156960836
 30
0.0
 70
    32
  0
VERTEX
  5
13FC
  8
0
 10
65.147591823049694
 20
66.693912259041099
 30
0.0
 70
    32
  0
VERTEX
  5
13FD
  8
0
 10
64.595977882313321
 20
66.554291325048553
 30
0.0
 70
    32
  0
VERTEX
  5
13FE
  8
0
 10
64.046168563555625
 20
66.396397177154199
 30
0.0
 70
    32
  0
VERTEX
  5
13FF
  8
0
 10
63.5
 20
66.222416245489512
 30
0.0
 70
    32
  0
SEQEND
  5
1400
  8
0
  0
POLYLINE
  5
1401
  8
0
 66
     1
 10
0.0
 20
0.0
 30
0.0
 70
     8
  0
VERTEX
  5
1402
  8
0
 10
63.5
 20
57.91942779755334
 30
0.0
 70
    32
  0
VERTEX
  5
1403
  8
0
 10
64.074827367272576
 20
57.73677683107519
 30
0.0
 70
    32
  0
VERTEX
  5
1404
  8
0
 10
64.653684749565286
 20
57.57204035180667
 30
0.0
 70
    32
  0
VERTEX
  5
1405
  8
0
 10
65.238527503085322
 20
57.426818982564782
 30
0.0
 70
    32
  0
VERTEX
  5
1406
  8
0
 10
65.827159236403361
 20
57.303811855150911
 30
0.0
 70
    32
  0
VERTEX
  5
1407
  8
0
 10
66.427440556984777
 20
57.20391305878649
 30
0.0
 70
    32
  0
VERTEX
  5
1408
  8
0
 10
67.030595275584631
 20
57.130839639485878
 30
0.0
 70
    32
  0
VERTEX
  5
1409
  8
0
 10
67.639753982886305
 20
57.086022016351301
 30
0.0
 70
    32
  0
VERTEX
  5
140A
  8
0
 10
68.25
 20
57.070922021521483
 30
0.0
 70
    32
  0
SEQEND
  5
140B
  8
0
  0
POLYLINE
  5
140C
  8
0
 66
     1
 10
0.0
 20
0.0
 30
0.0
 70
     8
  0
VERTEX
  5
140D
  8
0
 10
58.75
 20
57.070922021521483
 30
0.0
 70
    32
  0
VERTEX
  5
140E
  8
0
 10
59.087791005041588
 20
57.075543040578403
 30
0.0
 70
    32
  0
VERTEX
  5
140F
  8
0
 10
59.641314295879738
 20
57.103036418705187
 30
0.0
 70
    32
  0
VERTEX
  5
1410
  8
0
 10
60.193546760877553
 20
57.154709981397673
 30
0.0
 70
    32
  0
VERTEX
  5
1411
  8
0
 10
60.746760100116937
 20
57.230162573608141
 30
0.0
 70
    32
  0
VERTEX
  5
1412
  8
0
 10
61.297375643600667
 20
57.32781788608213
 30
0.0
 70
    32
  0
VERTEX
  5
1413
  8
0
 10
61.852408176950291
 20
57.44793178400186
 30
0.0
 70
    32
  0
VERTEX
  5
1414
  8
0
 10
62.404022117686672
 20
57.587552717994413
 30
0.0
 70
    32
  0
VERTEX
  5
1415
  8
0
 10
62.953831436444368
 20
57.745446865888653
 30
0.0
 70
    32
  0
VERTEX
  5
1416
  8
0
 10
63.5
 20
57.91942779755334
 30
0.0
 70
    32
  0
SEQEND
  5
1417
  8
0
  0
LINE
  5
141A
  8
0
 10
77.0
 20
72.0
 30
0.0
 11
77.0
 21
87.5
 31
0.0
  0
LINE
  5
141B
  8
0
 10
75.0
 20
89.500000000000114
 30
0.0
 11
52.0
 21
89.500000000000114
 31
0.0
  0
ARC
  5
141C
  8
0
 10
75.0
 20
87.5
 30
0.0
 40
2.0
 50
0.0
 51
90.0
  0
ARC
  5
141D
  8
0
 10
52.0
 20
87.5
 30
0.0
 40
2.0000000000000031
 50
90.0
 51
180.0
  0
LINE
  5
141E
  8
0
 10
50.0
 20
72.0
 30
0.0
 11
77.0
 21
72.0
 31
0.0
  0
LINE
  5
141F
  8
0
 10
50.0
 20
87.5
 30
0.0
 11
50.0
 21
72.0
 31
0.0
  0
LINE
  5
17BD
  8
0
 10
77.0
 20
297.00000000000011
 30
0.0
 11
77.0
 21
141.00000000000011
 31
0.0
  0
LINE
  5
17BE
  8
0
 10
50.0
 20
297.00000000000011
 30
0.0
 11
50.0
 21
141.00000000000011
 31
0.0
  0
INSERT
  5
1A49
  8
0
  6
CONTINUOUS
  2
*U0
 10
0.0
 20
0.0
 30
0.0
1001
GRADIENTCOLOR1ACI
1070
     5
1001
GRADIENTCOLOR2ACI
1070
     2
1001
ACAD
1002
{
1000
R14_HATCH_DATA
1000
1A49
1011
1.0
1021
0.0
1031
0.0
1021
0.0
1031
0.0
1011
0.0
1021
0.0
1031
0.0
1021
1.0
1031
0.0
1011
0.0
1021
0.0
1031
0.0
1021
0.0
1031
1.0
1040
0.0
1010
0.0
1020
0.0
1030
1.0
1000
SOLID
1070
     1
1070
     0
1071
        4
1071
        1
1071
        4
1070
     1
1040
71.0
1040
259.25
1040
63.5
1040
259.25
1070
     1
1040
63.5
1040
259.25
1040
63.500000000000007
1040
257.75000000000011
1070
     1
1040
63.5
1040
257.75000000000011
1040
71.0
1040
257.75000000000023
1070
     1
1040
71.0
1040
257.75000000000011
1040
70.999999999999986
1040
259.25
1071
        0
1071
        1
1071
        5
1070
     1
1040
63.5
1040
259.25
1040
62.163487907381302
1040
259.25
1070
     1
1040
62.163487907381302
1040
259.25
1040
55.999999999999979
1040
259.25
1070
     1
1040
56.0
1040
259.25
1040
56.000000000000007
1040
257.75
1070
     1
1040
56.0
1040
257.75
1040
63.5
1040
257.75000000000011
1070
     1
1040
63.5
1040
257.75000000000011
1040
63.499999999999979
1040
259.25000000000011
1071
        0
1071
        1
1071
        4
1070
     1
1040
63.5
1040
179.50000000000011
1040
56.0
1040
179.50000000000011
1070
     1
1040
56.0
1040
179.50000000000011
1040
56.000000000000007
1040
177.50000000000011
1070
     1
1040
56.0
1040
177.50000000000011
1040
63.5
1040
177.50000000000011
1070
     1
1040
63.5
1040
177.50000000000011
1040
63.499999999999979
1040
179.5
1071
        0
1071
        1
1071
        4
1070
     1
1040
71.0
1040
179.50000000000011
1040
63.5
1040
179.50000000000011
1070
     1
1040
63.5
1040
179.50000000000011
1040
63.500000000000007
1040
177.50000000000011
1070
     1
1040
63.5
1040
177.50000000000011
1040
70.999999999999972
1040
177.50000000000011
1070
     1
1040
71.0
1040
177.50000000000011
1040
71.000000000000014
1040
179.5
1071
        0
1070
     1
1070
     1
1071
        4
1040
66.93988623029702
1040
257.17875022873397
1040
0.0
1040
62.080917666044911
1040
257.53857313092328
1040
0.0
1040
60.781460296895482
1040
175.89093154060731
1040
0.0
1040
64.7686253988619
1040
176.03856275244399
1040
0.0
1002
}
  0
LINE
  5
1A50
  8
0
 10
53.5
 20
70.5
 30
0.0
 11
73.5
 21
70.5
 31
0.0
  0
LINE
  5
1A51
  8
0
 10
60.073017763837129
 20
68.874191327154222
 30
0.0
 11
58.629882723802901
 21
70.094796062454634
 31
0.0
  0
LINE
  5
1A52
  8
0
 10
59.57466120991058
 20
69.295701686695111
 30
0.0
 11
60.590130397568842
 21
69.29570173388845
 31
0.0
  0
LINE
  5
1A56
  8
0
 10
59.16030722708593
 20
67.486938166653317
 30
0.0
 11
61.956963584446157
 21
69.766557116669446
 31
0.0
  0
LINE
  5
1A57
  8
0
 10
61.613145808921217
 20
70.129585135697539
 30
0.0
 11
58.816489458309441
 21
67.849966192072884
 31
0.0
  0
LINE
  5
1A61
  8
0
 10
53.5
 20
72.0
 30
0.0
 11
53.5
 21
70.5
 31
0.0
  0
LINE
  5
1A63
  8
0
 10
53.250000015571239
 20
68.520854074886529
 30
0.0
 11
53.249999986762759
 21
69.295701392759725
 31
0.0
  0
LINE
  5
1A64
  8
0
 10
53.249999963996409
 20
69.295701392759725
 30
0.0
 11
57.452262835331801
 21
69.295701588057682
 31
0.0
  0
LINE
  5
1A65
  8
0
 10
56.1469573164959
 20
67.454255954395975
 30
0.0
 11
56.575217509787429
 21
67.196199347799165
 31
0.0
  0
LINE
  5
1A66
  8
0
 10
56.575217509787429
 20
67.196199347799165
 30
0.0
 11
58.66173609402211
 21
70.139732859767378
 31
0.0
  0
LINE
  5
1A67
  8
0
 10
58.66173609402211
 20
70.139732859767378
 30
0.0
 11
58.233475895933232
 21
70.39778945840294
 31
0.0
  0
LINE
  5
1A68
  8
0
 10
58.233475895933232
 20
70.39778945840294
 30
0.0
 11
56.1469573164959
 21
67.454255954395975
 31
0.0
  0
LINE
  5
1A69
  8
0
 10
58.816489458309441
 20
67.849966192072884
 30
0.0
 11
59.16030722708593
 21
67.486938166653317
 31
0.0
  0
LINE
  5
1A6A
  8
0
 10
53.249999986762759
 20
68.520854074886529
 30
0.0
 11
55.339528029035769
 21
68.52085419141838
 31
0.0
  0
LINE
  5
1A6B
  8
0
 10
57.514196865966831
 20
68.520854312698134
 30
0.0
 11
59.639540986210029
 21
68.520854431227235
 31
0.0
  0
LINE
  5
1A6C
  8
0
 10
58.063446022694293
 20
69.295701616462225
 30
0.0
 11
58.895692808557669
 21
69.295701655140419
 31
0.0
  0
LINE
  5
1A6D
  8
0
 10
56.573472182718326
 20
68.055957185842317
 30
0.0
 11
55.107708222826552
 21
69.295701479095783
 31
0.0
  0
LINE
  5
1A6E
  8
0
 10
54.459769099728767
 20
69.295701448983095
 30
0.0
 11
56.302077120035847
 21
67.673089538412341
 31
0.0
  0
LINE
  5
1A6F
  8
0
 10
58.383325845022291
 20
69.746968614004913
 30
0.0
 11
59.710126064803269
 21
68.578389952980842
 31
0.0
  0
LINE
  5
1A70
  8
0
 10
58.129434781091277
 20
70.251014581653862
 30
0.0
 11
55.480073699311447
 21
69.295610853769517
 31
0.0
  0
LINE
  5
1A78
  8
0
 10
65.431329563921622
 20
67.368900059275234
 30
0.0
 11
68.035431542423325
 21
69.866219066530789
 31
0.0
  0
LINE
  5
1A79
  8
0
 10
67.663510008296271
 20
70.200396231847321
 30
0.0
 11
65.059408036006857
 21
67.703077231505631
 31
0.0
  0
LINE
  5
1A7A
  8
0
 10
66.632540809267539
 20
68.520854821222542
 30
0.0
 11
68.809433719872573
 21
68.520854942626443
 31
0.0
  0
LINE
  5
1A7C
  8
0
 10
61.956963584446157
 20
69.766557116669446
 30
0.0
 11
61.613145808921217
 21
70.129585135697539
 31
0.0
  0
LINE
  5
1A7D
  8
0
 10
61.98749530782721
 20
67.739858457144905
 30
0.0
 11
62.34966051770062
 21
67.395131947976097
 31
0.0
  0
LINE
  5
1A7E
  8
0
 10
62.34966051770062
 20
67.395131947976097
 30
0.0
 11
65.024448737989474
 21
69.816589631901365
 31
0.0
  0
LINE
  5
1A7F
  8
0
 10
65.024448737989474
 20
69.816589631901365
 30
0.0
 11
64.66228352170765
 21
70.161316134337653
 31
0.0
  0
LINE
  5
1A80
  8
0
 10
64.66228352170765
 20
70.161316134337653
 30
0.0
 11
61.98749530782721
 21
67.739858457144905
 31
0.0
  0
LINE
  5
1A81
  8
0
 10
65.059408036006857
 20
67.703077231505631
 30
0.0
 11
65.431329563921622
 21
67.368900059275234
 31
0.0
  0
LINE
  5
1A82
  8
0
 10
63.593155230521461
 20
68.520854651717855
 30
0.0
 11
65.82984145448529
 21
68.520854776456531
 31
0.0
  0
LINE
  5
1A83
  8
0
 10
64.449066255263006
 20
69.295701913230459
 30
0.0
 11
64.950082635886474
 21
69.295701936515002
 31
0.0
  0
LINE
  5
1A84
  8
0
 10
61.3793141500662
 20
69.295701770565415
 30
0.0
 11
61.826571434669638
 21
69.295701791351462
 31
0.0
  0
LINE
  5
1A85
  8
0
 10
63.12143620975138
 20
68.766403246073764
 30
0.0
 11
61.947786750584683
 21
69.759076868223133
 31
0.0
  0
LINE
  5
1A86
  8
0
 10
61.611596737982502
 20
69.485040652970156
 30
0.0
 11
62.779252762994247
 21
68.456628165617417
 31
0.0
  0
LINE
  5
1A87
  8
0
 10
66.20479127388603
 20
68.801493250949648
 30
0.0
 11
65.014876559113304
 21
69.807924038896431
 31
0.0
  0
LINE
  5
1A88
  8
0
 10
64.696132504391699
 20
69.519368393759123
 30
0.0
 11
65.872747575853282
 21
68.483065230517013
 31
0.0
  0
LINE
  5
1A89
  8
0
 10
62.495640405333809
 20
69.295701822446063
 30
0.0
 11
63.706109548258162
 21
69.295701878702062
 31
0.0
  0
LINE
  5
1A8A
  8
0
 10
65.620482614772072
 20
69.295701967671434
 30
0.0
 11
66.720131935950462
 21
69.295702018777206
 31
0.0
  0
LINE
  5
1A8B
  8
0
 10
60.428724748078032
 20
68.520854475239503
 30
0.0
 11
62.706330286232181
 21
68.520854602260215
 31
0.0
  0
LINE
  5
1A8C
  8
0
 10
73.5
 20
72.0
 30
0.0
 11
73.5
 21
70.5
 31
0.0
  0
LINE
  5
1A8D
  8
0
 10
70.621053263387466
 20
70.315205046183664
 30
0.0
 11
70.156455770485991
 21
70.5
 31
0.0
  0
LINE
  5
1A8E
  8
0
 10
73.750000033669721
 20
68.520855218158772
 30
0.0
 11
73.749999963996288
 21
69.295702345486575
 31
0.0
  0
LINE
  5
1A8F
  8
0
 10
69.747855271236631
 20
68.520854994961724
 30
0.0
 11
73.750000053915187
 21
68.520855218158772
 31
0.0
  0
LINE
  5
1A90
  8
0
 10
71.175597391933934
 20
69.295702225842547
 30
0.0
 11
73.749999963996288
 21
69.295702345486575
 31
0.0
  0
LINE
  5
1A91
  8
0
 10
70.280736647214781
 20
69.615882391813784
 30
0.0
 11
71.26387230806256
 21
68.520855079509033
 31
0.0
  0
LINE
  5
1A92
  8
0
 10
71.899811388493845
 20
68.520855114974893
 30
0.0
 11
70.484665793524186
 21
70.034940013814207
 31
0.0
  0
LINE
  5
1A93
  8
0
 10
68.035431542423325
 20
69.866219066530789
 30
0.0
 11
67.663510008296271
 21
70.200396231847321
 31
0.0
  0
LINE
  5
1A94
  8
0
 10
68.577666049377285
 20
67.255716983974693
 30
0.0
 11
69.042263538843599
 21
67.070922021521483
 31
0.0
  0
LINE
  5
1A95
  8
0
 10
67.440519766505531
 20
69.295702052256843
 30
0.0
 11
67.929674932718626
 21
69.295702074990004
 31
0.0
  0
LINE
  5
1A96
  8
0
 10
67.674695412015524
 20
69.52027516628857
 30
0.0
 11
69.078154384361369
 21
68.284179345489861
 31
0.0
  0
LINE
  5
1A97
  8
0
 10
69.286474484096289
 20
68.712260015404922
 30
0.0
 11
67.982336339686299
 21
69.815301068662833
 31
0.0
  0
LINE
  5
1A98
  8
0
 10
69.042263538843599
 20
67.070922021521483
 30
0.0
 11
70.621053263387466
 21
70.315205046183664
 31
0.0
  0
LINE
  5
1A99
  8
0
 10
70.156455770485991
 20
70.5
 30
0.0
 11
68.577666049377285
 21
67.255716983974693
 31
0.0
  0
LINE
  5
1A9A
  8
0
 10
69.042263538843599
 20
67.070922021521483
 30
0.0
 11
71.452839741746402
 21
68.520855090047576
 31
0.0
  0
LINE
  5
1A9B
  8
0
 10
68.596664179088748
 20
69.295702105987971
 30
0.0
 11
69.570399296565256
 21
69.295702151241812
 31
0.0
  0
LINE
  5
1AA8
  8
0
 10
56.0
 20
172.00000000000011
 30
0.0
 11
56.0
 21
266.00000000000011
 31
0.0
  0
LINE
  5
1AA9
  8
0
 10
71.0
 20
266.0
 30
0.0
 11
71.0
 21
172.00000000000011
 31
0.0
  0
TEXT
  5
1AAA
  8
0
 10
58.441275710006437
 20
174.1959938210633
 30
0.0
 40
1.1999999999999991
  1
HCZ  127
 41
1.129999999999999
  7
SIM110
 72
     1
 11
63.316418567149299
 21
174.1959938210633
 31
0.0
  0
LINE
  5
1AAB
  8
0
 10
70.0
 20
171.00000000000011
 30
0.0
 11
57.0
 21
171.00000000000011
 31
0.0
  0
LINE
  5
1AAC
  8
0
 10
71.0
 20
177.50000000000011
 30
0.0
 11
56.0
 21
177.50000000000011
 31
0.0
  0
LINE
  5
1AAD
  8
0
 10
71.0
 20
179.50000000000011
 30
0.0
 11
56.0
 21
179.50000000000011
 31
0.0
  0
ARC
  5
1AAE
  8
0
 10
57.0
 20
172.00000000000011
 30
0.0
 40
1.0
 50
180.0
 51
270.0
  0
ARC
  5
1AAF
  8
0
 10
70.0
 20
172.00000000000011
 30
0.0
 40
1.0
 50
270.0
 51
0.0
  0
LINE
  5
1AB0
  8
0
 10
71.0
 20
254.25000000000011
 30
0.0
 11
71.0
 21
252.75
 31
0.0
  0
LINE
  5
1AB3
  8
0
 10
57.0
 20
267.00000000000011
 30
0.0
 11
70.0
 21
267.0
 31
0.0
  0
TEXT
  5
1AB6
  8
0
 10
56.807965330047409
 20
262.04048773517968
 30
0.0
 40
1.3
  1
ELESA
 41
2.3700000000000001
  7
SIMPLEX
  0
LINE
  5
1AB7
  8
0
 10
71.0
 20
257.75000000000011
 30
0.0
 11
56.0
 21
257.75
 31
0.0
  0
ARC
  5
1ABA
  8
0
 10
57.0
 20
266.00000000000011
 30
0.0
 40
1.0
 50
90.0
 51
180.0
  0
LINE
  5
1ABE
  8
0
 10
56.0
 20
259.25
 30
0.0
 11
71.0
 21
259.25
 31
0.0
  0
ARC
  5
1ABF
  8
0
 10
70.0
 20
266.0
 30
0.0
 40
1.0
 50
0.0
 51
90.0
  0
LINE
  5
1AC9
  8
0
 10
148.7042986072403
 20
145.24999996399649
 30
0.0
 11
148.70429841194229
 21
149.45226283533191
 31
0.0
  0
LINE
  5
1ACB
  8
0
 10
147.5
 20
145.50000000000011
 30
0.0
 11
147.49999999999989
 21
165.50000000000011
 31
0.0
  0
LINE
  5
1ACC
  8
0
 10
150.80380065220081
 20
148.57521750978751
 30
0.0
 11
147.86026714023259
 21
150.66173609402219
 31
0.0
  0
LINE
  5
1ACD
  8
0
 10
147.602210541597
 20
150.23347589593331
 30
0.0
 11
150.54574404560401
 21
148.1469573164959
 31
0.0
  0
LINE
  5
1ACE
  8
0
 10
147.74898541834611
 20
150.12943478109139
 30
0.0
 11
148.7043891462304
 21
147.4800736993115
 31
0.0
  0
LINE
  5
1AD2
  8
0
 10
146.0
 20
145.50000000000011
 30
0.0
 11
147.5
 21
145.50000000000011
 31
0.0
  0
LINE
  5
1AD3
  8
0
 10
149.9440428141578
 20
148.5734721827184
 30
0.0
 11
148.70429852090419
 21
147.1077082228266
 31
0.0
  0
LINE
  5
1AD4
  8
0
 10
148.7042985510169
 20
146.4597690997289
 30
0.0
 11
150.3269104615876
 21
148.3020771200359
 31
0.0
  0
LINE
  5
1AD5
  8
0
 10
149.47914592511339
 20
145.25000001557129
 30
0.0
 11
148.7042986072403
 21
145.24999998676279
 31
0.0
  0
LINE
  5
1AD6
  8
0
 10
149.47914592511339
 20
145.24999998676279
 30
0.0
 11
149.47914580858179
 21
147.33952802903599
 31
0.0
  0
LINE
  5
1AD7
  8
0
 10
149.47914577041931
 20
148.02381905224601
 30
0.0
 11
149.47914572138731
 21
148.90301367435481
 31
0.0
  0
LINE
  5
1AD8
  8
0
 10
150.54574404560401
 20
148.1469573164959
 30
0.0
 11
150.80380065220081
 21
148.57521750978751
 31
0.0
  0
LINE
  5
1ADE
  8
0
 10
149.4791451787774
 20
158.6325408092676
 30
0.0
 11
149.4791450573735
 21
160.80943371987269
 31
0.0
  0
LINE
  5
1ADF
  8
0
 10
148.70429794774321
 20
159.4405197665055
 30
0.0
 11
148.70429792501
 21
159.92967493271871
 31
0.0
  0
LINE
  5
1AE1
  8
0
 10
150.63109994072471
 20
157.43132956392171
 30
0.0
 11
148.13378093346921
 21
160.0354315424234
 31
0.0
  0
LINE
  5
1AE2
  8
0
 10
147.79960376815271
 20
159.6635100082963
 30
0.0
 11
150.2969227684944
 21
157.05940803600689
 31
0.0
  0
LINE
  5
1AE4
  8
0
 10
150.5130618333468
 20
151.16030722708589
 30
0.0
 11
148.23344288333061
 21
153.9569635844463
 31
0.0
  0
LINE
  5
1AE5
  8
0
 10
150.6048680520239
 20
154.3496605177007
 30
0.0
 11
148.18341036809861
 21
157.02444873798959
 31
0.0
  0
LINE
  5
1AE6
  8
0
 10
149.4791455247605
 20
152.42872474807811
 30
0.0
 11
149.47914539773981
 21
154.70633028623229
 31
0.0
  0
LINE
  5
1AE7
  8
0
 10
148.70429822943461
 20
153.37931415006619
 30
0.0
 11
148.70429820864851
 21
153.82657143466969
 31
0.0
  0
LINE
  5
1AE8
  8
0
 10
148.25303138599509
 20
150.38332584502231
 30
0.0
 11
149.42161004701919
 21
151.7101260648034
 31
0.0
  0
LINE
  5
1AE9
  8
0
 10
149.23359675392629
 20
155.12143620975149
 30
0.0
 11
148.2409231317769
 21
153.94778675058481
 31
0.0
  0
LINE
  5
1AEA
  8
0
 10
148.51495934702979
 20
153.61159673798261
 30
0.0
 11
149.54337183438241
 21
154.7792527629943
 31
0.0
  0
LINE
  5
1AEB
  8
0
 10
148.70429831330489
 20
151.57466120991049
 30
0.0
 11
148.70429826611149
 21
152.59013039756891
 31
0.0
  0
LINE
  5
1AEC
  8
0
 10
148.70429808676951
 20
156.44906625526309
 30
0.0
 11
148.704298063485
 21
156.95008263588659
 31
0.0
  0
LINE
  5
1AED
  8
0
 10
148.70429817755391
 20
154.49564040533389
 30
0.0
 11
148.704298121298
 21
155.70610954825821
 31
0.0
  0
LINE
  5
1AEE
  8
0
 10
150.15003380792709
 20
150.81648945830949
 30
0.0
 11
150.5130618333468
 21
151.16030722708589
 31
0.0
  0
LINE
  5
1AEF
  8
0
 10
150.260141542855
 20
153.98749530782729
 30
0.0
 11
150.6048680520239
 21
154.3496605177007
 31
0.0
  0
LINE
  5
1AF0
  8
0
 10
150.2969227684944
 20
157.05940803600689
 30
0.0
 11
150.63109994072471
 21
157.43132956392171
 31
0.0
  0
LINE
  5
1AF1
  8
0
 10
149.47914568730181
 20
149.51419686596691
 30
0.0
 11
149.47914556877271
 21
151.63954098621019
 31
0.0
  0
LINE
  5
1AF2
  8
0
 10
148.70429838353789
 20
150.06344602269439
 30
0.0
 11
148.70429834485961
 21
150.89569280855781
 31
0.0
  0
LINE
  5
1AF3
  8
0
 10
147.86026714023259
 20
150.66173609402219
 30
0.0
 11
147.602210541597
 21
150.23347589593331
 31
0.0
  0
LINE
  5
1AF4
  8
0
 10
147.8704148643024
 20
153.6131458089213
 30
0.0
 11
150.15003380792709
 21
150.81648945830949
 31
0.0
  0
LINE
  5
1AF5
  8
0
 10
147.83868386566229
 20
156.66228352170759
 30
0.0
 11
150.260141542855
 21
153.98749530782729
 31
0.0
  0
LINE
  5
1AF6
  8
0
 10
148.23344288333061
 20
153.9569635844463
 30
0.0
 11
147.8704148643024
 21
153.6131458089213
 31
0.0
  0
LINE
  5
1AF7
  8
0
 10
149.12580867284569
 20
152.07301776383721
 30
0.0
 11
147.90520393754531
 21
150.62988272380301
 31
0.0
  0
LINE
  5
1AF8
  8
0
 10
148.18341036809861
 20
157.02444873798959
 30
0.0
 11
147.83868386566229
 21
156.66228352170759
 31
0.0
  0
LINE
  5
1AF9
  8
0
 10
148.7042980323285
 20
157.6204826147721
 30
0.0
 11
148.70429798122291
 21
158.7201319359506
 31
0.0
  0
LINE
  5
1AFA
  8
0
 10
149.47914534828209
 20
155.5931552305214
 30
0.0
 11
149.47914522354361
 21
157.8298414544854
 31
0.0
  0
LINE
  5
1AFB
  8
0
 10
149.1985067490503
 20
158.20479127388609
 30
0.0
 11
148.19207596110351
 21
157.01487655911339
 31
0.0
  0
LINE
  5
1AFC
  8
0
 10
148.48063160624079
 20
156.69613250439181
 30
0.0
 11
149.51693476948299
 21
157.8727475758534
 31
0.0
  0
LINE
  5
1AFD
  8
0
 10
146.0
 20
165.50000000000011
 30
0.0
 11
147.5
 21
165.50000000000011
 31
0.0
  0
LINE
  5
1AFE
  8
0
 10
150.92907797847849
 20
161.04226353884371
 30
0.0
 11
149.4791449099524
 21
163.45283974174649
 31
0.0
  0
LINE
  5
1AFF
  8
0
 10
148.38411760818619
 20
162.28073664721481
 30
0.0
 11
149.479144920491
 21
163.26387230806259
 31
0.0
  0
LINE
  5
1B00
  8
0
 10
148.4797248337114
 20
159.6746954120155
 30
0.0
 11
149.71582065451011
 21
161.07815438436131
 31
0.0
  0
LINE
  5
1B01
  8
0
 10
149.28773998459511
 20
161.2864744840964
 30
0.0
 11
148.1846989313371
 21
159.98233633968641
 31
0.0
  0
LINE
  5
1B02
  8
0
 10
148.704297894012
 20
160.5966641790888
 30
0.0
 11
148.70429784875819
 21
161.5703992965654
 31
0.0
  0
LINE
  5
1B03
  8
0
 10
149.47914488502511
 20
163.8998113884939
 30
0.0
 11
147.96505998618591
 21
162.4846657935243
 31
0.0
  0
LINE
  5
1B04
  8
0
 10
150.74428301602541
 20
160.5776660493774
 30
0.0
 11
150.92907797847849
 21
161.04226353884371
 31
0.0
  0
LINE
  5
1B05
  8
0
 10
149.4791447818412
 20
165.75000003366981
 30
0.0
 11
148.7042976545134
 21
165.7499999639964
 31
0.0
  0
LINE
  5
1B07
  8
0
 10
149.47914500503839
 20
161.74785527123669
 30
0.0
 11
149.4791447818412
 21
165.7500000539153
 31
0.0
  0
LINE
  5
1B08
  8
0
 10
148.7042978229868
 20
162.12492495344861
 30
0.0
 11
148.7042978023859
 21
162.56820031435589
 31
0.0
  0
LINE
  5
1B09
  8
0
 10
148.7042977741574
 20
163.17559739193399
 30
0.0
 11
148.7042976545134
 21
165.7499999639964
 31
0.0
  0
LINE
  5
1B0A
  8
0
 10
147.68479495381629
 20
162.62105326338761
 30
0.0
 11
147.5
 21
162.1564557704861
 31
0.0
  0
LINE
  5
1B0B
  8
0
 10
150.92907797847849
 20
161.04226353884371
 30
0.0
 11
147.68479495381629
 21
162.62105326338761
 31
0.0
  0
LINE
  5
1B0C
  8
0
 10
147.5
 20
162.1564557704861
 30
0.0
 11
150.74428301602541
 21
160.5776660493774
 31
0.0
  0
LINE
  5
1B0D
  8
0
 10
148.13378093346921
 20
160.0354315424234
 30
0.0
 11
147.79960376815271
 21
159.6635100082963
 31
0.0
  0
LINE
  5
1B1F
  8
0
 10
147.5
 20
272.50000000000023
 30
0.0
 11
147.5
 21
292.50000000000023
 31
0.0
  0
LINE
  5
1B21
  8
0
 10
150.63109994072471
 20
280.56867043607849
 30
0.0
 11
148.13378093346921
 21
277.96456845757677
 31
0.0
  0
LINE
  5
1B22
  8
0
 10
147.79960376815271
 20
278.33648999170379
 30
0.0
 11
150.2969227684944
 21
280.94059196399331
 31
0.0
  0
LINE
  5
1B23
  8
0
 10
149.4791451787774
 20
279.36745919073257
 30
0.0
 11
149.4791450573735
 21
277.19056628012748
 31
0.0
  0
LINE
  5
1B2B
  8
0
 10
146.0
 20
272.50000000000023
 30
0.0
 11
147.5
 21
272.50000000000023
 31
0.0
  0
LINE
  5
1B2C
  8
0
 10
148.13378093346921
 20
277.96456845757677
 30
0.0
 11
147.79960376815271
 21
278.33648999170379
 31
0.0
  0
LINE
  5
1B2D
  8
0
 10
150.74428301602541
 20
277.42233395062271
 30
0.0
 11
150.92907797847849
 21
276.95773646115651
 31
0.0
  0
LINE
  5
1B2E
  8
0
 10
150.92907797847849
 20
276.95773646115651
 30
0.0
 11
147.68479495381629
 21
275.37894673661248
 31
0.0
  0
LINE
  5
1B2F
  8
0
 10
147.68479495381629
 20
275.37894673661248
 30
0.0
 11
147.5
 21
275.84354422951412
 31
0.0
  0
LINE
  5
1B30
  8
0
 10
147.5
 20
275.84354422951412
 30
0.0
 11
150.74428301602541
 21
277.42233395062271
 31
0.0
  0
LINE
  5
1B31
  8
0
 10
148.70429794774321
 20
278.55948023349458
 30
0.0
 11
148.70429792501
 21
278.07032506728149
 31
0.0
  0
LINE
  5
1B32
  8
0
 10
148.38411760818619
 20
275.71926335278539
 30
0.0
 11
149.479144920491
 21
274.73612769193761
 31
0.0
  0
LINE
  5
1B33
  8
0
 10
150.92907797847849
 20
276.95773646115651
 30
0.0
 11
149.4791449099524
 21
274.5471602582536
 31
0.0
  0
LINE
  5
1B34
  8
0
 10
148.47972483371129
 20
278.32530458798459
 30
0.0
 11
149.71582065451011
 21
276.92184561563869
 31
0.0
  0
LINE
  5
1B35
  8
0
 10
149.28773998459511
 20
276.71352551590371
 30
0.0
 11
148.1846989313371
 21
278.01766366031381
 31
0.0
  0
LINE
  5
1B36
  8
0
 10
148.704297894012
 20
277.40333582091142
 30
0.0
 11
148.70429784875819
 21
276.4296007034348
 31
0.0
  0
LINE
  5
1B37
  8
0
 10
149.4791447818412
 20
272.24999996633039
 30
0.0
 11
148.7042976545134
 21
272.25000003600371
 31
0.0
  0
LINE
  5
1B39
  8
0
 10
149.47914500503839
 20
276.25214472876348
 30
0.0
 11
149.4791447818412
 21
272.24999994608493
 31
0.0
  0
LINE
  5
1B3A
  8
0
 10
148.7042977741574
 20
274.82440260806612
 30
0.0
 11
148.7042976545134
 21
272.25000003600371
 31
0.0
  0
LINE
  5
1B3B
  8
0
 10
149.47914488502511
 20
274.10018861150621
 30
0.0
 11
147.96505998618591
 21
275.51533420647581
 31
0.0
  0
LINE
  5
1B44
  8
0
 10
150.54574404560401
 20
289.85304268350421
 30
0.0
 11
150.80380065220081
 21
289.42478249021269
 31
0.0
  0
LINE
  5
1B45
  8
0
 10
147.602210541597
 20
287.76652410406689
 30
0.0
 11
150.54574404560401
 21
289.85304268350421
 31
0.0
  0
LINE
  5
1B46
  8
0
 10
149.9440428141578
 20
289.42652781728179
 30
0.0
 11
148.70429852090419
 21
290.89229177717363
 31
0.0
  0
LINE
  5
1B47
  8
0
 10
147.74898541834611
 20
287.87056521890878
 30
0.0
 11
148.7043891462304
 21
290.51992630068872
 31
0.0
  0
LINE
  5
1B49
  8
0
 10
148.7042986072403
 20
292.75000003600371
 30
0.0
 11
148.70429841194229
 21
288.54773716466821
 31
0.0
  0
LINE
  5
1B4A
  8
0
 10
150.80380065220081
 20
289.42478249021269
 30
0.0
 11
147.86026714023259
 21
287.33826390597801
 31
0.0
  0
LINE
  5
1B4B
  8
0
 10
147.86026714023259
 20
287.33826390597801
 30
0.0
 11
147.602210541597
 21
287.76652410406689
 31
0.0
  0
LINE
  5
1B4C
  8
0
 10
150.15003380792709
 20
287.18351054169062
 30
0.0
 11
150.5130618333468
 21
286.83969277291419
 31
0.0
  0
LINE
  5
1B4D
  8
0
 10
150.5130618333468
 20
286.83969277291419
 30
0.0
 11
148.23344288333061
 21
284.0430364155539
 31
0.0
  0
LINE
  5
1B4E
  8
0
 10
148.23344288333061
 20
284.0430364155539
 30
0.0
 11
147.8704148643024
 21
284.3868541910789
 31
0.0
  0
LINE
  5
1B4F
  8
0
 10
147.8704148643024
 20
284.3868541910789
 30
0.0
 11
150.15003380792709
 21
287.18351054169062
 31
0.0
  0
LINE
  5
1B50
  8
0
 10
150.260141542855
 20
284.01250469217291
 30
0.0
 11
150.6048680520239
 21
283.65033948229939
 31
0.0
  0
LINE
  5
1B51
  8
0
 10
149.4791455247605
 20
285.57127525192209
 30
0.0
 11
149.47914539773981
 21
283.29366971376788
 31
0.0
  0
LINE
  5
1B52
  8
0
 10
148.70429822943461
 20
284.62068584993392
 30
0.0
 11
148.70429820864851
 21
284.17342856533043
 31
0.0
  0
LINE
  5
1B53
  8
0
 10
149.47914577041919
 20
289.97618094775407
 30
0.0
 11
149.47914572138711
 21
289.09698632564528
 31
0.0
  0
LINE
  5
1B54
  8
0
 10
149.47914568730181
 20
288.48580313403318
 30
0.0
 11
149.47914556877271
 21
286.36045901378992
 31
0.0
  0
LINE
  5
1B55
  8
0
 10
148.70429838353789
 20
287.93655397730572
 30
0.0
 11
148.70429834485961
 21
287.10430719144227
 31
0.0
  0
LINE
  5
1B56
  8
0
 10
149.12580867284569
 20
285.92698223616298
 30
0.0
 11
147.90520393754531
 21
287.37011727619711
 31
0.0
  0
LINE
  5
1B57
  8
0
 10
148.2530313859952
 20
287.61667415497772
 30
0.0
 11
149.42161004701919
 21
286.28987393519691
 31
0.0
  0
LINE
  5
1B58
  8
0
 10
149.23359675392621
 20
282.87856379024879
 30
0.0
 11
148.2409231317769
 21
284.05221324941539
 31
0.0
  0
LINE
  5
1B59
  8
0
 10
148.51495934702979
 20
284.38840326201762
 30
0.0
 11
149.54337183438241
 21
283.22074723700581
 31
0.0
  0
LINE
  5
1B5A
  8
0
 10
148.70429831330489
 20
286.4253387900896
 30
0.0
 11
148.70429826611149
 21
285.40986960243129
 31
0.0
  0
LINE
  5
1B5B
  8
0
 10
148.18341036809861
 20
280.97555126201058
 30
0.0
 11
147.83868386566229
 21
281.33771647829252
 31
0.0
  0
LINE
  5
1B5C
  8
0
 10
150.2969227684944
 20
280.94059196399331
 30
0.0
 11
150.63109994072471
 21
280.56867043607849
 31
0.0
  0
LINE
  5
1B5D
  8
0
 10
149.47914534828209
 20
282.4068447694786
 30
0.0
 11
149.47914522354361
 21
280.17015854551482
 31
0.0
  0
LINE
  5
1B5E
  8
0
 10
148.70429808676951
 20
281.55093374473711
 30
0.0
 11
148.704298063485
 21
281.04991736411353
 31
0.0
  0
LINE
  5
1B5F
  8
0
 10
149.1985067490503
 20
279.79520872611408
 30
0.0
 11
148.1920759611036
 21
280.98512344088681
 31
0.0
  0
LINE
  5
1B60
  8
0
 10
148.48063160624079
 20
281.30386749560842
 30
0.0
 11
149.51693476948299
 21
280.12725242414677
 31
0.0
  0
LINE
  5
1B61
  8
0
 10
148.7042980323285
 20
280.3795173852281
 30
0.0
 11
148.70429798122291
 21
279.27986806404971
 31
0.0
  0
LINE
  5
1B62
  8
0
 10
150.6048680520239
 20
283.65033948229939
 30
0.0
 11
148.18341036809861
 21
280.97555126201058
 31
0.0
  0
LINE
  5
1B63
  8
0
 10
147.83868386566229
 20
281.33771647829252
 30
0.0
 11
150.260141542855
 21
284.01250469217291
 31
0.0
  0
LINE
  5
1B64
  8
0
 10
148.70429817755391
 20
283.50435959466631
 30
0.0
 11
148.704298121298
 21
282.29389045174202
 31
0.0
  0
LINE
  5
1B65
  8
0
 10
146.0
 20
292.50000000000023
 30
0.0
 11
147.5
 21
292.50000000000023
 31
0.0
  0
LINE
  5
1B66
  8
0
 10
149.47914592511339
 20
292.74999998442888
 30
0.0
 11
148.7042986072403
 21
292.7500000132373
 31
0.0
  0
LINE
  5
1B67
  8
0
 10
149.47914592511339
 20
292.7500000132373
 30
0.0
 11
149.47914580858179
 21
290.66047197096418
 31
0.0
  0
LINE
  5
1B68
  8
0
 10
148.7042985510169
 20
291.5402309002713
 30
0.0
 11
150.3269104615876
 21
289.69792287996432
 31
0.0
  0
CIRCLE
  5
1BB6
  8
0
 10
63.5
 20
282.50000000000011
 30
0.0
 40
8.5
  0
CIRCLE
  5
1BB7
  8
0
 10
63.5
 20
155.50000000000011
 30
0.0
 40
8.5
  0
LINE
  5
1BBF
  8
3
 10
150.92907797847849
 20
287.4265000000002
 30
0.0
 11
149.47914562302989
 21
287.4265000000002
 31
0.0
  0
LINE
  5
1BC0
  8
3
 10
150.92907797847849
 20
277.57350000000008
 30
0.0
 11
149.47914507353431
 21
277.57350000000031
 31
0.0
  0
LINE
  5
1BC1
  8
3
 10
150.92907797847849
 20
160.4265
 30
0.0
 11
149.47914507353431
 21
160.42650000000009
 31
0.0
  0
LINE
  5
1BC2
  8
3
 10
150.92907797847849
 20
150.57350000000011
 30
0.0
 11
149.47914562302989
 21
150.57350000000011
 31
0.0
  0
LINE
  5
1C09
  8
0
 10
69.5
 20
69.295702147970019
 30
0.0
 11
69.5
 21
70.5
 31
0.0
  0
LINE
  5
1C0B
  8
3
 10
68.426500000000033
 20
69.439627100539639
 30
0.0
 11
68.426500000000033
 21
70.5
 31
0.0
  0
LINE
  5
1C0D
  8
3
 10
58.573500000000003
 20
70.192901252258281
 30
0.0
 11
58.57349999999996
 21
70.5
 31
0.0
  0
LINE
  5
1C0F
  8
3
 10
58.57349999999996
 20
69.295701644427353
 30
0.0
 11
58.57349999999996
 21
69.579472817673306
 31
0.0
  0
LINE
  5
1C10
  8
0
 10
57.5
 20
68.50082623767689
 30
0.0
 11
57.5
 21
67.070922021521483
 31
0.0
  0
LINE
  5
1C11
  8
0
 10
56.023819052245933
 20
68.520854229580777
 30
0.0
 11
56.903013674354959
 21
68.520854278613001
 31
0.0
  0
LINE
  5
1E2D
  8
0
 10
147.97597008285649
 20
288.50000000000011
 30
0.0
 11
147.5
 21
288.50000000000011
 31
0.0
  0
LINE
  5
1E2E
  8
3
 10
147.80709874774161
 20
287.4265000000002
 30
0.0
 11
147.5
 21
287.4265000000002
 31
0.0
  0
LINE
  5
1E2F
  8
3
 10
148.70429835550391
 20
287.4265000000002
 30
0.0
 11
148.42052718232671
 21
287.4265000000002
 31
0.0
  0
LINE
  5
1E30
  8
3
 10
148.56037289946011
 20
277.57350000000031
 30
0.0
 11
147.5
 21
277.57350000000019
 31
0.0
  0
LINE
  5
1E31
  8
0
 10
150.65375491219191
 20
276.50000000000011
 30
0.0
 11
150.92907797847849
 21
276.50000000000011
 31
0.0
  0
LINE
  5
1E75
  8
0
 10
148.7042978520299
 20
161.50000000000011
 30
0.0
 11
147.49999999999989
 21
161.50000000000011
 31
0.0
  0
LINE
  5
1E76
  8
3
 10
148.5603728994603
 20
160.4265
 30
0.0
 11
147.49999999999989
 21
160.4265
 31
0.0
  0
LINE
  5
1E77
  8
3
 10
148.70429835550399
 20
150.57350000000011
 30
0.0
 11
148.42052718232671
 21
150.57349999999991
 31
0.0
  0
LINE
  5
1E78
  8
3
 10
147.80709874774161
 20
150.57350000000011
 30
0.0
 11
147.49999999999989
 21
150.57349999999991
 31
0.0
  0
LINE
  5
1E79
  8
0
 10
149.49917376232321
 20
149.5
 30
0.0
 11
150.92907797847849
 21
149.50000000000011
 31
0.0
  0
ENDSEC
  0
EOF
