  0
SECTION
  2
HEADER
  9
$ACADVER
  1
AC1009
  9
$INSBASE
 10
0.0
 20
0.0
 30
0.0
  9
$EXTMIN
 10
0.0
 20
-1.4802182810368341
 30
0.0
  9
$EXTMAX
 10
142.59250499999999
 20
108.453534
 30
0.0
  9
$LIMMIN
 10
0.0
 20
0.0
  9
$LIMMAX
 10
187.5
 20
135.0
  9
$ORTHOMODE
 70
     0
  9
$REGENMODE
 70
     1
  9
$FILLMODE
 70
     1
  9
$QTEXTMODE
 70
     0
  9
$MIRRTEXT
 70
     0
  9
$DRAGMODE
 70
     2
  9
$LTSCALE
 40
2.0
  9
$OSMODE
 70
  3071
  9
$ATTMODE
 70
     1
  9
$TEXTSIZE
 40
2.0
  9
$TRACEWID
 40
0.05
  9
$TEXTSTYLE
  7
STANDARD
  9
$CLAYER
  8
0
  9
$CELTYPE
  6
BYLAYER
  9
$CECOLOR
 62
   256
  9
$DIMSCALE
 40
0.5
  9
$DIMASZ
 40
3.0
  9
$DIMEXO
 40
2.0
  9
$DIMDLI
 40
10.0
  9
$DIMRND
 40
0.0
  9
$DIMDLE
 40
0.0
  9
$DIMEXE
 40
2.0
  9
$DIMTP
 40
0.0
  9
$DIMTM
 40
0.0
  9
$DIMTXT
 40
3.2000000000000002
  9
$DIMCEN
 40
0.09
  9
$DIMTSZ
 40
0.0
  9
$DIMTOL
 70
     0
  9
$DIMLIM
 70
     0
  9
$DIMTIH
 70
     0
  9
$DIMTOH
 70
     0
  9
$DIMSE1
 70
     0
  9
$DIMSE2
 70
     0
  9
$DIMTAD
 70
     1
  9
$DIMZIN
 70
     0
  9
$DIMBLK
  1

  9
$DIMASO
 70
     1
  9
$DIMSHO
 70
     0
  9
$DIMPOST
  1

  9
$DIMAPOST
  1

  9
$DIMALT
 70
     0
  9
$DIMALTD
 70
     2
  9
$DIMALTF
 40
25.399999999999999
  9
$DIMLFAC
 40
1.0
  9
$DIMTOFL
 70
     1
  9
$DIMTVP
 40
1.6000000000000001
  9
$DIMTIX
 70
     0
  9
$DIMSOXD
 70
     0
  9
$DIMSAH
 70
     0
  9
$DIMBLK1
  1

  9
$DIMBLK2
  1

  9
$DIMSTYLE
  2
STANDARD
  9
$DIMCLRD
 70
     0
  9
$DIMCLRE
 70
     0
  9
$DIMCLRT
 70
     0
  9
$DIMTFAC
 40
1.0
  9
$DIMGAP
 40
0.09
  9
$LUNITS
 70
     2
  9
$LUPREC
 70
     4
  9
$SKETCHINC
 40
0.1
  9
$FILLETRAD
 40
0.5
  9
$AUNITS
 70
     0
  9
$AUPREC
 70
     0
  9
$MENU
  1
E:\r13\win\SUPPORT\ACAD
  9
$ELEVATION
 40
0.0
  9
$PELEVATION
 40
0.0
  9
$THICKNESS
 40
0.0
  9
$LIMCHECK
 70
     0
  9
$BLIPMODE
 70
     0
  9
$CHAMFERA
 40
0.0
  9
$CHAMFERB
 40
0.0
  9
$SKPOLY
 70
     0
  9
$TDCREATE
 40
2449840.6184259262
  9
$TDUPDATE
 40
2456597.5878770831
  9
$TDINDWG
 40
0.0061004514
  9
$TDUSRTIMER
 40
0.0061004514
  9
$USRTIMER
 70
     1
  9
$ANGBASE
 50
0.0
  9
$ANGDIR
 70
     0
  9
$PDMODE
 70
     0
  9
$PDSIZE
 40
0.0
  9
$PLINEWID
 40
0.0
  9
$COORDS
 70
     1
  9
$SPLFRAME
 70
     0
  9
$SPLINETYPE
 70
     6
  9
$SPLINESEGS
 70
     8
  9
$ATTDIA
 70
     0
  9
$ATTREQ
 70
     1
  9
$HANDLING
 70
     1
  9
$HANDSEED
  5
338
  9
$SURFTAB1
 70
     6
  9
$SURFTAB2
 70
     6
  9
$SURFTYPE
 70
     6
  9
$SURFU
 70
     6
  9
$SURFV
 70
     6
  9
$UCSNAME
  2

  9
$UCSORG
 10
0.0
 20
0.0
 30
0.0
  9
$UCSXDIR
 10
1.0
 20
0.0
 30
0.0
  9
$UCSYDIR
 10
0.0
 20
1.0
 30
0.0
  9
$PUCSNAME
  2

  9
$PUCSORG
 10
0.0
 20
0.0
 30
0.0
  9
$PUCSXDIR
 10
1.0
 20
0.0
 30
0.0
  9
$PUCSYDIR
 10
0.0
 20
1.0
 30
0.0
  9
$USERI1
 70
     0
  9
$USERI2
 70
     1
  9
$USERI3
 70
     1
  9
$USERI4
 70
     0
  9
$USERI5
 70
     0
  9
$USERR1
 40
0.0
  9
$USERR2
 40
0.0
  9
$USERR3
 40
0.0
  9
$USERR4
 40
0.0
  9
$USERR5
 40
0.0
  9
$WORLDVIEW
 70
     1
  9
$SHADEDGE
 70
     3
  9
$SHADEDIF
 70
    70
  9
$TILEMODE
 70
     1
  9
$MAXACTVP
 70
    16
  9
$PLIMCHECK
 70
     0
  9
$PEXTMIN
 10
1.0000000000000000E+020
 20
1.0000000000000000E+020
 30
1.0000000000000000E+020
  9
$PEXTMAX
 10
-1.0000000000000000E+020
 20
-1.0000000000000000E+020
 30
-1.0000000000000000E+020
  9
$PLIMMIN
 10
0.0
 20
0.0
  9
$PLIMMAX
 10
12.0
 20
9.0
  9
$UNITMODE
 70
     0
  9
$VISRETAIN
 70
     0
  9
$PLINEGEN
 70
     0
  9
$PSLTSCALE
 70
     0
  0
ENDSEC
  0
SECTION
  2
TABLES
  0
TABLE
  2
VPORT
 70
     1
  0
VPORT
  2
*ACTIVE
 70
     0
 10
0.0
 20
0.0
 11
1.0
 21
1.0
 12
93.747139195326156
 22
67.05183146954721
 13
0.0
 23
0.0
 14
5.0
 24
5.0
 15
5.0
 25
5.0
 16
0.0
 26
0.0
 36
1.0
 17
0.0
 27
0.0
 37
0.0
 40
138.6470298934976
 41
2.304913294797688
 42
50.0
 43
0.0
 44
0.0
 50
0.0
 51
0.0
 71
     0
 72
   100
 73
     1
 74
     0
 75
     0
 76
     0
 77
     0
 78
     0
  0
ENDTAB
  0
TABLE
  2
LTYPE
 70
     4
  0
LTYPE
  2
CONTINUOUS
 70
     0
  3
Solid Line
 72
    65
 73
     0
 40
0.0
  0
LTYPE
  2
CENTER
 70
     0
  3
____ _ ____ _ ____ _ ____ _ ____ _ ____ _ ____
 72
    65
 73
     4
 40
2.0
 49
1.25
 49
-0.25
 49
0.25
 49
-0.25
  0
LTYPE
  2
HIDDEN
 70
     0
  3
_ _ _ _ _ _ _ _ _ _ _ _ _ _ _ _ _ _ _ _ _ _ _
 72
    65
 73
     2
 40
0.375
 49
0.25
 49
-0.125
  0
LTYPE
  2
PHANTOM2
 70
     0
  3
___ _ _ ___ _ _ ___ _ _ ___ _ _
 72
    65
 73
     6
 40
1.25
 49
0.625
 49
-0.125
 49
0.125
 49
-0.125
 49
0.125
 49
-0.125
  0
ENDTAB
  0
TABLE
  2
LAYER
 70
     5
  0
LAYER
  2
0
 70
     0
 62
     7
  6
CONTINUOUS
  0
LAYER
  2
1
 70
     0
 62
     1
  6
CENTER
  0
LAYER
  2
2
 70
     0
 62
     2
  6
HIDDEN
  0
LAYER
  2
3
 70
     0
 62
     3
  6
CONTINUOUS
  0
LAYER
  2
DEFPOINTS
 70
     0
 62
     7
  6
CONTINUOUS
  0
ENDTAB
  0
TABLE
  2
STYLE
 70
     2
  0
STYLE
  2
STANDARD
 70
     0
 40
0.0
 41
1.0
 50
0.0
 71
     0
 42
2.0
  3
ROMANS
  4
BIGFONT
  0
STYLE
  2
STANDARD1
 70
     0
 40
0.0
 41
1.0
 50
0.0
 71
     0
 42
3.0
  3
txt
  4

  0
ENDTAB
  0
TABLE
  2
VIEW
 70
     1
  0
VIEW
  2
ALL
 70
     0
 40
135.0
 10
110.29971
 20
67.5
 41
220.59942000000001
 11
0.0
 21
0.0
 31
1.0
 12
0.0
 22
0.0
 32
0.0
 42
0.0
 43
0.0
 44
0.0
 50
0.0
 71
     0
  0
ENDTAB
  0
TABLE
  2
UCS
 70
     0
  0
ENDTAB
  0
TABLE
  2
APPID
 70
     3
  0
APPID
  2
ACAD
 70
     0
  0
APPID
  2
ACAD_MLEADERVER
 70
     0
  0
APPID
  2
ACAD_NAV_VCDISPLAY
 70
     0
  0
ENDTAB
  0
TABLE
  2
DIMSTYLE
 70
     1
  0
DIMSTYLE
  2
STANDARD
 70
     0
  3

  4

  5

  6

  7

 40
1.0
 41
0.18
 42
0.0625
 43
0.38
 44
0.18
 45
0.0
 46
0.0
 47
0.0
 48
0.0
140
0.18
141
0.09
142
0.0
143
25.399999999999999
144
1.0
145
0.0
146
1.0
147
0.09
 71
     0
 72
     0
 73
     1
 74
     1
 75
     0
 76
     0
 77
     0
 78
     0
170
     0
171
     2
172
     0
173
     0
174
     0
175
     0
176
     0
177
     0
178
     0
  0
ENDTAB
  0
ENDSEC
  0
SECTION
  2
BLOCKS
  0
BLOCK
  8
0
  2
$MODEL_SPACE
 70
     0
 10
0.0
 20
0.0
 30
0.0
  3
$MODEL_SPACE
  1

  0
ENDBLK
  5
D9
  8
0
  0
BLOCK
 67
     1
  8
0
  2
$PAPER_SPACE
 70
     0
 10
0.0
 20
0.0
 30
0.0
  3
$PAPER_SPACE
  1

  0
ENDBLK
  5
D7
 67
     1
  8
0
  0
ENDSEC
  0
SECTION
  2
ENTITIES
  0
LINE
  5
39
  8
1
 10
73.366652999999985
 20
71.87397
 30
0.0
 11
110.366653
 21
71.87397
 31
0.0
  0
LINE
  5
3A
  8
0
 10
101.866653
 20
77.87397
 30
0.0
 11
77.866652999999999
 21
77.87397
 31
0.0
  0
LINE
  5
3B
  8
3
 10
102.813653
 20
76.926969999999983
 30
0.0
 11
76.919652999999997
 21
76.926969999999983
 31
0.0
  0
LINE
  5
3C
  8
3
 10
102.813653
 20
66.820969999999974
 30
0.0
 11
76.919652999999997
 21
66.820969999999974
 31
0.0
  0
LINE
  5
3D
  8
0
 10
101.866653
 20
65.87397
 30
0.0
 11
77.866652999999999
 21
65.87397
 31
0.0
  0
CIRCLE
  5
3E
  8
0
 10
134.09250499999999
 20
71.87397
 30
0.0
 40
6.0
  0
CIRCLE
  5
3F
  8
0
 10
48.639789999999998
 20
71.87397
 30
0.0
 40
6.0
  0
CIRCLE
  5
40
  8
3
 10
48.639789999999998
 20
71.87397
 30
0.0
 40
5.052999999999999
  0
LINE
  5
41
  8
0
 10
75.866652999999985
 20
75.87397
 30
0.0
 11
75.866652999999985
 21
67.87397
 31
0.0
  0
LINE
  5
42
  8
0
 10
103.866653
 20
75.87397
 30
0.0
 11
103.866653
 21
72.87397
 31
0.0
  0
LINE
  5
43
  8
0
 10
103.866653
 20
74.87397
 30
0.0
 11
104.866653
 21
74.87397
 31
0.0
  0
LINE
  5
44
  8
0
 10
103.866653
 20
68.873969999999986
 30
0.0
 11
104.866653
 21
68.873969999999986
 31
0.0
  0
ARC
  5
45
  8
0
 10
104.866653
 20
71.87397
 30
0.0
 40
3.0
 50
270.0
 51
90.0
  0
LINE
  5
46
  8
0
 10
101.866653
 20
77.87397
 30
0.0
 11
103.866653
 21
75.87397
 31
0.0
  0
LINE
  5
47
  8
0
 10
101.866653
 20
65.87397
 30
0.0
 11
103.866653
 21
67.87397
 31
0.0
  0
LINE
  5
48
  8
0
 10
77.866652999999999
 20
77.87397
 30
0.0
 11
75.866652999999985
 21
75.87397
 31
0.0
  0
LINE
  5
49
  8
0
 10
75.866652999999985
 20
67.87397
 30
0.0
 11
77.866652999999999
 21
65.87397
 31
0.0
  0
LINE
  5
4A
  8
0
 10
101.866653
 20
77.87397
 30
0.0
 11
101.866653
 21
65.87397
 31
0.0
  0
LINE
  5
4B
  8
0
 10
77.866652999999999
 20
77.87397
 30
0.0
 11
77.866652999999999
 21
65.87397
 31
0.0
  0
CIRCLE
  5
4C
  8
0
 10
134.09250499999999
 20
71.87397
 30
0.0
 40
3.0
  0
LINE
  5
4D
  8
0
 10
46.639789999999998
 20
73.028671000000003
 30
0.0
 11
46.639789999999998
 21
70.719268999999997
 31
0.0
  0
LINE
  5
4E
  8
0
 10
48.639789999999998
 20
74.183370999999994
 30
0.0
 11
46.639789999999998
 21
73.028671000000003
 31
0.0
  0
LINE
  5
4F
  8
0
 10
50.639789999999998
 20
73.028671000000003
 30
0.0
 11
48.639789999999998
 21
74.183370999999994
 31
0.0
  0
LINE
  5
50
  8
0
 10
50.639789999999998
 20
70.719268999999997
 30
0.0
 11
50.639789999999998
 21
73.028671000000003
 31
0.0
  0
LINE
  5
51
  8
0
 10
48.639789999999998
 20
69.564568999999992
 30
0.0
 11
50.639789999999998
 21
70.719268999999997
 31
0.0
  0
LINE
  5
52
  8
0
 10
46.639789999999998
 20
70.719268999999997
 30
0.0
 11
48.639789999999998
 21
69.564568999999992
 31
0.0
  0
CIRCLE
  5
53
  8
3
 10
48.639789999999998
 20
71.87397
 30
0.0
 40
4.0
  0
CIRCLE
  5
54
  8
0
 10
48.639789999999998
 20
71.87397
 30
0.0
 40
3.3235000000000001
  0
LINE
  5
55
  8
0
 10
128.1876955923926
 20
72.842645717789736
 30
0.0
 11
131.27534859239259
 21
72.842645717789736
 31
0.0
  0
LINE
  5
56
  8
0
 10
128.1876955923926
 20
70.842645717789736
 30
0.0
 11
131.27534859239259
 21
70.842645717789736
 31
0.0
  0
LINE
  5
57
  8
0
 10
136.92093199999999
 20
72.87397
 30
0.0
 11
140.00858500000001
 21
72.87397
 31
0.0
  0
LINE
  5
58
  8
0
 10
136.92093199999999
 20
70.87397
 30
0.0
 11
140.00858500000001
 21
70.87397
 31
0.0
  0
ARC
  5
59
  8
2
 10
100.866653
 20
71.87397
 30
0.0
 40
3.0
 50
270.0
 51
90.0
  0
LINE
  5
5A
  8
1
 10
57.139790000000012
 20
71.87397
 30
0.0
 11
40.139789999999998
 21
71.87397
 31
0.0
  0
LINE
  5
5B
  8
1
 10
48.639789999999998
 20
80.37397
 30
0.0
 11
48.639789999999998
 21
63.373969999999993
 31
0.0
  0
LINE
  5
5C
  8
1
 10
134.09250499999999
 20
80.37397
 30
0.0
 11
134.09250499999999
 21
63.373969999999993
 31
0.0
  0
LINE
  5
5D
  8
1
 10
125.592505
 20
71.87397
 30
0.0
 11
142.59250499999999
 21
71.87397
 31
0.0
  0
LINE
  5
5E
  8
2
 10
103.166653
 20
76.573969999999989
 30
0.0
 11
89.366652999999985
 21
76.573969999999989
 31
0.0
  0
LINE
  5
5F
  8
2
 10
88.866652999999999
 20
77.073969999999989
 30
0.0
 11
88.866652999999999
 21
77.87397
 31
0.0
  0
LINE
  5
60
  8
2
 10
89.313653000000016
 20
76.573969999999989
 30
0.0
 11
89.313653000000016
 21
77.87397
 31
0.0
  0
LINE
  5
61
  8
2
 10
89.313653000000016
 20
77.87397
 30
0.0
 11
99.313653000000016
 21
77.87397
 31
0.0
  0
LINE
  5
62
  8
2
 10
99.313653000000016
 20
77.87397
 30
0.0
 11
99.313653000000016
 21
76.573969999999989
 31
0.0
  0
LINE
  5
63
  8
0
 10
103.866653
 20
72.87397
 30
0.0
 11
101.866653
 21
72.87397
 31
0.0
  0
LINE
  5
64
  8
0
 10
103.866653
 20
70.87397
 30
0.0
 11
101.866653
 21
70.87397
 31
0.0
  0
LINE
  5
65
  8
0
 10
103.866653
 20
70.87397
 30
0.0
 11
103.866653
 21
67.87397
 31
0.0
  0
LINE
  5
66
  8
0
 10
133.54250500000001
 20
76.573969999999989
 30
0.0
 11
134.642505
 21
76.573969999999989
 31
0.0
  0
LINE
  5
67
  8
0
 10
133.54250500000001
 20
77.848708000000002
 30
0.0
 11
133.54250500000001
 21
76.573969999999989
 31
0.0
  0
LINE
  5
68
  8
0
 10
134.642505
 20
77.848708000000002
 30
0.0
 11
134.642505
 21
76.573969999999989
 31
0.0
  0
POLYLINE
  5
69
  8
0
 66
     1
 10
0.0
 20
0.0
 30
0.0
 70
     1
  0
VERTEX
  5
6A
  8
0
 10
133.54250500000001
 20
77.223969999999994
 30
0.0
 42
0.084478
  0
VERTEX
  5
6B
  8
0
 10
133.585633
 20
76.970528999999999
 30
0.0
 42
0.091541
  0
VERTEX
  5
6C
  8
0
 10
133.703596
 20
76.764351000000005
 30
0.0
 42
0.103696
 70
     2
 50
310.236358
  0
VERTEX
  5
6D
  8
0
 10
133.886788
 20
76.621619999999993
 30
0.0
 42
0.114302
 50
310.236358
  0
VERTEX
  5
6E
  8
0
 10
134.09250499999999
 20
76.573969999999989
 30
0.0
 42
0.114302
  0
VERTEX
  5
6F
  8
0
 10
134.29822200000001
 20
76.621619999999993
 30
0.0
 42
0.103696
  0
VERTEX
  5
70
  8
0
 10
134.481414
 20
76.764351000000005
 30
0.0
 42
0.091541
 70
     2
 50
49.76364199999999
  0
VERTEX
  5
71
  8
0
 10
134.599377
 20
76.970528999999999
 30
0.0
 42
0.084478
 50
49.76364199999999
  0
VERTEX
  5
72
  8
0
 10
134.642505
 20
77.223969999999994
 30
0.0
 42
0.084478
  0
VERTEX
  5
73
  8
0
 10
134.599377
 20
77.477411000000004
 30
0.0
 42
0.091541
  0
VERTEX
  5
74
  8
0
 10
134.481414
 20
77.683588999999984
 30
0.0
 42
0.103696
 70
     2
 50
130.236358
  0
VERTEX
  5
75
  8
0
 10
134.29822200000001
 20
77.826319999999996
 30
0.0
 42
0.114302
 50
130.236358
  0
VERTEX
  5
76
  8
0
 10
134.09250499999999
 20
77.87397
 30
0.0
 42
0.114302
  0
VERTEX
  5
77
  8
0
 10
133.886788
 20
77.826319999999996
 30
0.0
 42
0.103696
  0
VERTEX
  5
78
  8
0
 10
133.703596
 20
77.683588999999984
 30
0.0
 42
0.091541
 70
     2
 50
229.763642
  0
VERTEX
  5
79
  8
0
 10
133.585633
 20
77.477411000000004
 30
0.0
 42
0.084478
 50
229.763642
  0
SEQEND
  5
7A
  8
0
  0
ARC
  5
7B
  8
2
 10
89.366652999999985
 20
77.073969999999989
 30
0.0
 40
0.5
 50
180.0
 51
270.0
  0
CIRCLE
  5
7C
  8
3
 10
134.09250499999999
 20
71.87397
 30
0.0
 40
5.052999999999999
  0
LINE
  5
7D
  8
0
 10
103.866653
 20
106.453534
 30
0.0
 11
103.866653
 21
98.453534000000005
 31
0.0
  0
LINE
  5
7E
  8
0
 10
99.313653000000016
 20
103.103534
 30
0.0
 11
99.313653000000016
 21
101.803534
 31
0.0
  0
LINE
  5
7F
  8
0
 10
89.313653000000016
 20
101.803534
 30
0.0
 11
89.313653000000016
 21
103.103534
 31
0.0
  0
LINE
  5
80
  8
0
 10
88.866652999999999
 20
101.803534
 30
0.0
 11
88.866652999999999
 21
103.103534
 31
0.0
  0
LINE
  5
81
  8
0
 10
103.166653
 20
101.803534
 30
0.0
 11
88.866652999999999
 21
101.803534
 31
0.0
  0
ARC
  5
82
  8
2
 10
100.866653
 20
102.453534
 30
0.0
 40
3.0
 50
270.0
 51
90.0
  0
LINE
  5
83
  8
0
 10
77.866652999999999
 20
108.453534
 30
0.0
 11
77.866652999999999
 21
96.453533999999991
 31
0.0
  0
LINE
  5
84
  8
0
 10
101.866653
 20
108.453534
 30
0.0
 11
101.866653
 21
103.103534
 31
0.0
  0
LINE
  5
85
  8
0
 10
75.866652999999985
 20
98.453534000000005
 30
0.0
 11
77.866652999999999
 21
96.453533999999991
 31
0.0
  0
LINE
  5
86
  8
0
 10
77.866652999999999
 20
108.453534
 30
0.0
 11
75.866652999999985
 21
106.453534
 31
0.0
  0
LINE
  5
87
  8
0
 10
101.866653
 20
96.453533999999991
 30
0.0
 11
103.866653
 21
98.453534000000005
 31
0.0
  0
LINE
  5
88
  8
0
 10
101.866653
 20
108.453534
 30
0.0
 11
103.866653
 21
106.453534
 31
0.0
  0
ARC
  5
89
  8
0
 10
104.866653
 20
102.453534
 30
0.0
 40
3.0
 50
270.0
 51
90.0
  0
LINE
  5
8A
  8
0
 10
103.866653
 20
99.453534000000005
 30
0.0
 11
104.866653
 21
99.453534000000005
 31
0.0
  0
LINE
  5
8B
  8
0
 10
103.866653
 20
105.453534
 30
0.0
 11
104.866653
 21
105.453534
 31
0.0
  0
LINE
  5
8C
  8
0
 10
75.866652999999985
 20
106.453534
 30
0.0
 11
75.866652999999985
 21
98.453534000000005
 31
0.0
  0
LINE
  5
8D
  8
0
 10
101.866653
 20
96.453533999999991
 30
0.0
 11
77.866652999999999
 21
96.453533999999991
 31
0.0
  0
LINE
  5
8E
  8
3
 10
102.813653
 20
97.400533999999993
 30
0.0
 11
76.919652999999997
 21
97.400533999999993
 31
0.0
  0
LINE
  5
8F
  8
3
 10
102.813653
 20
107.506534
 30
0.0
 11
76.919652999999997
 21
107.506534
 31
0.0
  0
LINE
  5
90
  8
0
 10
101.866653
 20
108.453534
 30
0.0
 11
77.866652999999999
 21
108.453534
 31
0.0
  0
LINE
  5
91
  8
1
 10
73.366652999999985
 20
102.453534
 30
0.0
 11
110.366653
 21
102.453534
 31
0.0
  0
LINE
  5
92
  8
0
 10
103.166653
 20
103.103534
 30
0.0
 11
88.866652999999999
 21
103.103534
 31
0.0
  0
LINE
  5
93
  8
0
 10
101.866653
 20
101.803534
 30
0.0
 11
101.866653
 21
96.453533999999991
 31
0.0
  0
LINE
  5
94
  8
0
 10
101.866653
 20
46.161371999999993
 30
0.0
 11
101.866653
 21
34.161372
 31
0.0
  0
LINE
  5
95
  8
1
 10
73.366652999999985
 20
40.161372
 30
0.0
 11
110.366653
 21
40.161372
 31
0.0
  0
LINE
  5
96
  8
0
 10
101.866653
 20
46.161371999999993
 30
0.0
 11
77.866652999999999
 21
46.161371999999993
 31
0.0
  0
LINE
  5
97
  8
3
 10
102.813653
 20
45.214371999999997
 30
0.0
 11
76.919652999999997
 21
45.214371999999997
 31
0.0
  0
LINE
  5
98
  8
3
 10
102.813653
 20
35.108372000000003
 30
0.0
 11
76.919652999999997
 21
35.108372000000003
 31
0.0
  0
LINE
  5
99
  8
0
 10
101.866653
 20
34.161372
 30
0.0
 11
77.866652999999999
 21
34.161372
 31
0.0
  0
LINE
  5
9A
  8
0
 10
75.866652999999985
 20
44.161372
 30
0.0
 11
75.866652999999985
 21
36.161372
 31
0.0
  0
LINE
  5
9B
  8
0
 10
103.866653
 20
43.161372
 30
0.0
 11
104.866653
 21
43.161372
 31
0.0
  0
LINE
  5
9C
  8
0
 10
103.866653
 20
37.161372
 30
0.0
 11
104.866653
 21
37.161372
 31
0.0
  0
ARC
  5
9D
  8
0
 10
104.866653
 20
40.161372
 30
0.0
 40
3.0
 50
270.0
 51
90.0
  0
LINE
  5
9E
  8
0
 10
101.866653
 20
46.161371999999993
 30
0.0
 11
103.866653
 21
44.161372
 31
0.0
  0
LINE
  5
9F
  8
0
 10
101.866653
 20
34.161372
 30
0.0
 11
103.866653
 21
36.161372
 31
0.0
  0
LINE
  5
A0
  8
0
 10
77.866652999999999
 20
46.161371999999993
 30
0.0
 11
75.866652999999985
 21
44.161372
 31
0.0
  0
LINE
  5
A1
  8
0
 10
75.866652999999985
 20
36.161372
 30
0.0
 11
77.866652999999999
 21
34.161372
 31
0.0
  0
LINE
  5
A2
  8
0
 10
77.866652999999999
 20
46.161371999999993
 30
0.0
 11
77.866652999999999
 21
34.161372
 31
0.0
  0
ARC
  5
A3
  8
2
 10
100.866653
 20
40.161372
 30
0.0
 40
3.0
 50
270.0
 51
90.0
  0
LINE
  5
A4
  8
0
 10
103.866653
 20
44.161372
 30
0.0
 11
103.866653
 21
36.161372
 31
0.0
  0
LINE
  5
A5
  8
0
 10
103.166653
 20
101.803534
 30
0.0
 11
103.166653
 21
103.103534
 31
0.0
  0
LINE
  5
206
  8
2
 10
80.866652999999985
 20
69.564568999999992
 30
0.0
 11
80.866652999999985
 21
74.183371149757804
 31
0.0
  0
LINE
  5
207
  8
2
 10
75.866652999999985
 20
69.564568999999992
 30
0.0
 11
80.866652999999985
 21
69.564568999999992
 31
0.0
  0
LINE
  5
208
  8
2
 10
75.866652999999985
 20
70.719269537440184
 30
0.0
 11
80.866652999999985
 21
70.719269537440184
 31
0.0
  0
LINE
  5
209
  8
2
 10
75.866652999999985
 20
73.028670612317541
 30
0.0
 11
80.866652999999985
 21
73.028670612317555
 31
0.0
  0
LINE
  5
20A
  8
2
 10
75.866652999999985
 20
74.183371149757804
 30
0.0
 11
80.866652999999985
 21
74.183371149757804
 31
0.0
  0
LINE
  5
210
  8
2
 10
80.866652999999985
 20
100.453534
 30
0.0
 11
80.866652999999985
 21
104.453534
 31
0.0
  0
LINE
  5
211
  8
2
 10
75.866652999999985
 20
100.453534
 30
0.0
 11
80.866652999999985
 21
100.453534
 31
0.0
  0
LINE
  5
213
  8
2
 10
75.866652999999985
 20
102.453534
 30
0.0
 11
80.866652999999985
 21
102.453534
 31
0.0
  0
LINE
  5
214
  8
2
 10
75.866652999999985
 20
104.453534
 30
0.0
 11
80.866652999999985
 21
104.453534
 31
0.0
  0
LINE
  5
26F
  8
2
 10
80.866652999999985
 20
38.161372
 30
0.0
 11
80.866652999999985
 21
42.161372
 31
0.0
  0
LINE
  5
270
  8
2
 10
75.866652999999985
 20
38.161372
 30
0.0
 11
80.866652999999985
 21
38.161372
 31
0.0
  0
LINE
  5
271
  8
2
 10
75.866652999999985
 20
40.161372
 30
0.0
 11
80.866652999999985
 21
40.161372000000007
 31
0.0
  0
LINE
  5
272
  8
2
 10
75.866652999999985
 20
42.161372
 30
0.0
 11
80.866652999999985
 21
42.161372
 31
0.0
  0
TEXT
  5
2D2
  8
0
 62
     3
 10
0.0
 20
0.0
 30
0.0
 40
5.0
  1
LPLNL12
  7
STANDARD1
  0
ENDSEC
  0
EOF
