  0
SECTION
  2
HEADER
  9
$ACADVER
  1
AC1009
  9
$INSBASE
 10
0.0
 20
0.0
 30
0.0
  9
$EXTMIN
 10
0.0
 20
-2.960436562073669
 30
0.0
  9
$EXTMAX
 10
152.97988100431411
 20
137.81300500070529
 30
0.0
  9
$LIMMIN
 10
0.0
 20
0.0
  9
$LIMMAX
 10
375.0
 20
270.0
  9
$ORTHOMODE
 70
     1
  9
$REGENMODE
 70
     1
  9
$FILLMODE
 70
     1
  9
$QTEXTMODE
 70
     0
  9
$MIRRTEXT
 70
     0
  9
$DRAGMODE
 70
     2
  9
$LTSCALE
 40
10.0
  9
$OSMODE
 70
  3071
  9
$ATTMODE
 70
     1
  9
$TEXTSIZE
 40
0.2
  9
$TRACEWID
 40
0.05
  9
$TEXTSTYLE
  7
STANDARD
  9
$CLAYER
  8
0
  9
$CELTYPE
  6
BYLAYER
  9
$CECOLOR
 62
   256
  9
$DIMSCALE
 40
1.0
  9
$DIMASZ
 40
3.0
  9
$DIMEXO
 40
2.0
  9
$DIMDLI
 40
10.0
  9
$DIMRND
 40
0.0
  9
$DIMDLE
 40
0.0
  9
$DIMEXE
 40
2.0
  9
$DIMTP
 40
0.0
  9
$DIMTM
 40
0.0
  9
$DIMTXT
 40
3.2000000000000002
  9
$DIMCEN
 40
0.09
  9
$DIMTSZ
 40
0.0
  9
$DIMTOL
 70
     0
  9
$DIMLIM
 70
     0
  9
$DIMTIH
 70
     0
  9
$DIMTOH
 70
     0
  9
$DIMSE1
 70
     0
  9
$DIMSE2
 70
     0
  9
$DIMTAD
 70
     1
  9
$DIMZIN
 70
     8
  9
$DIMBLK
  1

  9
$DIMASO
 70
     0
  9
$DIMSHO
 70
     0
  9
$DIMPOST
  1

  9
$DIMAPOST
  1

  9
$DIMALT
 70
     0
  9
$DIMALTD
 70
     2
  9
$DIMALTF
 40
25.399999999999999
  9
$DIMLFAC
 40
1.0
  9
$DIMTOFL
 70
     1
  9
$DIMTVP
 40
1.6000000000000001
  9
$DIMTIX
 70
     0
  9
$DIMSOXD
 70
     0
  9
$DIMSAH
 70
     0
  9
$DIMBLK1
  1

  9
$DIMBLK2
  1

  9
$DIMSTYLE
  2
STANDARD
  9
$DIMCLRD
 70
   256
  9
$DIMCLRE
 70
     0
  9
$DIMCLRT
 70
     0
  9
$DIMTFAC
 40
1.0
  9
$DIMGAP
 40
0.09
  9
$LUNITS
 70
     2
  9
$LUPREC
 70
     4
  9
$SKETCHINC
 40
0.1
  9
$FILLETRAD
 40
0.0
  9
$AUNITS
 70
     0
  9
$AUPREC
 70
     0
  9
$MENU
  1
E:\r13\win\SUPPORT\ACAD
  9
$ELEVATION
 40
0.0
  9
$PELEVATION
 40
0.0
  9
$THICKNESS
 40
0.0
  9
$LIMCHECK
 70
     0
  9
$BLIPMODE
 70
     0
  9
$CHAMFERA
 40
0.0
  9
$CHAMFERB
 40
0.0
  9
$SKPOLY
 70
     0
  9
$TDCREATE
 40
2449840.6171180559
  9
$TDUPDATE
 40
2456597.5787831019
  9
$TDINDWG
 40
0.1514518634
  9
$TDUSRTIMER
 40
0.1514518634
  9
$USRTIMER
 70
     1
  9
$ANGBASE
 50
0.0
  9
$ANGDIR
 70
     0
  9
$PDMODE
 70
     0
  9
$PDSIZE
 40
0.0
  9
$PLINEWID
 40
0.0
  9
$COORDS
 70
     1
  9
$SPLFRAME
 70
     0
  9
$SPLINETYPE
 70
     6
  9
$SPLINESEGS
 70
     8
  9
$ATTDIA
 70
     0
  9
$ATTREQ
 70
     1
  9
$HANDLING
 70
     1
  9
$HANDSEED
  5
2F0D
  9
$SURFTAB1
 70
     6
  9
$SURFTAB2
 70
     6
  9
$SURFTYPE
 70
     6
  9
$SURFU
 70
     6
  9
$SURFV
 70
     6
  9
$UCSNAME
  2

  9
$UCSORG
 10
0.0
 20
0.0
 30
0.0
  9
$UCSXDIR
 10
1.0
 20
0.0
 30
0.0
  9
$UCSYDIR
 10
0.0
 20
1.0
 30
0.0
  9
$PUCSNAME
  2

  9
$PUCSORG
 10
0.0
 20
0.0
 30
0.0
  9
$PUCSXDIR
 10
1.0
 20
0.0
 30
0.0
  9
$PUCSYDIR
 10
0.0
 20
1.0
 30
0.0
  9
$USERI1
 70
     0
  9
$USERI2
 70
     1
  9
$USERI3
 70
     0
  9
$USERI4
 70
     0
  9
$USERI5
 70
     0
  9
$USERR1
 40
0.0
  9
$USERR2
 40
0.0
  9
$USERR3
 40
0.0
  9
$USERR4
 40
0.0
  9
$USERR5
 40
0.0
  9
$WORLDVIEW
 70
     1
  9
$SHADEDGE
 70
     3
  9
$SHADEDIF
 70
    70
  9
$TILEMODE
 70
     1
  9
$MAXACTVP
 70
    16
  9
$PLIMCHECK
 70
     0
  9
$PEXTMIN
 10
1.0000000000000000E+020
 20
1.0000000000000000E+020
 30
1.0000000000000000E+020
  9
$PEXTMAX
 10
-1.0000000000000000E+020
 20
-1.0000000000000000E+020
 30
-1.0000000000000000E+020
  9
$PLIMMIN
 10
0.0
 20
0.0
  9
$PLIMMAX
 10
12.0
 20
9.0
  9
$UNITMODE
 70
     0
  9
$VISRETAIN
 70
     0
  9
$PLINEGEN
 70
     0
  9
$PSLTSCALE
 70
     0
  0
ENDSEC
  0
SECTION
  2
TABLES
  0
TABLE
  2
VPORT
 70
     1
  0
VPORT
  2
*ACTIVE
 70
     0
 10
0.0
 20
0.0
 11
1.0
 21
1.0
 12
187.49427839065231
 22
162.8616388594717
 13
0.0
 23
0.0
 14
10.0
 24
10.0
 15
10.0
 25
10.0
 16
0.0
 26
0.0
 36
1.0
 17
0.0
 27
0.0
 37
0.0
 40
334.81001162774987
 41
1.9089595375722539
 42
50.0
 43
0.0
 44
0.0
 50
0.0
 51
0.0
 71
     0
 72
   100
 73
     1
 74
     0
 75
     0
 76
     0
 77
     0
 78
     0
  0
ENDTAB
  0
TABLE
  2
LTYPE
 70
     4
  0
LTYPE
  2
CONTINUOUS
 70
     0
  3
Solid Line
 72
    65
 73
     0
 40
0.0
  0
LTYPE
  2
CENTER
 70
     0
  3
____ _ ____ _ ____ _ ____ _ ____ _ ____ _ ____
 72
    65
 73
     4
 40
2.0
 49
1.25
 49
-0.25
 49
0.25
 49
-0.25
  0
LTYPE
  2
HIDDEN
 70
     0
  3
_ _ _ _ _ _ _ _ _ _ _ _ _ _ _ _ _ _ _ _ _ _ _
 72
    65
 73
     2
 40
0.375
 49
0.25
 49
-0.125
  0
LTYPE
  2
PHANTOM2
 70
     0
  3
___ _ _ ___ _ _ ___ _ _ ___ _ _
 72
    65
 73
     6
 40
1.25
 49
0.625
 49
-0.125
 49
0.125
 49
-0.125
 49
0.125
 49
-0.125
  0
ENDTAB
  0
TABLE
  2
LAYER
 70
     3
  0
LAYER
  2
0
 70
     0
 62
     7
  6
CONTINUOUS
  0
LAYER
  2
1
 70
     0
 62
     1
  6
CENTER
  0
LAYER
  2
2
 70
     0
 62
     2
  6
HIDDEN
  0
ENDTAB
  0
TABLE
  2
STYLE
 70
     2
  0
STYLE
  2
STANDARD
 70
     0
 40
0.0
 41
1.0
 50
0.0
 71
     0
 42
0.2
  3
TXT
  4
BIGFONT
  0
STYLE
  2
STANDARD1
 70
     0
 40
0.0
 41
1.0
 50
0.0
 71
     0
 42
3.0
  3
txt
  4

  0
ENDTAB
  0
TABLE
  2
VIEW
 70
     1
  0
VIEW
  2
ALL
 70
     0
 40
270.0
 10
220.99159700000001
 20
135.0
 41
0.0
 11
0.0
 21
0.0
 31
1.0
 12
0.0
 22
0.0
 32
0.0
 42
0.0
 43
0.0
 44
0.0
 50
0.0
 71
     0
  0
ENDTAB
  0
TABLE
  2
UCS
 70
     0
  0
ENDTAB
  0
TABLE
  2
APPID
 70
     3
  0
APPID
  2
ACAD
 70
     0
  0
APPID
  2
ACAD_MLEADERVER
 70
     0
  0
APPID
  2
ACAD_NAV_VCDISPLAY
 70
     0
  0
ENDTAB
  0
TABLE
  2
DIMSTYLE
 70
     1
  0
DIMSTYLE
  2
STANDARD
 70
     0
  3

  4

  5

  6

  7

 40
1.0
 41
0.18
 42
0.0625
 43
0.38
 44
0.18
 45
0.0
 46
0.0
 47
0.0
 48
0.0
140
0.18
141
0.09
142
0.0
143
25.399999999999999
144
1.0
145
0.0
146
1.0
147
0.09
 71
     0
 72
     0
 73
     1
 74
     1
 75
     0
 76
     0
 77
     0
 78
     0
170
     0
171
     2
172
     0
173
     0
174
     0
175
     0
176
     0
177
     0
178
     0
  0
ENDTAB
  0
ENDSEC
  0
SECTION
  2
BLOCKS
  0
BLOCK
  8
0
  2
$MODEL_SPACE
 70
     0
 10
0.0
 20
0.0
 30
0.0
  3
$MODEL_SPACE
  1

  0
ENDBLK
  5
E8
  8
0
  0
BLOCK
 67
     1
  8
0
  2
$PAPER_SPACE
 70
     0
 10
0.0
 20
0.0
 30
0.0
  3
$PAPER_SPACE
  1

  0
ENDBLK
  5
E6
 67
     1
  8
0
  0
ENDSEC
  0
SECTION
  2
ENTITIES
  0
LINE
  5
2A75
  8
0
 10
86.723773977151978
 20
115.9236052937901
 30
0.0
 11
72.264757583709326
 21
113.272785621659
 31
0.0
  0
ARC
  5
2A7B
  8
0
 10
85.410987091906094
 20
123.084261031495
 30
0.0
 40
7.2799999999999612
 50
280.38885781546958
 51
313.5902439463494
  0
ARC
  5
2A7D
  8
0
 10
64.690987091905953
 20
154.58426103149441
 30
0.0
 40
41.999999999999368
 50
259.61114218453042
 51
280.38885781546958
  0
LINE
  5
2A7F
  8
0
 10
57.1172166001028
 20
113.272785621659
 30
0.0
 11
42.658200206660183
 21
115.9236052937901
 31
0.0
  0
LINE
  5
2A94
  8
1
 10
64.690987091906095
 20
108.3555170622848
 30
0.0
 11
64.690987091906095
 21
137.81300500070529
 31
0.0
  0
LINE
  5
2A95
  8
1
 10
98.304926844169358
 20
123.0842610314951
 30
0.0
 11
31.077047339642832
 21
123.0842610314951
 31
0.0
  0
LINE
  5
2AD6
  8
1
 10
142.47988100431411
 20
35.544144443328634
 30
0.0
 11
142.47988100431411
 21
73.303465401631485
 31
0.0
  0
LINE
  5
2AEE
  8
0
 10
152.97988100431411
 20
45.455948435430507
 30
0.0
 11
131.97988100431419
 21
45.455948435430507
 31
0.0
  0
ARC
  5
2B1C
  8
0
 10
85.410987091906094
 20
123.0842610314951
 30
0.0
 40
7.2800000000000109
 50
313.59024394634952
 51
46.409756053650462
  0
ARC
  5
2B1D
  8
0
 10
85.410987091906094
 20
123.0842610314951
 30
0.0
 40
7.2799999999999612
 50
46.40975605365059
 51
79.611142184530365
  0
LINE
  5
2B1E
  8
0
 10
86.723773977151978
 20
130.24491676919999
 30
0.0
 11
72.264757583709326
 21
132.89573644133111
 31
0.0
  0
LINE
  5
2B1F
  8
0
 10
57.1172166001028
 20
132.89573644133111
 30
0.0
 11
42.658200206660183
 21
130.24491676919999
 31
0.0
  0
ARC
  5
2B20
  8
0
 10
64.690987091905953
 20
91.584261031495714
 30
0.0
 40
41.999999999999368
 50
79.611142184530365
 51
100.38885781546961
  0
ARC
  5
2B21
  8
0
 10
43.970987091906117
 20
123.0842610314951
 30
0.0
 40
7.2799999999999612
 50
100.38885781546961
 51
133.5902439463494
  0
ARC
  5
2B22
  8
0
 10
43.970987091906117
 20
123.0842610314951
 30
0.0
 40
7.2800000000000109
 50
133.59024394634949
 51
226.40975605365051
  0
ARC
  5
2B23
  8
0
 10
43.970987091906117
 20
123.084261031495
 30
0.0
 40
7.2799999999999612
 50
226.4097560536506
 51
259.61114218453042
  0
LINE
  5
2B3D
  8
0
 10
56.998679399598387
 20
45.455948435430507
 30
0.0
 11
56.998679399598387
 21
45.055948435430501
 31
0.0
  0
LINE
  5
2B3E
  8
0
 10
72.383294784213746
 20
45.055948435430501
 30
0.0
 11
72.383294784213746
 21
45.455948435430507
 31
0.0
  0
LINE
  5
2B47
  8
1
 10
64.690987091906067
 20
35.544144443328634
 30
0.0
 11
64.690987091906095
 21
73.303465401631485
 31
0.0
  0
ARC
  5
2B48
  8
0
 10
64.690987091906095
 20
12.05594843543051
 30
0.0
 40
56.0
 50
64.291903819036193
 51
115.70809618096381
  0
ARC
  5
2B4E
  8
0
 10
42.830996163052873
 20
57.465248608663977
 30
0.0
 40
5.6029394178203491
 50
115.725903673031
 51
176.98219250793761
  0
LINE
  5
2B4F
  8
0
 10
36.690987091906102
 20
45.455948435430507
 30
0.0
 11
92.690987091905995
 21
45.455948435430507
 31
0.0
  0
LINE
  5
2B58
  8
0
 10
37.235826786528442
 20
57.760222790192302
 30
0.0
 11
36.690987091906102
 21
45.455948435430507
 31
0.0
  0
LINE
  5
2B59
  8
0
 10
92.146147397283684
 20
57.76022279019223
 30
0.0
 11
92.690987091905995
 21
45.45594843543045
 31
0.0
  0
ARC
  5
2B5A
  8
0
 10
86.550978020759274
 20
57.465248608663927
 30
0.0
 40
5.6029394178203491
 50
3.01780749206219
 51
64.274096326968845
  0
LINE
  5
2CA8
  8
2
 10
79.357653758572724
 20
60.389281768763823
 30
0.0
 11
79.357653758572724
 21
45.455948435430507
 31
0.0
  0
LINE
  5
2CA9
  8
2
 10
87.357653758572724
 20
45.455948435430507
 30
0.0
 11
87.357653758572738
 21
60.389281768763823
 31
0.0
  0
LINE
  5
2CAA
  8
2
 10
87.357653758572724
 20
60.389281768763823
 30
0.0
 11
79.357653758572724
 21
60.389281768763837
 31
0.0
  0
LINE
  5
2CAC
  8
2
 10
42.024320425239402
 20
45.455948435430507
 30
0.0
 11
42.024320425239402
 21
60.389281768763823
 31
0.0
  0
LINE
  5
2CAD
  8
2
 10
50.024320425239409
 20
60.389281768763823
 30
0.0
 11
50.024320425239409
 21
45.455948435430507
 31
0.0
  0
LINE
  5
2CAE
  8
2
 10
42.024320425239402
 20
60.389281768763823
 30
0.0
 11
50.024320425239409
 21
60.389281768763837
 31
0.0
  0
LINE
  5
2CAF
  8
2
 10
60.50298709190605
 20
45.86794843543052
 30
0.0
 11
59.690987091906067
 21
45.055948435430501
 31
0.0
  0
LINE
  5
2CB0
  8
2
 10
69.690987091906067
 20
45.055948435430501
 30
0.0
 11
68.878987091906055
 21
45.86794843543052
 31
0.0
  0
LINE
  5
2CB1
  8
2
 10
60.50298709190605
 20
61.35594843543052
 30
0.0
 11
60.50298709190605
 21
45.86794843543052
 31
0.0
  0
LINE
  5
2CB2
  8
2
 10
68.878987091906055
 20
45.86794843543052
 30
0.0
 11
68.878987091906083
 21
61.35594843543052
 31
0.0
  0
LINE
  5
2CB3
  8
2
 10
64.690987091906067
 20
63.773891362796661
 30
0.0
 11
60.50298709190605
 21
61.35594843543052
 31
0.0
  0
LINE
  5
2CB4
  8
2
 10
68.878987091906055
 20
61.35594843543052
 30
0.0
 11
64.690987091906067
 21
63.773891362796661
 31
0.0
  0
LINE
  5
2CB5
  8
2
 10
60.50298709190605
 20
45.86794843543052
 30
0.0
 11
68.878987091906055
 21
45.86794843543052
 31
0.0
  0
LINE
  5
2CB6
  8
2
 10
60.50298709190605
 20
61.35594843543052
 30
0.0
 11
68.878987091906083
 21
61.35594843543052
 31
0.0
  0
LINE
  5
2CB7
  8
2
 10
59.690987091906067
 20
45.055948435430501
 30
0.0
 11
59.690987091906067
 21
58.055948435430508
 31
0.0
  0
LINE
  5
2CB8
  8
2
 10
60.50298709190605
 20
59.35594843543052
 30
0.0
 11
59.690987091906067
 21
58.055948435430508
 31
0.0
  0
LINE
  5
2CB9
  8
2
 10
59.690987091906067
 20
58.055948435430508
 30
0.0
 11
69.690987091906067
 21
58.055948435430508
 31
0.0
  0
LINE
  5
2CBA
  8
2
 10
69.690987091906067
 20
45.055948435430501
 30
0.0
 11
69.690987091906067
 21
58.055948435430508
 31
0.0
  0
LINE
  5
2CBB
  8
2
 10
68.878987091906083
 20
59.35594843543052
 30
0.0
 11
69.690987091906067
 21
58.055948435430508
 31
0.0
  0
LINE
  5
2CBC
  8
2
 10
72.383294784213746
 20
45.455948435430507
 30
0.0
 11
72.383294784213746
 21
65.055948435430494
 31
0.0
  0
LINE
  5
2CBD
  8
2
 10
72.383294784213746
 20
65.055948435430494
 30
0.0
 11
56.998679399598409
 21
65.055948435430494
 31
0.0
  0
LINE
  5
2CBE
  8
2
 10
56.998679399598579
 20
45.45594843543045
 30
0.0
 11
56.998679399598409
 21
65.055948435430452
 31
0.0
  0
LINE
  5
2DB0
  8
0
 10
56.998679399598387
 20
45.055948435430501
 30
0.0
 11
72.383294784213746
 21
45.055948435430501
 31
0.0
  0
LINE
  5
2DB4
  8
0
 10
134.78757331200649
 20
45.055948435430501
 30
0.0
 11
150.17218869662179
 21
45.055948435430501
 31
0.0
  0
LINE
  5
2DB5
  8
2
 10
134.78757331200671
 20
45.45594843543045
 30
0.0
 11
134.78757331200649
 21
65.055948435430452
 31
0.0
  0
LINE
  5
2DB6
  8
2
 10
150.17218869662179
 20
65.055948435430494
 30
0.0
 11
134.78757331200649
 21
65.055948435430494
 31
0.0
  0
LINE
  5
2DB7
  8
2
 10
150.17218869662179
 20
45.455948435430507
 30
0.0
 11
150.17218869662179
 21
65.055948435430494
 31
0.0
  0
LINE
  5
2DB8
  8
2
 10
146.66788100431421
 20
59.35594843543052
 30
0.0
 11
147.47988100431419
 21
58.055948435430508
 31
0.0
  0
LINE
  5
2DB9
  8
2
 10
147.47988100431419
 20
45.055948435430501
 30
0.0
 11
147.47988100431419
 21
58.055948435430508
 31
0.0
  0
LINE
  5
2DBA
  8
2
 10
137.47988100431419
 20
58.055948435430508
 30
0.0
 11
147.47988100431419
 21
58.055948435430508
 31
0.0
  0
LINE
  5
2DBB
  8
2
 10
138.29188100431409
 20
59.35594843543052
 30
0.0
 11
137.47988100431419
 21
58.055948435430508
 31
0.0
  0
LINE
  5
2DBC
  8
2
 10
137.47988100431419
 20
45.055948435430501
 30
0.0
 11
137.47988100431419
 21
58.055948435430508
 31
0.0
  0
LINE
  5
2DBD
  8
2
 10
138.29188100431409
 20
61.35594843543052
 30
0.0
 11
146.66788100431421
 21
61.35594843543052
 31
0.0
  0
LINE
  5
2DBE
  8
2
 10
138.29188100431409
 20
45.86794843543052
 30
0.0
 11
146.66788100431421
 21
45.86794843543052
 31
0.0
  0
LINE
  5
2DBF
  8
2
 10
146.66788100431421
 20
61.35594843543052
 30
0.0
 11
142.47988100431419
 21
63.773891362796661
 31
0.0
  0
LINE
  5
2DC0
  8
2
 10
142.47988100431419
 20
63.773891362796661
 30
0.0
 11
138.29188100431409
 21
61.35594843543052
 31
0.0
  0
LINE
  5
2DC1
  8
2
 10
146.66788100431421
 20
45.86794843543052
 30
0.0
 11
146.66788100431421
 21
61.35594843543052
 31
0.0
  0
LINE
  5
2DC2
  8
2
 10
138.29188100431409
 20
61.35594843543052
 30
0.0
 11
138.29188100431409
 21
45.86794843543052
 31
0.0
  0
LINE
  5
2DC3
  8
2
 10
147.47988100431419
 20
45.055948435430501
 30
0.0
 11
146.66788100431421
 21
45.86794843543052
 31
0.0
  0
LINE
  5
2DC4
  8
2
 10
138.29188100431409
 20
45.86794843543052
 30
0.0
 11
137.47988100431419
 21
45.055948435430501
 31
0.0
  0
LINE
  5
2DC5
  8
0
 10
150.17218869662179
 20
45.055948435430501
 30
0.0
 11
150.17218869662179
 21
45.455948435430507
 31
0.0
  0
LINE
  5
2DC6
  8
0
 10
134.78757331200649
 20
45.455948435430507
 30
0.0
 11
134.78757331200649
 21
45.055948435430501
 31
0.0
  0
LINE
  5
2DC7
  8
0
 10
149.97566194541309
 20
68.055948480133992
 30
0.0
 11
134.98410006321521
 21
68.055948480133992
 31
0.0
  0
ARC
  5
2DC8
  8
0
 10
134.9798810176878
 20
65.055948425589563
 30
0.0
 40
3.0000000000000049
 50
89.921608979699485
 51
180.07707684705821
  0
LINE
  5
2DC9
  8
0
 10
131.9798811458752
 20
65.052094175581914
 30
0.0
 11
131.9798811458752
 21
45.455948425325651
 31
0.0
  0
ARC
  5
2DCA
  8
0
 10
149.97988099094059
 20
65.055948425589577
 30
0.0
 40
2.9999999999999929
 50
0.0015896856653508
 51
90.078367730093547
  0
LINE
  5
2DCB
  8
0
 10
152.97988086275311
 20
45.455948425325651
 30
0.0
 11
152.97988086275311
 21
65.055718883042303
 31
0.0
  0
TEXT
  5
2E7C
  8
0
 62
     3
 10
0.0
 20
0.0
 30
0.0
 40
10.0
  1
LK10A
  7
STANDARD1
  0
ENDSEC
  0
EOF
