  0
SECTION
  2
HEADER
  9
$ACADVER
  1
AC1009
  9
$INSBASE
 10
0.0
 20
0.0
 30
0.0
  9
$EXTMIN
 10
0.0
 20
-1.4802182810368341
 30
0.0
  9
$EXTMAX
 10
61.519466000000001
 20
47.839680999999999
 30
0.0
  9
$LIMMIN
 10
0.0
 20
0.0
  9
$LIMMAX
 10
75.0
 20
54.0
  9
$ORTHOMODE
 70
     0
  9
$REGENMODE
 70
     1
  9
$FILLMODE
 70
     1
  9
$QTEXTMODE
 70
     0
  9
$MIRRTEXT
 70
     0
  9
$DRAGMODE
 70
     2
  9
$LTSCALE
 40
2.0
  9
$OSMODE
 70
  3071
  9
$ATTMODE
 70
     1
  9
$TEXTSIZE
 40
0.8
  9
$TRACEWID
 40
0.05
  9
$TEXTSTYLE
  7
STANDARD
  9
$CLAYER
  8
0
  9
$CELTYPE
  6
BYLAYER
  9
$CECOLOR
 62
   256
  9
$DIMSCALE
 40
0.2
  9
$DIMASZ
 40
3.0
  9
$DIMEXO
 40
2.0
  9
$DIMDLI
 40
10.0
  9
$DIMRND
 40
0.0
  9
$DIMDLE
 40
0.0
  9
$DIMEXE
 40
2.0
  9
$DIMTP
 40
0.0
  9
$DIMTM
 40
0.0
  9
$DIMTXT
 40
3.0
  9
$DIMCEN
 40
0.09
  9
$DIMTSZ
 40
0.0
  9
$DIMTOL
 70
     0
  9
$DIMLIM
 70
     0
  9
$DIMTIH
 70
     0
  9
$DIMTOH
 70
     0
  9
$DIMSE1
 70
     0
  9
$DIMSE2
 70
     0
  9
$DIMTAD
 70
     1
  9
$DIMZIN
 70
     0
  9
$DIMBLK
  1

  9
$DIMASO
 70
     0
  9
$DIMSHO
 70
     0
  9
$DIMPOST
  1

  9
$DIMAPOST
  1

  9
$DIMALT
 70
     0
  9
$DIMALTD
 70
     2
  9
$DIMALTF
 40
25.399999999999999
  9
$DIMLFAC
 40
1.0
  9
$DIMTOFL
 70
     1
  9
$DIMTVP
 40
1.6000000000000001
  9
$DIMTIX
 70
     0
  9
$DIMSOXD
 70
     0
  9
$DIMSAH
 70
     0
  9
$DIMBLK1
  1

  9
$DIMBLK2
  1

  9
$DIMSTYLE
  2
STANDARD
  9
$DIMCLRD
 70
     0
  9
$DIMCLRE
 70
     0
  9
$DIMCLRT
 70
     0
  9
$DIMTFAC
 40
1.0
  9
$DIMGAP
 40
0.09
  9
$LUNITS
 70
     2
  9
$LUPREC
 70
     4
  9
$SKETCHINC
 40
0.1
  9
$FILLETRAD
 40
0.3
  9
$AUNITS
 70
     0
  9
$AUPREC
 70
     0
  9
$MENU
  1
E:\r13\win\SUPPORT\ACAD
  9
$ELEVATION
 40
0.0
  9
$PELEVATION
 40
0.0
  9
$THICKNESS
 40
0.0
  9
$LIMCHECK
 70
     0
  9
$BLIPMODE
 70
     0
  9
$CHAMFERA
 40
0.0
  9
$CHAMFERB
 40
0.0
  9
$SKPOLY
 70
     0
  9
$TDCREATE
 40
2449840.619027778
  9
$TDUPDATE
 40
2456597.5718692238
  9
$TDINDWG
 40
0.012705081
  9
$TDUSRTIMER
 40
0.012705081
  9
$USRTIMER
 70
     1
  9
$ANGBASE
 50
0.0
  9
$ANGDIR
 70
     0
  9
$PDMODE
 70
     0
  9
$PDSIZE
 40
0.0
  9
$PLINEWID
 40
0.0
  9
$COORDS
 70
     1
  9
$SPLFRAME
 70
     0
  9
$SPLINETYPE
 70
     6
  9
$SPLINESEGS
 70
     8
  9
$ATTDIA
 70
     0
  9
$ATTREQ
 70
     1
  9
$HANDLING
 70
     1
  9
$HANDSEED
  5
270
  9
$SURFTAB1
 70
     6
  9
$SURFTAB2
 70
     6
  9
$SURFTYPE
 70
     6
  9
$SURFU
 70
     6
  9
$SURFV
 70
     6
  9
$UCSNAME
  2

  9
$UCSORG
 10
0.0
 20
0.0
 30
0.0
  9
$UCSXDIR
 10
1.0
 20
0.0
 30
0.0
  9
$UCSYDIR
 10
0.0
 20
1.0
 30
0.0
  9
$PUCSNAME
  2

  9
$PUCSORG
 10
0.0
 20
0.0
 30
0.0
  9
$PUCSXDIR
 10
1.0
 20
0.0
 30
0.0
  9
$PUCSYDIR
 10
0.0
 20
1.0
 30
0.0
  9
$USERI1
 70
     0
  9
$USERI2
 70
     1
  9
$USERI3
 70
     1
  9
$USERI4
 70
     0
  9
$USERI5
 70
     0
  9
$USERR1
 40
0.0
  9
$USERR2
 40
0.0
  9
$USERR3
 40
0.0
  9
$USERR4
 40
0.0
  9
$USERR5
 40
0.0
  9
$WORLDVIEW
 70
     1
  9
$SHADEDGE
 70
     3
  9
$SHADEDIF
 70
    70
  9
$TILEMODE
 70
     1
  9
$MAXACTVP
 70
    16
  9
$PLIMCHECK
 70
     0
  9
$PEXTMIN
 10
1.0000000000000000E+020
 20
1.0000000000000000E+020
 30
1.0000000000000000E+020
  9
$PEXTMAX
 10
-1.0000000000000000E+020
 20
-1.0000000000000000E+020
 30
-1.0000000000000000E+020
  9
$PLIMMIN
 10
0.0
 20
0.0
  9
$PLIMMAX
 10
12.0
 20
9.0
  9
$UNITMODE
 70
     0
  9
$VISRETAIN
 70
     0
  9
$PLINEGEN
 70
     0
  9
$PSLTSCALE
 70
     0
  0
ENDSEC
  0
SECTION
  2
TABLES
  0
TABLE
  2
VPORT
 70
     1
  0
VPORT
  2
*ACTIVE
 70
     0
 10
0.0
 20
0.0
 11
1.0
 21
1.0
 12
37.498855678130482
 22
32.224675447272617
 13
0.0
 23
0.0
 14
2.0
 24
2.0
 15
2.0
 25
2.0
 16
0.0
 26
0.0
 36
1.0
 17
0.0
 27
0.0
 37
0.0
 40
68.048424383997698
 41
1.9089595375722539
 42
50.0
 43
0.0
 44
0.0
 50
0.0
 51
0.0
 71
     0
 72
   100
 73
     1
 74
     0
 75
     0
 76
     0
 77
     0
 78
     1
  0
ENDTAB
  0
TABLE
  2
LTYPE
 70
     4
  0
LTYPE
  2
CONTINUOUS
 70
     0
  3
Solid Line
 72
    65
 73
     0
 40
0.0
  0
LTYPE
  2
CENTER
 70
     0
  3
____ _ ____ _ ____ _ ____ _ ____ _ ____ _ ____
 72
    65
 73
     4
 40
2.0
 49
1.25
 49
-0.25
 49
0.25
 49
-0.25
  0
LTYPE
  2
HIDDEN
 70
     0
  3
_ _ _ _ _ _ _ _ _ _ _ _ _ _ _ _ _ _ _ _ _ _ _
 72
    65
 73
     2
 40
0.375
 49
0.25
 49
-0.125
  0
LTYPE
  2
PHANTOM2
 70
     0
  3
___ _ _ ___ _ _ ___ _ _ ___ _ _
 72
    65
 73
     6
 40
1.25
 49
0.625
 49
-0.125
 49
0.125
 49
-0.125
 49
0.125
 49
-0.125
  0
ENDTAB
  0
TABLE
  2
LAYER
 70
     4
  0
LAYER
  2
0
 70
     0
 62
     7
  6
CONTINUOUS
  0
LAYER
  2
1
 70
     0
 62
     1
  6
CENTER
  0
LAYER
  2
2
 70
     0
 62
     2
  6
HIDDEN
  0
LAYER
  2
3
 70
     0
 62
     3
  6
CONTINUOUS
  0
ENDTAB
  0
TABLE
  2
STYLE
 70
     2
  0
STYLE
  2
STANDARD
 70
     0
 40
0.0
 41
1.0
 50
0.0
 71
     0
 42
0.8
  3
ROMANS
  4
BIGFONT
  0
STYLE
  2
STANDARD1
 70
     0
 40
0.0
 41
1.0
 50
0.0
 71
     0
 42
3.0
  3
txt
  4

  0
ENDTAB
  0
TABLE
  2
VIEW
 70
     1
  0
VIEW
  2
ALL
 70
     0
 40
54.0
 10
44.119884000000013
 20
27.0
 41
88.239768000000026
 11
0.0
 21
0.0
 31
1.0
 12
0.0
 22
0.0
 32
0.0
 42
0.0
 43
0.0
 44
0.0
 50
0.0
 71
     0
  0
ENDTAB
  0
TABLE
  2
UCS
 70
     0
  0
ENDTAB
  0
TABLE
  2
APPID
 70
     3
  0
APPID
  2
ACAD
 70
     0
  0
APPID
  2
ACAD_MLEADERVER
 70
     0
  0
APPID
  2
ACAD_NAV_VCDISPLAY
 70
     0
  0
ENDTAB
  0
TABLE
  2
DIMSTYLE
 70
     1
  0
DIMSTYLE
  2
STANDARD
 70
     0
  3

  4

  5

  6

  7

 40
1.0
 41
0.18
 42
0.0625
 43
0.38
 44
0.18
 45
0.0
 46
0.0
 47
0.0
 48
0.0
140
0.18
141
0.09
142
0.0
143
25.399999999999999
144
1.0
145
0.0
146
1.0
147
0.09
 71
     0
 72
     0
 73
     1
 74
     1
 75
     0
 76
     0
 77
     0
 78
     0
170
     0
171
     2
172
     0
173
     0
174
     0
175
     0
176
     0
177
     0
178
     0
  0
ENDTAB
  0
ENDSEC
  0
SECTION
  2
BLOCKS
  0
BLOCK
  8
0
  2
$MODEL_SPACE
 70
     0
 10
0.0
 20
0.0
 30
0.0
  3
$MODEL_SPACE
  1

  0
ENDBLK
  5
E7
  8
0
  0
BLOCK
 67
     1
  8
0
  2
$PAPER_SPACE
 70
     0
 10
0.0
 20
0.0
 30
0.0
  3
$PAPER_SPACE
  1

  0
ENDBLK
  5
E5
 67
     1
  8
0
  0
ENDSEC
  0
SECTION
  2
ENTITIES
  0
LINE
  5
39
  8
1
 10
35.637002000000003
 20
30.385369000000001
 30
0.0
 11
47.437002
 21
30.385369000000001
 31
0.0
  0
CIRCLE
  5
3A
  8
3
 10
58.519466000000001
 20
30.385369000000001
 30
0.0
 40
1.6209999999999991
  0
ARC
  5
3B
  8
0
 10
58.519466000000001
 20
30.385369000000001
 30
0.0
 40
2.0
 50
94.809567000000001
 51
85.190432999999985
  0
ARC
  5
3C
  8
0
 10
23.990787000000001
 20
30.385369000000001
 30
0.0
 40
2.0
 50
94.809567000000001
 51
85.190432999999985
  0
LINE
  5
3D
  8
3
 10
44.516002
 20
32.006368999999999
 30
0.0
 11
36.758002000000012
 21
32.006368999999999
 31
0.0
  0
LINE
  5
3E
  8
0
 10
44.137002000000003
 20
32.385368999999997
 30
0.0
 11
37.137002000000003
 21
32.385368999999997
 31
0.0
  0
LINE
  5
3F
  8
3
 10
44.516002
 20
28.764368999999999
 30
0.0
 11
36.758002000000012
 21
28.764368999999999
 31
0.0
  0
LINE
  5
40
  8
0
 10
44.137002000000003
 20
28.385369000000001
 30
0.0
 11
37.137002000000003
 21
28.385369000000001
 31
0.0
  0
LINE
  5
41
  8
0
 10
36.637002000000003
 20
31.885369000000001
 30
0.0
 11
36.637002000000003
 21
30.685369000000001
 31
0.0
  0
LINE
  5
42
  8
0
 10
45.637002000000003
 20
31.885369000000001
 30
0.0
 11
45.637002000000003
 21
28.885369000000001
 31
0.0
  0
LINE
  5
43
  8
0
 10
36.637002000000003
 20
30.685369000000001
 30
0.0
 11
37.773446
 21
30.685369000000001
 31
0.0
  0
LINE
  5
44
  8
0
 10
36.637002000000003
 20
30.085369
 30
0.0
 11
37.773446
 21
30.085369
 31
0.0
  0
LINE
  5
45
  8
2
 10
37.837002000000012
 20
30.685369000000001
 30
0.0
 11
37.837002000000012
 21
30.085369
 31
0.0
  0
LINE
  5
46
  8
0
 10
37.773446
 20
30.685369000000001
 30
0.0
 11
37.773446
 21
30.085369
 31
0.0
  0
ARC
  5
47
  8
0
 10
45.187002
 20
30.385369000000001
 30
0.0
 40
1.25
 50
291.10019599999998
 51
68.899804000000003
  0
LINE
  5
48
  8
0
 10
44.637002000000003
 20
31.885369000000001
 30
0.0
 11
45.637002000000003
 21
31.885369000000001
 31
0.0
  0
LINE
  5
49
  8
0
 10
44.637002000000003
 20
28.885369000000001
 30
0.0
 11
45.637002000000003
 21
28.885369000000001
 31
0.0
  0
LINE
  5
4A
  8
0
 10
36.637002000000003
 20
30.085369
 30
0.0
 11
36.637002000000003
 21
28.885369000000001
 31
0.0
  0
LINE
  5
4B
  8
0
 10
37.137002000000003
 20
32.385368999999997
 30
0.0
 11
36.637002000000003
 21
31.885369000000001
 31
0.0
  0
LINE
  5
4C
  8
0
 10
36.637002000000003
 20
28.885369000000001
 30
0.0
 11
37.137002000000003
 21
28.385369000000001
 31
0.0
  0
LINE
  5
4D
  8
0
 10
22.013414999999998
 20
30.685369000000001
 30
0.0
 11
25.968159
 21
30.685369000000001
 31
0.0
  0
LINE
  5
4E
  8
0
 10
22.013414999999998
 20
30.085369
 30
0.0
 11
25.968159
 21
30.085369
 31
0.0
  0
LINE
  5
4F
  8
0
 10
37.137002000000003
 20
32.385368999999997
 30
0.0
 11
37.137002000000003
 21
30.685369000000001
 31
0.0
  0
LINE
  5
50
  8
0
 10
37.137002000000003
 20
30.085369
 30
0.0
 11
37.137002000000003
 21
28.385369000000001
 31
0.0
  0
LINE
  5
51
  8
0
 10
44.637002000000003
 20
31.885369000000001
 30
0.0
 11
44.637002000000003
 21
28.885369000000001
 31
0.0
  0
LINE
  5
52
  8
0
 10
44.637002000000003
 20
31.885369000000001
 30
0.0
 11
44.137002000000003
 21
32.385368999999997
 31
0.0
  0
LINE
  5
53
  8
0
 10
44.637002000000003
 20
28.885369000000001
 30
0.0
 11
44.137002000000003
 21
28.385369000000001
 31
0.0
  0
LINE
  5
54
  8
0
 10
44.137002000000003
 20
32.385368999999997
 30
0.0
 11
44.137002000000003
 21
28.385369000000001
 31
0.0
  0
CIRCLE
  5
55
  8
0
 10
58.519466000000001
 20
30.385369000000001
 30
0.0
 40
1.25
  0
CIRCLE
  5
56
  8
0
 10
58.519466000000001
 20
30.385369000000001
 30
0.0
 40
1.5
  0
LINE
  5
57
  8
2
 10
37.773446
 20
30.685369000000001
 30
0.0
 11
37.837002000000012
 21
30.685369000000001
 31
0.0
  0
LINE
  5
58
  8
2
 10
37.773446
 20
30.085369
 30
0.0
 11
37.837002000000012
 21
30.085369
 31
0.0
  0
ARC
  5
59
  8
2
 10
44.387002000000003
 20
30.385369000000001
 30
0.0
 40
1.25
 50
291.10019599999998
 51
68.899804000000003
  0
LINE
  5
5A
  8
1
 10
26.990787000000001
 20
30.385369000000001
 30
0.0
 11
20.990787000000001
 21
30.385369000000001
 31
0.0
  0
LINE
  5
5B
  8
1
 10
23.990787000000001
 20
33.385368999999997
 30
0.0
 11
23.990787000000001
 21
27.385369000000001
 31
0.0
  0
LINE
  5
5C
  8
1
 10
61.519466000000001
 20
30.385369000000001
 30
0.0
 11
55.519465999999987
 21
30.385369000000001
 31
0.0
  0
LINE
  5
5D
  8
1
 10
58.519466000000001
 20
33.385368999999997
 30
0.0
 11
58.519466000000001
 21
27.385369000000001
 31
0.0
  0
LINE
  5
5E
  8
2
 10
44.337001999999998
 20
31.885369000000001
 30
0.0
 11
36.637002000000003
 21
31.885369000000001
 31
0.0
  0
LINE
  5
5F
  8
2
 10
44.337001999999998
 20
32.185369000000001
 30
0.0
 11
44.337001999999998
 21
31.885369000000001
 31
0.0
  0
LINE
  5
60
  8
0
 10
38.158002000000003
 20
32.385368999999997
 30
0.0
 11
38.158002000000003
 21
32.435369000000001
 31
0.0
  0
LINE
  5
61
  8
0
 10
38.158002000000003
 20
32.435369000000001
 30
0.0
 11
43.158002000000003
 21
32.435369000000001
 31
0.0
  0
LINE
  5
62
  8
0
 10
43.158002000000003
 20
32.435369000000001
 30
0.0
 11
43.158002000000003
 21
32.385368999999997
 31
0.0
  0
LINE
  5
63
  8
2
 10
38.158002000000003
 20
32.385368999999997
 30
0.0
 11
38.158002000000003
 21
31.885369000000001
 31
0.0
  0
LINE
  5
64
  8
2
 10
43.158002000000003
 20
32.385368999999997
 30
0.0
 11
43.158002000000003
 21
31.885369000000001
 31
0.0
  0
LINE
  5
65
  8
0
 10
24.265787
 20
31.885369000000001
 30
0.0
 11
23.715786999999999
 21
31.885369000000001
 31
0.0
  0
LINE
  5
66
  8
0
 10
23.715786999999999
 20
32.366373000000003
 30
0.0
 11
23.715786999999999
 21
31.885369000000001
 31
0.0
  0
LINE
  5
67
  8
0
 10
24.265787
 20
32.366373000000003
 30
0.0
 11
24.265787
 21
31.885369000000001
 31
0.0
  0
POLYLINE
  5
68
  8
0
 66
     1
 10
0.0
 20
0.0
 30
0.0
 70
     1
  0
VERTEX
  5
215
  8
0
 10
23.715786999999999
 20
32.16036900000001
 30
0.0
 42
0.098491
  0
VERTEX
  5
216
  8
0
 10
23.736719999999998
 20
32.05513100000001
 30
0.0
 42
0.098491
  0
VERTEX
  5
217
  8
0
 10
23.796333000000001
 20
31.965914999999999
 30
0.0
 42
0.098491
  0
VERTEX
  5
218
  8
0
 10
23.885549000000001
 20
31.906302
 30
0.0
 42
0.098491
  0
VERTEX
  5
219
  8
0
 10
23.990787000000001
 20
31.885369000000001
 30
0.0
 42
0.098491
  0
VERTEX
  5
21A
  8
0
 10
24.096025000000001
 20
31.906302
 30
0.0
 42
0.098491
  0
VERTEX
  5
21B
  8
0
 10
24.185241000000001
 20
31.965914999999999
 30
0.0
 42
0.098491
  0
VERTEX
  5
21C
  8
0
 10
24.244854
 20
32.05513100000001
 30
0.0
 42
0.098491
  0
VERTEX
  5
21D
  8
0
 10
24.265787
 20
32.16036900000001
 30
0.0
 42
0.098491
  0
VERTEX
  5
21E
  8
0
 10
24.244854
 20
32.265607000000003
 30
0.0
 42
0.098491
  0
VERTEX
  5
21F
  8
0
 10
24.185241000000001
 20
32.354823000000003
 30
0.0
 42
0.098491
  0
VERTEX
  5
220
  8
0
 10
24.096025000000001
 20
32.414436000000002
 30
0.0
 42
0.098491
  0
VERTEX
  5
221
  8
0
 10
23.990787000000001
 20
32.435369000000001
 30
0.0
 42
0.098491
  0
VERTEX
  5
222
  8
0
 10
23.885549000000001
 20
32.414436000000002
 30
0.0
 42
0.098491
  0
VERTEX
  5
223
  8
0
 10
23.796333000000001
 20
32.354823000000003
 30
0.0
 42
0.098491
  0
VERTEX
  5
224
  8
0
 10
23.736719999999998
 20
32.265607000000003
 30
0.0
 42
0.098491
  0
SEQEND
  5
225
  8
0
  0
LINE
  5
7A
  8
0
 10
58.794466
 20
32.366373000000003
 30
0.0
 11
58.794466
 21
32.185369000000001
 31
0.0
  0
LINE
  5
7B
  8
0
 10
58.244466000000003
 20
32.366373000000003
 30
0.0
 11
58.244466000000003
 21
32.185369000000001
 31
0.0
  0
LINE
  5
7C
  8
0
 10
58.244466000000003
 20
32.185369000000001
 30
0.0
 11
58.794466
 21
32.185369000000001
 31
0.0
  0
POLYLINE
  5
7D
  8
0
 66
     1
 10
0.0
 20
0.0
 30
0.0
  0
VERTEX
  5
226
  8
0
 10
58.793328000000002
 20
32.185369000000001
 30
0.0
 42
0.075559
  0
VERTEX
  5
227
  8
0
 10
58.773532999999993
 20
32.265607000000003
 30
0.0
 42
0.098491
  0
VERTEX
  5
228
  8
0
 10
58.713920999999999
 20
32.354823000000003
 30
0.0
 42
0.098491
  0
VERTEX
  5
229
  8
0
 10
58.624704000000001
 20
32.414436000000002
 30
0.0
 42
0.098491
  0
VERTEX
  5
22A
  8
0
 10
58.519466000000001
 20
32.435369000000001
 30
0.0
 42
0.098491
  0
VERTEX
  5
22B
  8
0
 10
58.414228000000001
 20
32.414436000000002
 30
0.0
 42
0.098491
  0
VERTEX
  5
22C
  8
0
 10
58.325012000000001
 20
32.354823000000003
 30
0.0
 42
0.098491
  0
VERTEX
  5
22D
  8
0
 10
58.265399000000002
 20
32.265607000000003
 30
0.0
 42
0.075559
  0
VERTEX
  5
22E
  8
0
 10
58.245604999999998
 20
32.185369000000001
 30
0.0
 42
0.098491
  0
SEQEND
  5
22F
  8
0
  0
LINE
  5
88
  8
0
 10
43.158002000000003
 20
46.11468099999999
 30
0.0
 11
43.158002000000003
 21
45.564681
 31
0.0
  0
LINE
  5
89
  8
0
 10
38.158002000000003
 20
45.564681
 30
0.0
 11
38.158002000000003
 21
46.11468099999999
 31
0.0
  0
LINE
  5
8A
  8
0
 10
44.337001999999998
 20
46.11468099999999
 30
0.0
 11
44.337001999999998
 21
45.564681
 31
0.0
  0
LINE
  5
8B
  8
0
 10
44.337001999999998
 20
45.564681
 30
0.0
 11
36.637002000000003
 21
45.564681
 31
0.0
  0
ARC
  5
8C
  8
2
 10
44.387002000000003
 20
45.839680999999992
 30
0.0
 40
1.25
 50
291.10019599999998
 51
68.899804000000003
  0
LINE
  5
8D
  8
0
 10
44.137002000000003
 20
47.839680999999999
 30
0.0
 11
44.137002000000003
 21
46.11468099999999
 31
0.0
  0
LINE
  5
8E
  8
0
 10
44.637002000000003
 20
44.339680999999999
 30
0.0
 11
44.137002000000003
 21
43.839680999999992
 31
0.0
  0
LINE
  5
8F
  8
0
 10
44.637002000000003
 20
47.339680999999999
 30
0.0
 11
44.137002000000003
 21
47.839680999999999
 31
0.0
  0
LINE
  5
90
  8
0
 10
44.637002000000003
 20
47.339680999999999
 30
0.0
 11
44.637002000000003
 21
44.339680999999999
 31
0.0
  0
LINE
  5
91
  8
0
 10
37.137002000000003
 20
47.839680999999999
 30
0.0
 11
37.137002000000003
 21
46.11468099999999
 31
0.0
  0
LINE
  5
92
  8
0
 10
36.637002000000003
 20
44.339680999999999
 30
0.0
 11
37.137002000000003
 21
43.839680999999992
 31
0.0
  0
LINE
  5
93
  8
0
 10
37.137002000000003
 20
47.839680999999999
 30
0.0
 11
36.637002000000003
 21
47.339680999999999
 31
0.0
  0
LINE
  5
94
  8
0
 10
36.637002000000003
 20
47.339680999999999
 30
0.0
 11
36.637002000000003
 21
44.339680999999999
 31
0.0
  0
LINE
  5
95
  8
0
 10
44.637002000000003
 20
44.339680999999999
 30
0.0
 11
45.637002000000003
 21
44.339680999999999
 31
0.0
  0
LINE
  5
96
  8
0
 10
44.637002000000003
 20
47.339680999999999
 30
0.0
 11
45.637002000000003
 21
47.339680999999999
 31
0.0
  0
ARC
  5
97
  8
0
 10
45.187002
 20
45.839680999999992
 30
0.0
 40
1.25
 50
291.10019599999998
 51
68.899804000000003
  0
LINE
  5
98
  8
0
 10
45.637002000000003
 20
47.339680999999999
 30
0.0
 11
45.637002000000003
 21
44.339680999999999
 31
0.0
  0
LINE
  5
99
  8
0
 10
44.137002000000003
 20
43.839680999999992
 30
0.0
 11
37.137002000000003
 21
43.839680999999992
 31
0.0
  0
LINE
  5
9A
  8
3
 10
44.516002
 20
44.218680999999997
 30
0.0
 11
36.758002000000012
 21
44.218680999999997
 31
0.0
  0
LINE
  5
9B
  8
0
 10
44.137002000000003
 20
47.839680999999999
 30
0.0
 11
37.137002000000003
 21
47.839680999999999
 31
0.0
  0
LINE
  5
9C
  8
3
 10
44.516002
 20
47.460681000000001
 30
0.0
 11
36.758002000000012
 21
47.460681000000001
 31
0.0
  0
LINE
  5
9D
  8
1
 10
35.637002000000003
 20
45.839680999999992
 30
0.0
 11
47.437002
 21
45.839680999999992
 31
0.0
  0
CIRCLE
  5
9E
  8
3
 10
23.990787000000001
 20
30.385369000000001
 30
0.0
 40
1.6209999999999991
  0
LINE
  5
9F
  8
0
 10
44.337001999999998
 20
46.11468099999999
 30
0.0
 11
36.637002000000003
 21
46.11468099999999
 31
0.0
  0
LINE
  5
A0
  8
0
 10
44.137002000000003
 20
45.564681
 30
0.0
 11
44.137002000000003
 21
43.839680999999992
 31
0.0
  0
LINE
  5
A1
  8
0
 10
37.137002000000003
 20
45.564681
 30
0.0
 11
37.137002000000003
 21
43.839680999999992
 31
0.0
  0
LINE
  5
A2
  8
0
 10
37.137002000000003
 20
17.01345899999999
 30
0.0
 11
37.137002000000003
 21
13.013458999999999
 31
0.0
  0
LINE
  5
A3
  8
0
 10
44.137002000000003
 20
17.01345899999999
 30
0.0
 11
44.137002000000003
 21
13.013458999999999
 31
0.0
  0
LINE
  5
A4
  8
1
 10
35.637002000000003
 20
15.013458999999999
 30
0.0
 11
47.437002
 21
15.013458999999999
 31
0.0
  0
LINE
  5
A5
  8
3
 10
44.516002
 20
16.634459
 30
0.0
 11
36.758002000000012
 21
16.634459
 31
0.0
  0
LINE
  5
A6
  8
0
 10
44.137002000000003
 20
17.01345899999999
 30
0.0
 11
37.137002000000003
 21
17.01345899999999
 31
0.0
  0
LINE
  5
A7
  8
3
 10
44.516002
 20
13.392459000000001
 30
0.0
 11
36.758002000000012
 21
13.392459000000001
 31
0.0
  0
LINE
  5
A8
  8
0
 10
44.137002000000003
 20
13.013458999999999
 30
0.0
 11
37.137002000000003
 21
13.013458999999999
 31
0.0
  0
LINE
  5
A9
  8
0
 10
45.637002000000003
 20
16.513459000000001
 30
0.0
 11
45.637002000000003
 21
13.513458999999999
 31
0.0
  0
ARC
  5
AA
  8
0
 10
45.187002
 20
15.013458999999999
 30
0.0
 40
1.25
 50
291.10019599999998
 51
68.899804000000003
  0
LINE
  5
AB
  8
0
 10
44.637002000000003
 20
16.513459000000001
 30
0.0
 11
45.637002000000003
 21
16.513459000000001
 31
0.0
  0
LINE
  5
AC
  8
0
 10
44.637002000000003
 20
13.513458999999999
 30
0.0
 11
45.637002000000003
 21
13.513458999999999
 31
0.0
  0
LINE
  5
AD
  8
0
 10
36.637002000000003
 20
16.513459000000001
 30
0.0
 11
36.637002000000003
 21
13.513458999999999
 31
0.0
  0
LINE
  5
AE
  8
0
 10
37.137002000000003
 20
17.01345899999999
 30
0.0
 11
36.637002000000003
 21
16.513459000000001
 31
0.0
  0
LINE
  5
AF
  8
0
 10
36.637002000000003
 20
13.513458999999999
 30
0.0
 11
37.137002000000003
 21
13.013458999999999
 31
0.0
  0
LINE
  5
B0
  8
0
 10
44.637002000000003
 20
16.513459000000001
 30
0.0
 11
44.637002000000003
 21
13.513458999999999
 31
0.0
  0
LINE
  5
B1
  8
0
 10
44.637002000000003
 20
16.513459000000001
 30
0.0
 11
44.137002000000003
 21
17.01345899999999
 31
0.0
  0
LINE
  5
B2
  8
0
 10
44.637002000000003
 20
13.513458999999999
 30
0.0
 11
44.137002000000003
 21
13.013458999999999
 31
0.0
  0
ARC
  5
B3
  8
2
 10
44.387002000000003
 20
15.013458999999999
 30
0.0
 40
1.25
 50
291.10019599999998
 51
68.899804000000003
  0
TEXT
  5
1C4
  8
0
 62
     3
 10
0.0
 20
0.0
 30
0.0
 40
5.0
  1
LBST4
  7
STANDARD1
  0
ENDSEC
  0
EOF
