  0
SECTION
  2
HEADER
  9
$ACADVER
  1
AC1009
  9
$INSBASE
 10
0.0
 20
0.0
 30
0.0
  9
$EXTMIN
 10
0.0
 20
-1.4802182810368341
 30
0.0
  9
$EXTMAX
 10
142.53262599999999
 20
107.934068
 30
0.0
  9
$LIMMIN
 10
0.0
 20
0.0
  9
$LIMMAX
 10
187.5
 20
135.0
  9
$ORTHOMODE
 70
     1
  9
$REGENMODE
 70
     1
  9
$FILLMODE
 70
     1
  9
$QTEXTMODE
 70
     0
  9
$MIRRTEXT
 70
     0
  9
$DRAGMODE
 70
     2
  9
$LTSCALE
 40
2.0
  9
$OSMODE
 70
  3071
  9
$ATTMODE
 70
     1
  9
$TEXTSIZE
 40
2.0
  9
$TRACEWID
 40
0.05
  9
$TEXTSTYLE
  7
STANDARD
  9
$CLAYER
  8
0
  9
$CELTYPE
  6
BYLAYER
  9
$CECOLOR
 62
   256
  9
$DIMSCALE
 40
0.5
  9
$DIMASZ
 40
3.0
  9
$DIMEXO
 40
2.0
  9
$DIMDLI
 40
10.0
  9
$DIMRND
 40
0.0
  9
$DIMDLE
 40
0.0
  9
$DIMEXE
 40
2.0
  9
$DIMTP
 40
0.0
  9
$DIMTM
 40
0.0
  9
$DIMTXT
 40
3.2000000000000002
  9
$DIMCEN
 40
0.09
  9
$DIMTSZ
 40
0.0
  9
$DIMTOL
 70
     0
  9
$DIMLIM
 70
     0
  9
$DIMTIH
 70
     0
  9
$DIMTOH
 70
     0
  9
$DIMSE1
 70
     0
  9
$DIMSE2
 70
     0
  9
$DIMTAD
 70
     1
  9
$DIMZIN
 70
     0
  9
$DIMBLK
  1

  9
$DIMASO
 70
     1
  9
$DIMSHO
 70
     0
  9
$DIMPOST
  1

  9
$DIMAPOST
  1

  9
$DIMALT
 70
     0
  9
$DIMALTD
 70
     2
  9
$DIMALTF
 40
25.399999999999999
  9
$DIMLFAC
 40
1.0
  9
$DIMTOFL
 70
     1
  9
$DIMTVP
 40
1.6000000000000001
  9
$DIMTIX
 70
     0
  9
$DIMSOXD
 70
     0
  9
$DIMSAH
 70
     0
  9
$DIMBLK1
  1

  9
$DIMBLK2
  1

  9
$DIMSTYLE
  2
STANDARD
  9
$DIMCLRD
 70
     0
  9
$DIMCLRE
 70
     0
  9
$DIMCLRT
 70
     0
  9
$DIMTFAC
 40
1.0
  9
$DIMGAP
 40
0.09
  9
$LUNITS
 70
     2
  9
$LUPREC
 70
     4
  9
$SKETCHINC
 40
0.1
  9
$FILLETRAD
 40
0.5
  9
$AUNITS
 70
     0
  9
$AUPREC
 70
     0
  9
$MENU
  1
E:\r13\win\SUPPORT\ACAD
  9
$ELEVATION
 40
0.0
  9
$PELEVATION
 40
0.0
  9
$THICKNESS
 40
0.0
  9
$LIMCHECK
 70
     0
  9
$BLIPMODE
 70
     0
  9
$CHAMFERA
 40
0.0
  9
$CHAMFERB
 40
0.0
  9
$SKPOLY
 70
     0
  9
$TDCREATE
 40
2449840.6191435191
  9
$TDUPDATE
 40
2456597.5718250582
  9
$TDINDWG
 40
0.0001321065
  9
$TDUSRTIMER
 40
0.0001321065
  9
$USRTIMER
 70
     1
  9
$ANGBASE
 50
0.0
  9
$ANGDIR
 70
     0
  9
$PDMODE
 70
     0
  9
$PDSIZE
 40
0.0
  9
$PLINEWID
 40
0.0
  9
$COORDS
 70
     1
  9
$SPLFRAME
 70
     0
  9
$SPLINETYPE
 70
     6
  9
$SPLINESEGS
 70
     8
  9
$ATTDIA
 70
     0
  9
$ATTREQ
 70
     1
  9
$HANDLING
 70
     1
  9
$HANDSEED
  5
25A
  9
$SURFTAB1
 70
     6
  9
$SURFTAB2
 70
     6
  9
$SURFTYPE
 70
     6
  9
$SURFU
 70
     6
  9
$SURFV
 70
     6
  9
$UCSNAME
  2

  9
$UCSORG
 10
0.0
 20
0.0
 30
0.0
  9
$UCSXDIR
 10
1.0
 20
0.0
 30
0.0
  9
$UCSYDIR
 10
0.0
 20
1.0
 30
0.0
  9
$PUCSNAME
  2

  9
$PUCSORG
 10
0.0
 20
0.0
 30
0.0
  9
$PUCSXDIR
 10
1.0
 20
0.0
 30
0.0
  9
$PUCSYDIR
 10
0.0
 20
1.0
 30
0.0
  9
$USERI1
 70
     0
  9
$USERI2
 70
     1
  9
$USERI3
 70
     1
  9
$USERI4
 70
     0
  9
$USERI5
 70
     0
  9
$USERR1
 40
0.0
  9
$USERR2
 40
0.0
  9
$USERR3
 40
0.0
  9
$USERR4
 40
0.0
  9
$USERR5
 40
0.0
  9
$WORLDVIEW
 70
     1
  9
$SHADEDGE
 70
     3
  9
$SHADEDIF
 70
    70
  9
$TILEMODE
 70
     1
  9
$MAXACTVP
 70
    16
  9
$PLIMCHECK
 70
     0
  9
$PEXTMIN
 10
1.0000000000000000E+020
 20
1.0000000000000000E+020
 30
1.0000000000000000E+020
  9
$PEXTMAX
 10
-1.0000000000000000E+020
 20
-1.0000000000000000E+020
 30
-1.0000000000000000E+020
  9
$PLIMMIN
 10
0.0
 20
0.0
  9
$PLIMMAX
 10
12.0
 20
9.0
  9
$UNITMODE
 70
     0
  9
$VISRETAIN
 70
     0
  9
$PLINEGEN
 70
     0
  9
$PSLTSCALE
 70
     0
  0
ENDSEC
  0
SECTION
  2
TABLES
  0
TABLE
  2
VPORT
 70
     1
  0
VPORT
  2
*ACTIVE
 70
     0
 10
0.0
 20
0.0
 11
1.0
 21
1.0
 12
93.74713919532617
 22
81.430819429735848
 13
0.0
 23
0.0
 14
5.0
 24
5.0
 15
5.0
 25
5.0
 16
0.0
 26
0.0
 36
1.0
 17
0.0
 27
0.0
 37
0.0
 40
167.40500581387491
 41
1.9089595375722539
 42
50.0
 43
0.0
 44
0.0
 50
0.0
 51
0.0
 71
     0
 72
   100
 73
     1
 74
     0
 75
     0
 76
     0
 77
     0
 78
     0
  0
ENDTAB
  0
TABLE
  2
LTYPE
 70
     4
  0
LTYPE
  2
CONTINUOUS
 70
     0
  3
Solid Line
 72
    65
 73
     0
 40
0.0
  0
LTYPE
  2
CENTER
 70
     0
  3
____ _ ____ _ ____ _ ____ _ ____ _ ____ _ ____
 72
    65
 73
     4
 40
2.0
 49
1.25
 49
-0.25
 49
0.25
 49
-0.25
  0
LTYPE
  2
HIDDEN
 70
     0
  3
_ _ _ _ _ _ _ _ _ _ _ _ _ _ _ _ _ _ _ _ _ _ _
 72
    65
 73
     2
 40
0.375
 49
0.25
 49
-0.125
  0
LTYPE
  2
PHANTOM2
 70
     0
  3
___ _ _ ___ _ _ ___ _ _ ___ _ _
 72
    65
 73
     6
 40
1.25
 49
0.625
 49
-0.125
 49
0.125
 49
-0.125
 49
0.125
 49
-0.125
  0
ENDTAB
  0
TABLE
  2
LAYER
 70
     4
  0
LAYER
  2
0
 70
     0
 62
     7
  6
CONTINUOUS
  0
LAYER
  2
1
 70
     0
 62
     1
  6
CENTER
  0
LAYER
  2
2
 70
     0
 62
     2
  6
HIDDEN
  0
LAYER
  2
3
 70
     0
 62
     3
  6
CONTINUOUS
  0
ENDTAB
  0
TABLE
  2
STYLE
 70
     2
  0
STYLE
  2
STANDARD
 70
     0
 40
0.0
 41
1.0
 50
0.0
 71
     0
 42
2.0
  3
ROMANS
  4
BIGFONT
  0
STYLE
  2
STANDARD1
 70
     0
 40
0.0
 41
1.0
 50
0.0
 71
     0
 42
3.0
  3
txt
  4

  0
ENDTAB
  0
TABLE
  2
VIEW
 70
     1
  0
VIEW
  2
ALL
 70
     0
 40
135.0
 10
110.29971
 20
67.5
 41
220.59942000000001
 11
0.0
 21
0.0
 31
1.0
 12
0.0
 22
0.0
 32
0.0
 42
0.0
 43
0.0
 44
0.0
 50
0.0
 71
     0
  0
ENDTAB
  0
TABLE
  2
UCS
 70
     0
  0
ENDTAB
  0
TABLE
  2
APPID
 70
     3
  0
APPID
  2
ACAD
 70
     0
  0
APPID
  2
ACAD_MLEADERVER
 70
     0
  0
APPID
  2
ACAD_NAV_VCDISPLAY
 70
     0
  0
ENDTAB
  0
TABLE
  2
DIMSTYLE
 70
     1
  0
DIMSTYLE
  2
STANDARD
 70
     0
  3

  4

  5

  6

  7

 40
1.0
 41
0.18
 42
0.0625
 43
0.38
 44
0.18
 45
0.0
 46
0.0
 47
0.0
 48
0.0
140
0.18
141
0.09
142
0.0
143
25.399999999999999
144
1.0
145
0.0
146
1.0
147
0.09
 71
     0
 72
     0
 73
     1
 74
     1
 75
     0
 76
     0
 77
     0
 78
     0
170
     0
171
     2
172
     0
173
     0
174
     0
175
     0
176
     0
177
     0
178
     0
  0
ENDTAB
  0
ENDSEC
  0
SECTION
  2
BLOCKS
  0
BLOCK
  8
0
  2
$MODEL_SPACE
 70
     0
 10
0.0
 20
0.0
 30
0.0
  3
$MODEL_SPACE
  1

  0
ENDBLK
  5
D7
  8
0
  0
BLOCK
 67
     1
  8
0
  2
$PAPER_SPACE
 70
     0
 10
0.0
 20
0.0
 30
0.0
  3
$PAPER_SPACE
  1

  0
ENDBLK
  5
D5
 67
     1
  8
0
  0
ENDSEC
  0
SECTION
  2
ENTITIES
  0
LINE
  5
39
  8
1
 10
74.330360999999996
 20
70.044303999999997
 30
0.0
 11
103.830361
 21
70.044303999999997
 31
0.0
  0
LINE
  5
3A
  8
0
 10
96.380360999999994
 20
76.044303999999997
 30
0.0
 11
78.030360999999985
 21
76.044303999999997
 31
0.0
  0
LINE
  5
3B
  8
3
 10
97.327360999999996
 20
75.097304000000008
 30
0.0
 11
77.083360999999996
 21
75.097304000000008
 31
0.0
  0
LINE
  5
3C
  8
3
 10
97.327360999999996
 20
64.991304
 30
0.0
 11
77.083360999999996
 21
64.991304
 31
0.0
  0
LINE
  5
3D
  8
0
 10
96.380360999999994
 20
64.044303999999997
 30
0.0
 11
78.030360999999985
 21
64.044303999999997
 31
0.0
  0
LINE
  5
3E
  8
0
 10
76.830360999999996
 20
74.844303999999994
 30
0.0
 11
76.830360999999996
 21
71.044303999999997
 31
0.0
  0
LINE
  5
3F
  8
0
 10
98.830360999999996
 20
74.594304000000008
 30
0.0
 11
98.830360999999996
 21
65.494304
 31
0.0
  0
LINE
  5
40
  8
0
 10
76.830360999999996
 20
71.044303999999997
 30
0.0
 11
78.253653999999983
 21
71.044303999999997
 31
0.0
  0
LINE
  5
41
  8
0
 10
76.830360999999996
 20
69.044303999999997
 30
0.0
 11
78.253653999999983
 21
69.044303999999997
 31
0.0
  0
LINE
  5
42
  8
2
 10
78.830360999999996
 20
71.044303999999997
 30
0.0
 11
78.830360999999996
 21
69.044303999999997
 31
0.0
  0
LINE
  5
43
  8
0
 10
97.830360999999996
 20
74.594304000000008
 30
0.0
 11
97.830360999999996
 21
65.494304
 31
0.0
  0
LINE
  5
44
  8
0
 10
78.253653999999983
 20
71.044303999999997
 30
0.0
 11
78.253653999999983
 21
69.044303999999997
 31
0.0
  0
ARC
  5
45
  8
0
 10
97.330360999999996
 20
70.044303999999997
 30
0.0
 40
4.0
 50
292.02431300000001
 51
67.975686999999994
  0
LINE
  5
46
  8
0
 10
76.830360999999996
 20
69.044303999999997
 30
0.0
 11
76.830360999999996
 21
65.244303999999985
 31
0.0
  0
LINE
  5
47
  8
0
 10
78.030360999999985
 20
76.044303999999997
 30
0.0
 11
76.830360999999996
 21
74.844303999999994
 31
0.0
  0
LINE
  5
48
  8
0
 10
76.830360999999996
 20
65.244303999999985
 30
0.0
 11
78.030360999999985
 21
64.044303999999997
 31
0.0
  0
CIRCLE
  5
49
  8
0
 10
134.03262599999999
 20
70.044303999999997
 30
0.0
 40
6.0
  0
CIRCLE
  5
4A
  8
3
 10
134.03262599999999
 20
70.044303999999997
 30
0.0
 40
5.052999999999999
  0
CIRCLE
  5
4B
  8
0
 10
134.03262599999999
 20
70.044303999999997
 30
0.0
 40
4.0
  0
CIRCLE
  5
4C
  8
0
 10
46.830360999999989
 20
70.044303999999997
 30
0.0
 40
6.0
  0
CIRCLE
  5
4D
  8
3
 10
46.830360999999989
 20
70.044303999999997
 30
0.0
 40
5.052999999999999
  0
LINE
  5
4E
  8
0
 10
40.914282
 20
71.044303999999997
 30
0.0
 11
52.746440999999997
 21
71.044303999999997
 31
0.0
  0
LINE
  5
4F
  8
0
 10
40.914282
 20
69.044303999999997
 30
0.0
 11
52.746440999999997
 21
69.044303999999997
 31
0.0
  0
LINE
  5
50
  8
0
 10
78.030360999999985
 20
76.044303999999997
 30
0.0
 11
78.030360999999985
 21
71.044303999999997
 31
0.0
  0
LINE
  5
51
  8
0
 10
78.030360999999985
 20
69.044303999999997
 30
0.0
 11
78.030360999999985
 21
64.044303999999997
 31
0.0
  0
LINE
  5
52
  8
0
 10
97.830360999999996
 20
74.594304000000008
 30
0.0
 11
98.830360999999996
 21
74.594304000000008
 31
0.0
  0
LINE
  5
53
  8
0
 10
97.830360999999996
 20
65.494304
 30
0.0
 11
98.830360999999996
 21
65.494304
 31
0.0
  0
LINE
  5
54
  8
0
 10
97.830360999999996
 20
74.594304000000008
 30
0.0
 11
96.380360999999994
 21
76.044303999999997
 31
0.0
  0
LINE
  5
55
  8
0
 10
97.830360999999996
 20
65.494304
 30
0.0
 11
96.380360999999994
 21
64.044303999999997
 31
0.0
  0
LINE
  5
56
  8
0
 10
96.380360999999994
 20
64.044303999999997
 30
0.0
 11
96.380360999999994
 21
76.044303999999997
 31
0.0
  0
CIRCLE
  5
57
  8
0
 10
134.03262599999999
 20
70.044303999999997
 30
0.0
 40
4.5499999999999989
  0
LINE
  5
58
  8
2
 10
78.253653999999983
 20
71.044303999999997
 30
0.0
 11
78.830360999999996
 21
71.044303999999997
 31
0.0
  0
LINE
  5
59
  8
2
 10
78.253653999999983
 20
69.044303999999997
 30
0.0
 11
78.830360999999996
 21
69.044303999999997
 31
0.0
  0
ARC
  5
5A
  8
2
 10
94.830360999999996
 20
70.044303999999997
 30
0.0
 40
4.0
 50
292.02431300000001
 51
67.975686999999994
  0
LINE
  5
5B
  8
1
 10
55.330361000000003
 20
70.044303999999997
 30
0.0
 11
38.330361000000003
 21
70.044303999999997
 31
0.0
  0
LINE
  5
5C
  8
1
 10
46.830360999999989
 20
78.544303999999997
 30
0.0
 11
46.830360999999989
 21
61.544303999999997
 31
0.0
  0
LINE
  5
5D
  8
1
 10
142.53262599999999
 20
70.044303999999997
 30
0.0
 11
125.53262599999999
 21
70.044303999999997
 31
0.0
  0
LINE
  5
5E
  8
1
 10
134.03262599999999
 20
78.544303999999997
 30
0.0
 11
134.03262599999999
 21
61.544303999999997
 31
0.0
  0
LINE
  5
5F
  8
2
 10
97.680361000000005
 20
74.744304
 30
0.0
 11
82.430361000000005
 21
74.744304
 31
0.0
  0
LINE
  5
60
  8
2
 10
82.430361000000005
 20
74.744304
 30
0.0
 11
82.430361000000005
 21
76.044303999999997
 31
0.0
  0
LINE
  5
61
  8
2
 10
83.827360999999996
 20
74.744304
 30
0.0
 11
83.827360999999996
 21
76.044303999999997
 31
0.0
  0
LINE
  5
62
  8
2
 10
83.827360999999996
 20
76.044303999999997
 30
0.0
 11
93.827360999999996
 21
76.044303999999997
 31
0.0
  0
LINE
  5
63
  8
2
 10
93.827360999999996
 20
76.044303999999997
 30
0.0
 11
93.827360999999996
 21
74.744304
 31
0.0
  0
LINE
  5
64
  8
0
 10
133.48262600000001
 20
74.744304
 30
0.0
 11
134.582626
 21
74.744304
 31
0.0
  0
LINE
  5
65
  8
0
 10
133.48262600000001
 20
76.019041999999985
 30
0.0
 11
133.48262600000001
 21
74.744304
 31
0.0
  0
LINE
  5
66
  8
0
 10
134.582626
 20
76.019041999999985
 30
0.0
 11
134.582626
 21
74.744304
 31
0.0
  0
POLYLINE
  5
67
  8
0
 66
     1
 10
0.0
 20
0.0
 30
0.0
 70
     1
  0
VERTEX
  5
68
  8
0
 10
133.48262600000001
 20
75.394304000000005
 30
0.0
 42
0.084478
  0
VERTEX
  5
69
  8
0
 10
133.52575400000001
 20
75.140862999999996
 30
0.0
 42
0.091541
  0
VERTEX
  5
6A
  8
0
 10
133.6437169999999
 20
74.934685000000002
 30
0.0
 42
0.103696
 70
     2
 50
310.236358
  0
VERTEX
  5
6B
  8
0
 10
133.826909
 20
74.791954000000004
 30
0.0
 42
0.114302
 50
310.236358
  0
VERTEX
  5
6C
  8
0
 10
134.03262599999999
 20
74.744304
 30
0.0
 42
0.114302
  0
VERTEX
  5
6D
  8
0
 10
134.23834299999999
 20
74.791954000000004
 30
0.0
 42
0.103696
  0
VERTEX
  5
6E
  8
0
 10
134.42153500000001
 20
74.934685000000002
 30
0.0
 42
0.091541
 70
     2
 50
49.76364199999999
  0
VERTEX
  5
6F
  8
0
 10
134.53949800000001
 20
75.140862999999996
 30
0.0
 42
0.084478
 50
49.76364199999999
  0
VERTEX
  5
70
  8
0
 10
134.582626
 20
75.394304000000005
 30
0.0
 42
0.084478
  0
VERTEX
  5
71
  8
0
 10
134.53949800000001
 20
75.647745
 30
0.0
 42
0.091541
  0
VERTEX
  5
72
  8
0
 10
134.42153500000001
 20
75.853922999999995
 30
0.0
 42
0.103696
 70
     2
 50
130.236358
  0
VERTEX
  5
73
  8
0
 10
134.23834299999999
 20
75.996654000000007
 30
0.0
 42
0.114302
 50
130.236358
  0
VERTEX
  5
74
  8
0
 10
134.03262599999999
 20
76.044303999999997
 30
0.0
 42
0.114302
  0
VERTEX
  5
75
  8
0
 10
133.826909
 20
75.996654000000007
 30
0.0
 42
0.103696
  0
VERTEX
  5
76
  8
0
 10
133.6437169999999
 20
75.853922999999995
 30
0.0
 42
0.091541
 70
     2
 50
229.763642
  0
VERTEX
  5
77
  8
0
 10
133.52575400000001
 20
75.647745
 30
0.0
 42
0.084478
 50
229.763642
  0
SEQEND
  5
78
  8
0
  0
LINE
  5
79
  8
0
 10
93.827360999999996
 20
102.584068
 30
0.0
 11
93.827360999999996
 21
101.284068
 31
0.0
  0
LINE
  5
7A
  8
0
 10
83.827360999999996
 20
101.284068
 30
0.0
 11
83.827360999999996
 21
102.584068
 31
0.0
  0
LINE
  5
7B
  8
0
 10
82.430361000000005
 20
101.284068
 30
0.0
 11
82.430361000000005
 21
102.584068
 31
0.0
  0
LINE
  5
7C
  8
0
 10
97.680361000000005
 20
101.284068
 30
0.0
 11
82.430361000000005
 21
101.284068
 31
0.0
  0
ARC
  5
7D
  8
2
 10
94.830360999999996
 20
101.934068
 30
0.0
 40
4.0
 50
292.02431300000001
 51
67.975686999999994
  0
LINE
  5
7E
  8
0
 10
96.380360999999994
 20
95.934068000000025
 30
0.0
 11
96.380360999999994
 21
101.284068
 31
0.0
  0
LINE
  5
7F
  8
0
 10
97.830360999999996
 20
97.384067999999985
 30
0.0
 11
96.380360999999994
 21
95.934068000000025
 31
0.0
  0
LINE
  5
80
  8
0
 10
97.830360999999996
 20
106.48406799999999
 30
0.0
 11
96.380360999999994
 21
107.934068
 31
0.0
  0
LINE
  5
81
  8
0
 10
97.830360999999996
 20
97.384067999999985
 30
0.0
 11
98.830360999999996
 21
97.384067999999985
 31
0.0
  0
LINE
  5
82
  8
0
 10
97.830360999999996
 20
106.48406799999999
 30
0.0
 11
98.830360999999996
 21
106.48406799999999
 31
0.0
  0
LINE
  5
83
  8
0
 10
78.030360999999985
 20
107.934068
 30
0.0
 11
78.030360999999985
 21
95.934068000000025
 31
0.0
  0
LINE
  5
84
  8
0
 10
76.830360999999996
 20
97.134068000000013
 30
0.0
 11
78.030360999999985
 21
95.934068000000025
 31
0.0
  0
LINE
  5
85
  8
0
 10
78.030360999999985
 20
107.934068
 30
0.0
 11
76.830360999999996
 21
106.73406799999999
 31
0.0
  0
LINE
  5
86
  8
0
 10
76.830360999999996
 20
106.73406799999999
 30
0.0
 11
76.830360999999996
 21
97.134068000000013
 31
0.0
  0
ARC
  5
87
  8
0
 10
97.330360999999996
 20
101.934068
 30
0.0
 40
4.0
 50
292.02431300000001
 51
67.975686999999994
  0
LINE
  5
88
  8
0
 10
97.830360999999996
 20
106.48406799999999
 30
0.0
 11
97.830360999999996
 21
97.384067999999985
 31
0.0
  0
LINE
  5
89
  8
0
 10
98.830360999999996
 20
106.48406799999999
 30
0.0
 11
98.830360999999996
 21
97.384067999999985
 31
0.0
  0
LINE
  5
8A
  8
0
 10
96.380360999999994
 20
95.934068000000025
 30
0.0
 11
78.030360999999985
 21
95.934068000000025
 31
0.0
  0
LINE
  5
8B
  8
3
 10
97.327360999999996
 20
96.881067999999985
 30
0.0
 11
77.083360999999996
 21
96.881067999999985
 31
0.0
  0
LINE
  5
8C
  8
3
 10
97.327360999999996
 20
106.98706799999999
 30
0.0
 11
77.083360999999996
 21
106.98706799999999
 31
0.0
  0
LINE
  5
8D
  8
0
 10
96.380360999999994
 20
107.934068
 30
0.0
 11
78.030360999999985
 21
107.934068
 31
0.0
  0
LINE
  5
8E
  8
1
 10
74.330360999999996
 20
101.934068
 30
0.0
 11
103.830361
 21
101.934068
 31
0.0
  0
LINE
  5
8F
  8
0
 10
97.680361000000005
 20
102.584068
 30
0.0
 11
82.430361000000005
 21
102.584068
 31
0.0
  0
LINE
  5
90
  8
0
 10
97.680361000000005
 20
102.584068
 30
0.0
 11
97.680361000000005
 21
101.284068
 31
0.0
  0
LINE
  5
91
  8
0
 10
96.380360999999994
 20
102.584068
 30
0.0
 11
96.380360999999994
 21
107.934068
 31
0.0
  0
LINE
  5
92
  8
1
 10
74.330360999999996
 20
38.735478000000001
 30
0.0
 11
103.830361
 21
38.735478000000001
 31
0.0
  0
LINE
  5
93
  8
0
 10
96.380360999999994
 20
44.735478000000001
 30
0.0
 11
78.030360999999985
 21
44.735478000000001
 31
0.0
  0
LINE
  5
94
  8
3
 10
97.327360999999996
 20
43.788477999999998
 30
0.0
 11
77.083360999999996
 21
43.788477999999998
 31
0.0
  0
LINE
  5
95
  8
3
 10
97.327360999999996
 20
33.68247800000001
 30
0.0
 11
77.083360999999996
 21
33.68247800000001
 31
0.0
  0
LINE
  5
96
  8
0
 10
96.380360999999994
 20
32.735478000000001
 30
0.0
 11
78.030360999999985
 21
32.735478000000001
 31
0.0
  0
LINE
  5
97
  8
0
 10
98.830360999999996
 20
43.285477999999998
 30
0.0
 11
98.830360999999996
 21
34.18547800000001
 31
0.0
  0
LINE
  5
98
  8
0
 10
97.830360999999996
 20
43.285477999999998
 30
0.0
 11
97.830360999999996
 21
34.18547800000001
 31
0.0
  0
ARC
  5
99
  8
0
 10
97.330360999999996
 20
38.735478000000001
 30
0.0
 40
4.0
 50
292.02431300000001
 51
67.975686999999994
  0
LINE
  5
9A
  8
0
 10
76.830360999999996
 20
43.535477999999998
 30
0.0
 11
76.830360999999996
 21
33.935478000000003
 31
0.0
  0
LINE
  5
9B
  8
0
 10
78.030360999999985
 20
44.735478000000001
 30
0.0
 11
76.830360999999996
 21
43.535477999999998
 31
0.0
  0
LINE
  5
9C
  8
0
 10
76.830360999999996
 20
33.935478000000003
 30
0.0
 11
78.030360999999985
 21
32.735478000000001
 31
0.0
  0
LINE
  5
9D
  8
0
 10
78.030360999999985
 20
44.735478000000001
 30
0.0
 11
78.030360999999985
 21
32.735478000000001
 31
0.0
  0
LINE
  5
9E
  8
0
 10
97.830360999999996
 20
43.285477999999998
 30
0.0
 11
98.830360999999996
 21
43.285477999999998
 31
0.0
  0
LINE
  5
9F
  8
0
 10
97.830360999999996
 20
34.18547800000001
 30
0.0
 11
98.830360999999996
 21
34.18547800000001
 31
0.0
  0
LINE
  5
A0
  8
0
 10
97.830360999999996
 20
43.285477999999998
 30
0.0
 11
96.380360999999994
 21
44.735478000000001
 31
0.0
  0
LINE
  5
A1
  8
0
 10
97.830360999999996
 20
34.18547800000001
 30
0.0
 11
96.380360999999994
 21
32.735478000000001
 31
0.0
  0
LINE
  5
A2
  8
0
 10
96.380360999999994
 20
32.735478000000001
 30
0.0
 11
96.380360999999994
 21
44.735478000000001
 31
0.0
  0
ARC
  5
A3
  8
2
 10
94.830360999999996
 20
38.735478000000001
 30
0.0
 40
4.0
 50
292.02431300000001
 51
67.975686999999994
  0
TEXT
  5
1CB
  8
0
 62
     3
 10
0.0
 20
0.0
 30
0.0
 40
5.0
  1
LBST12
  7
STANDARD1
  0
ENDSEC
  0
EOF
