  0
SECTION
  2
HEADER
  9
$ACADVER
  1
AC1009
  9
$INSBASE
 10
0.0
 20
0.0
 30
0.0
  9
$EXTMIN
 10
0.0
 20
-2.960436562073669
 30
0.0
  9
$EXTMAX
 10
124.6741360291924
 20
109.46936175587339
 30
0.0
  9
$LIMMIN
 10
0.0
 20
0.0
  9
$LIMMAX
 10
375.0
 20
270.0
  9
$ORTHOMODE
 70
     1
  9
$REGENMODE
 70
     1
  9
$FILLMODE
 70
     1
  9
$QTEXTMODE
 70
     0
  9
$MIRRTEXT
 70
     0
  9
$DRAGMODE
 70
     2
  9
$LTSCALE
 40
10.0
  9
$OSMODE
 70
  3071
  9
$ATTMODE
 70
     1
  9
$TEXTSIZE
 40
2.0
  9
$TRACEWID
 40
0.05
  9
$TEXTSTYLE
  7
STANDARD
  9
$CLAYER
  8
0
  9
$CELTYPE
  6
BYLAYER
  9
$CECOLOR
 62
   256
  9
$DIMSCALE
 40
1.0
  9
$DIMASZ
 40
2.5
  9
$DIMEXO
 40
2.0
  9
$DIMDLI
 40
0.38
  9
$DIMRND
 40
0.0
  9
$DIMDLE
 40
0.0
  9
$DIMEXE
 40
2.0
  9
$DIMTP
 40
0.0
  9
$DIMTM
 40
0.0
  9
$DIMTXT
 40
3.0
  9
$DIMCEN
 40
0.09
  9
$DIMTSZ
 40
0.0
  9
$DIMTOL
 70
     0
  9
$DIMLIM
 70
     0
  9
$DIMTIH
 70
     0
  9
$DIMTOH
 70
     0
  9
$DIMSE1
 70
     0
  9
$DIMSE2
 70
     0
  9
$DIMTAD
 70
     1
  9
$DIMZIN
 70
     0
  9
$DIMBLK
  1

  9
$DIMASO
 70
     1
  9
$DIMSHO
 70
     0
  9
$DIMPOST
  1

  9
$DIMAPOST
  1

  9
$DIMALT
 70
     0
  9
$DIMALTD
 70
     2
  9
$DIMALTF
 40
25.399999999999999
  9
$DIMLFAC
 40
1.0
  9
$DIMTOFL
 70
     0
  9
$DIMTVP
 40
1.6000000000000001
  9
$DIMTIX
 70
     1
  9
$DIMSOXD
 70
     0
  9
$DIMSAH
 70
     0
  9
$DIMBLK1
  1

  9
$DIMBLK2
  1

  9
$DIMSTYLE
  2
STANDARD
  9
$DIMCLRD
 70
     0
  9
$DIMCLRE
 70
     0
  9
$DIMCLRT
 70
     0
  9
$DIMTFAC
 40
1.0
  9
$DIMGAP
 40
0.09
  9
$LUNITS
 70
     2
  9
$LUPREC
 70
     4
  9
$SKETCHINC
 40
0.1
  9
$FILLETRAD
 40
2.5
  9
$AUNITS
 70
     0
  9
$AUPREC
 70
     0
  9
$MENU
  1
E:\r13\win\SUPPORT\ACAD
  9
$ELEVATION
 40
0.0
  9
$PELEVATION
 40
0.0
  9
$THICKNESS
 40
0.0
  9
$LIMCHECK
 70
     0
  9
$BLIPMODE
 70
     0
  9
$CHAMFERA
 40
0.0
  9
$CHAMFERB
 40
0.0
  9
$SKPOLY
 70
     0
  9
$TDCREATE
 40
2448650.5678784722
  9
$TDUPDATE
 40
2456597.5717537501
  9
$TDINDWG
 40
0.0253024537
  9
$TDUSRTIMER
 40
0.0253024537
  9
$USRTIMER
 70
     1
  9
$ANGBASE
 50
0.0
  9
$ANGDIR
 70
     0
  9
$PDMODE
 70
     0
  9
$PDSIZE
 40
0.0
  9
$PLINEWID
 40
0.0
  9
$COORDS
 70
     1
  9
$SPLFRAME
 70
     0
  9
$SPLINETYPE
 70
     6
  9
$SPLINESEGS
 70
     8
  9
$ATTDIA
 70
     0
  9
$ATTREQ
 70
     1
  9
$HANDLING
 70
     1
  9
$HANDSEED
  5
8EE
  9
$SURFTAB1
 70
     6
  9
$SURFTAB2
 70
     6
  9
$SURFTYPE
 70
     6
  9
$SURFU
 70
     6
  9
$SURFV
 70
     6
  9
$UCSNAME
  2

  9
$UCSORG
 10
0.0
 20
0.0
 30
0.0
  9
$UCSXDIR
 10
1.0
 20
0.0
 30
0.0
  9
$UCSYDIR
 10
0.0
 20
1.0
 30
0.0
  9
$PUCSNAME
  2

  9
$PUCSORG
 10
0.0
 20
0.0
 30
0.0
  9
$PUCSXDIR
 10
1.0
 20
0.0
 30
0.0
  9
$PUCSYDIR
 10
0.0
 20
1.0
 30
0.0
  9
$USERI1
 70
     0
  9
$USERI2
 70
     1
  9
$USERI3
 70
     1
  9
$USERI4
 70
     0
  9
$USERI5
 70
     0
  9
$USERR1
 40
0.0
  9
$USERR2
 40
0.0
  9
$USERR3
 40
0.0
  9
$USERR4
 40
0.0
  9
$USERR5
 40
0.0
  9
$WORLDVIEW
 70
     1
  9
$SHADEDGE
 70
     3
  9
$SHADEDIF
 70
    70
  9
$TILEMODE
 70
     1
  9
$MAXACTVP
 70
    16
  9
$PLIMCHECK
 70
     0
  9
$PEXTMIN
 10
1.0000000000000000E+020
 20
1.0000000000000000E+020
 30
1.0000000000000000E+020
  9
$PEXTMAX
 10
-1.0000000000000000E+020
 20
-1.0000000000000000E+020
 30
-1.0000000000000000E+020
  9
$PLIMMIN
 10
0.0
 20
0.0
  9
$PLIMMAX
 10
12.0
 20
9.0
  9
$UNITMODE
 70
     0
  9
$VISRETAIN
 70
     0
  9
$PLINEGEN
 70
     1
  9
$PSLTSCALE
 70
     0
  0
ENDSEC
  0
SECTION
  2
TABLES
  0
TABLE
  2
VPORT
 70
     1
  0
VPORT
  2
*ACTIVE
 70
     0
 10
0.0
 20
0.0
 11
1.0
 21
1.0
 12
187.49427839065231
 22
162.8616388594717
 13
0.0
 23
0.0
 14
10.0
 24
10.0
 15
10.0
 25
10.0
 16
0.0
 26
0.0
 36
1.0
 17
0.0
 27
0.0
 37
0.0
 40
334.81001162774987
 41
1.9089595375722539
 42
50.0
 43
0.0
 44
0.0
 50
0.0
 51
0.0
 71
     0
 72
   500
 73
     1
 74
     0
 75
     0
 76
     0
 77
     0
 78
     2
  0
ENDTAB
  0
TABLE
  2
LTYPE
 70
     4
  0
LTYPE
  2
CONTINUOUS
 70
     0
  3
Solid Line
 72
    65
 73
     0
 40
0.0
  0
LTYPE
  2
CENTER
 70
     0
  3
____ _ ____ _ ____ _ ____ _ ____ _ ____ _ ____
 72
    65
 73
     4
 40
2.0
 49
1.25
 49
-0.25
 49
0.25
 49
-0.25
  0
LTYPE
  2
HIDDEN
 70
     0
  3
_ _ _ _ _ _ _ _ _ _ _ _ _ _ _ _ _ _ _ _ _ _ _
 72
    65
 73
     2
 40
0.375
 49
0.25
 49
-0.125
  0
LTYPE
  2
PHANTOM2
 70
     0
  3
___ _ _ ___ _ _ ___ _ _ ___ _ _
 72
    65
 73
     6
 40
1.25
 49
0.625
 49
-0.125
 49
0.125
 49
-0.125
 49
0.125
 49
-0.125
  0
ENDTAB
  0
TABLE
  2
LAYER
 70
     3
  0
LAYER
  2
0
 70
     0
 62
     7
  6
CONTINUOUS
  0
LAYER
  2
1
 70
     0
 62
     1
  6
CENTER
  0
LAYER
  2
2
 70
     0
 62
     2
  6
HIDDEN
  0
ENDTAB
  0
TABLE
  2
STYLE
 70
     2
  0
STYLE
  2
STANDARD
 70
     0
 40
0.0
 41
1.0
 50
0.0
 71
     0
 42
2.0
  3
TXT
  4
BIGFONT
  0
STYLE
  2
STANDARD1
 70
     0
 40
0.0
 41
1.0
 50
0.0
 71
     0
 42
3.0
  3
txt
  4

  0
ENDTAB
  0
TABLE
  2
VIEW
 70
     1
  0
VIEW
  2
ALL
 70
     0
 40
270.0
 10
220.99159663865549
 20
135.0
 41
0.0
 11
0.0
 21
0.0
 31
1.0
 12
0.0
 22
0.0
 32
0.0
 42
0.0
 43
0.0
 44
0.0
 50
0.0
 71
     0
  0
ENDTAB
  0
TABLE
  2
UCS
 70
     0
  0
ENDTAB
  0
TABLE
  2
APPID
 70
     3
  0
APPID
  2
ACAD
 70
     0
  0
APPID
  2
ACAD_MLEADERVER
 70
     0
  0
APPID
  2
ACAD_NAV_VCDISPLAY
 70
     0
  0
ENDTAB
  0
TABLE
  2
DIMSTYLE
 70
     1
  0
DIMSTYLE
  2
STANDARD
 70
     0
  3

  4

  5

  6

  7

 40
1.0
 41
0.18
 42
0.0625
 43
0.38
 44
0.18
 45
0.0
 46
0.0
 47
0.0
 48
0.0
140
0.18
141
0.09
142
0.0
143
25.399999999999999
144
1.0
145
0.0
146
1.0
147
0.09
 71
     0
 72
     0
 73
     1
 74
     1
 75
     0
 76
     0
 77
     0
 78
     0
170
     0
171
     2
172
     0
173
     0
174
     0
175
     0
176
     0
177
     0
178
     0
  0
ENDTAB
  0
ENDSEC
  0
SECTION
  2
BLOCKS
  0
BLOCK
  8
0
  2
$MODEL_SPACE
 70
     0
 10
0.0
 20
0.0
 30
0.0
  3
$MODEL_SPACE
  1

  0
ENDBLK
  5
217
  8
0
  0
BLOCK
 67
     1
  8
0
  2
$PAPER_SPACE
 70
     0
 10
0.0
 20
0.0
 30
0.0
  3
$PAPER_SPACE
  1

  0
ENDBLK
  5
215
 67
     1
  8
0
  0
ENDSEC
  0
SECTION
  2
ENTITIES
  0
LINE
  5
693
  8
0
 10
75.020067031831417
 20
45.069361755873501
 30
0.0
 11
75.020067031831388
 21
41.469361755873479
 31
0.0
  0
LINE
  5
695
  8
0
 10
90.27413602919242
 20
45.06936175587353
 30
0.0
 11
90.274136029192391
 21
41.469361755873479
 31
0.0
  0
ARC
  5
696
  8
0
 10
40.174136029192397
 20
76.163109040842642
 30
0.0
 40
1.0
 50
0.0
 51
64.055520227629884
  0
LINE
  5
697
  8
0
 10
41.174136029192297
 20
76.163109040842642
 30
0.0
 11
32.174136029192368
 21
76.163109040842642
 31
0.0
  0
ARC
  5
698
  8
0
 10
36.674136029192368
 20
68.969361755873564
 30
0.0
 40
9.0
 50
64.055520227629884
 51
115.9444797723701
  0
ARC
  5
699
  8
0
 10
33.174136029192368
 20
76.163109040842642
 30
0.0
 40
1.0
 50
115.9444797723701
 51
180.0
  0
LINE
  5
69A
  8
0
 10
40.611636029192361
 20
77.062327451463773
 30
0.0
 11
32.736636029192368
 21
77.062327451463773
 31
0.0
  0
CIRCLE
  5
69B
  8
0
 10
65.674136029192368
 20
43.269361755873483
 30
0.0
 40
2.5
  0
ARC
  5
69C
  8
0
 10
92.074136029192346
 20
43.269361755873483
 30
0.0
 40
3.600000000000001
 50
335.20613753694408
 51
24.793862463056691
  0
LINE
  5
69D
  8
0
 10
94.888385485086516
 20
41.469361755873479
 30
0.0
 11
69.790689363889214
 21
41.469361755873479
 31
0.0
  0
LINE
  5
69E
  8
0
 10
94.888385485086516
 20
45.069361755873501
 30
0.0
 11
69.790689363889214
 21
45.069361755873501
 31
0.0
  0
LINE
  5
69F
  8
1
 10
58.674136029192368
 20
43.269361755873483
 30
0.0
 11
98.17413602919234
 21
43.269361755873483
 31
0.0
  0
LINE
  5
6A0
  8
1
 10
65.674136029192368
 20
36.26936175587349
 30
0.0
 11
65.674136029192368
 21
50.26936175587349
 31
0.0
  0
CIRCLE
  5
6A1
  8
0
 10
65.674136029192368
 20
43.269361755873483
 30
0.0
 40
4.5
  0
ARC
  5
6A2
  8
0
 10
94.888385485086516
 20
44.56936175587353
 30
0.0
 40
0.5
 50
24.79386246305587
 51
90.0
  0
ARC
  5
6A3
  8
0
 10
94.888385485086516
 20
41.969361755873479
 30
0.0
 40
0.5
 50
270.0
 51
335.20613753694511
  0
LINE
  5
6A4
  8
0
 10
118.3741360291923
 20
76.163109040842528
 30
0.0
 11
115.6741360291924
 21
76.163109040842528
 31
0.0
  0
LINE
  5
6A5
  8
0
 10
118.3741360291924
 20
67.769361755873462
 30
0.0
 11
115.6741360291924
 21
67.769361755873462
 31
0.0
  0
ARC
  5
6A6
  8
0
 10
120.1741360291924
 20
73.169361755873467
 30
0.0
 40
3.5999999999999921
 50
60.000000000000462
 51
120.0000000000003
  0
LINE
  5
6A7
  8
2
 10
39.674136029192368
 20
67.769361755873462
 30
0.0
 11
39.174136029192368
 21
68.269361755873462
 31
0.0
  0
LINE
  5
6A8
  8
2
 10
34.174136029192368
 20
68.269361755873462
 30
0.0
 11
33.674136029192368
 21
67.769361755873462
 31
0.0
  0
LINE
  5
6A9
  8
2
 10
34.174136029192368
 20
68.269361755873462
 30
0.0
 11
39.174136029192368
 21
68.269361755873462
 31
0.0
  0
LINE
  5
6AA
  8
2
 10
36.674136029192368
 20
75.712737428847532
 30
0.0
 11
34.174136029192368
 21
74.269361755873462
 31
0.0
  0
LINE
  5
6AB
  8
2
 10
34.174136029192368
 20
74.269361755873462
 30
0.0
 11
34.174136029192368
 21
68.269361755873462
 31
0.0
  0
LINE
  5
6AC
  8
2
 10
39.174136029192368
 20
74.269361755873462
 30
0.0
 11
36.674136029192368
 21
75.712737428847532
 31
0.0
  0
LINE
  5
6AD
  8
2
 10
39.174136029192368
 20
68.269361755873462
 30
0.0
 11
39.174136029192368
 21
74.269361755873462
 31
0.0
  0
LINE
  5
6AE
  8
2
 10
34.174136029192368
 20
74.269361755873462
 30
0.0
 11
39.174136029192368
 21
74.269361755873462
 31
0.0
  0
ARC
  5
6AF
  8
0
 10
120.1741360291924
 20
69.569361755873445
 30
0.0
 40
3.5999999999999939
 50
239.99999999999969
 51
299.9999999999996
  0
LINE
  5
6B0
  8
0
 10
115.6741360291924
 20
76.163109040842528
 30
0.0
 11
115.6741360291924
 21
67.769361755873462
 31
0.0
  0
LINE
  5
6B1
  8
0
 10
124.6741360291924
 20
67.769361755873462
 30
0.0
 11
124.6741360291923
 21
76.163109040842528
 31
0.0
  0
LINE
  5
6B2
  8
0
 10
118.3741360291924
 20
66.451670302249482
 30
0.0
 11
118.3741360291922
 21
76.287053209497344
 31
0.0
  0
LINE
  5
6B3
  8
0
 10
121.97413602919239
 20
66.451670302249482
 30
0.0
 11
121.97413602919229
 21
76.287053209497486
 31
0.0
  0
LINE
  5
6B4
  8
0
 10
124.6741360291924
 20
67.769361755873462
 30
0.0
 11
121.97413602919239
 21
67.769361755873462
 31
0.0
  0
LINE
  5
6B5
  8
1
 10
120.1741360291924
 20
80.469361755873464
 30
0.0
 11
120.1741360291924
 21
63.538668825815499
 31
0.0
  0
LINE
  5
6B6
  8
0
 10
124.1116360291924
 20
77.062327451463645
 30
0.0
 11
116.2366360291924
 21
77.062327451463645
 31
0.0
  0
ARC
  5
6B7
  8
0
 10
120.1741360291924
 20
68.96936175587345
 30
0.0
 40
9.0
 50
64.055520227629884
 51
115.9444797723701
  0
LINE
  5
6B8
  8
0
 10
124.6741242046308
 20
76.1631090408425
 30
0.0
 11
121.97413602919239
 21
76.1631090408425
 31
0.0
  0
ARC
  5
6B9
  8
0
 10
116.6741360291924
 20
76.163109040842528
 30
0.0
 40
1.0
 50
115.9444797723701
 51
180.0
  0
ARC
  5
6BA
  8
0
 10
123.6741360291924
 20
76.163109040842528
 30
0.0
 40
1.0
 50
0.0
 51
64.055520227629884
  0
LINE
  5
6BB
  8
2
 10
40.174136029192361
 20
72.769361755873462
 30
0.0
 11
41.174136029192368
 21
72.769361755873462
 31
0.0
  0
LINE
  5
6BC
  8
2
 10
41.174136029192368
 20
70.769361755873462
 30
0.0
 11
40.174136029192361
 21
70.769361755873462
 31
0.0
  0
LINE
  5
6BD
  8
2
 10
39.596785760002717
 20
71.769361755873462
 30
0.0
 11
40.174136029192361
 21
72.769361755873462
 31
0.0
  0
LINE
  5
6BE
  8
2
 10
40.174136029192361
 20
70.769361755873462
 30
0.0
 11
39.596785760002717
 21
71.769361755873462
 31
0.0
  0
LINE
  5
6BF
  8
2
 10
40.174136029192361
 20
70.769361755873462
 30
0.0
 11
40.174136029192361
 21
72.769361755873462
 31
0.0
  0
LINE
  5
6C0
  8
1
 10
42.674136029192333
 20
71.769361755873433
 30
0.0
 11
38.096785760002717
 21
71.769361755873462
 31
0.0
  0
ARC
  5
6C1
  8
0
 10
81.083842504427963
 20
71.75471667731918
 30
0.0
 40
5.785622446724302
 50
234.59099057802041
 51
270.55099374858719
  0
ARC
  5
6C2
  8
0
 10
68.974060038445998
 20
76.865706256263053
 30
0.0
 40
1.0
 50
325.52711200166499
 51
354.47129099089022
  0
LINE
  5
6C3
  8
0
 10
69.611636029192368
 20
77.062327451463688
 30
0.0
 11
61.736636029192368
 21
77.062327451463688
 31
0.0
  0
ARC
  5
6C4
  8
0
 10
69.174136029192368
 20
76.163109040842556
 30
0.0
 40
1.0
 50
37.319040280177077
 51
64.055520227629884
  0
ARC
  5
6C5
  8
0
 10
62.174136029192361
 20
76.163109040842556
 30
0.0
 40
1.0
 50
115.9444797723701
 51
180.0
  0
ARC
  5
6C6
  8
0
 10
65.674136029192368
 20
68.969361755873479
 30
0.0
 40
9.0
 50
64.055520227629884
 51
115.9444797723701
  0
CIRCLE
  5
6C7
  8
0
 10
65.674136029192368
 20
71.76936175587349
 30
0.0
 40
1.0
  0
LINE
  5
6C8
  8
1
 10
63.174136029192368
 20
71.76936175587349
 30
0.0
 11
68.174136029192368
 21
71.76936175587349
 31
0.0
  0
ARC
  5
6C9
  8
0
 10
94.888385485086516
 20
101.1693617558734
 30
0.0
 40
0.5
 50
270.0
 51
335.20613753694511
  0
ARC
  5
6CA
  8
0
 10
94.888385485086516
 20
103.7693617558735
 30
0.0
 40
0.5
 50
24.79386246305587
 51
90.0
  0
CIRCLE
  5
6CB
  8
0
 10
65.674136029192368
 20
102.46936175587351
 30
0.0
 40
4.5
  0
LINE
  5
782
  8
1
 10
65.674136029192368
 20
95.469361755873464
 30
0.0
 11
65.674136029192368
 21
109.46936175587339
 31
0.0
  0
LINE
  5
783
  8
1
 10
58.674136029192368
 20
102.46936175587351
 30
0.0
 11
98.17413602919234
 21
102.46936175587351
 31
0.0
  0
LINE
  5
784
  8
0
 10
94.888385485086516
 20
104.2693617558735
 30
0.0
 11
69.790689363889214
 21
104.2693617558735
 31
0.0
  0
LINE
  5
785
  8
0
 10
94.888385485086516
 20
100.6693617558734
 30
0.0
 11
69.790689363889214
 21
100.6693617558734
 31
0.0
  0
ARC
  5
786
  8
0
 10
92.074136029192346
 20
102.46936175587351
 30
0.0
 40
3.600000000000001
 50
335.20613753694408
 51
24.793862463056691
  0
LINE
  5
787
  8
1
 10
36.674136029192368
 20
80.469361755873464
 30
0.0
 11
36.674136029192368
 21
63.538668825815499
 31
0.0
  0
LINE
  5
788
  8
0
 10
41.174136029192368
 20
67.769361755873462
 30
0.0
 11
32.174136029192397
 21
67.769361755873462
 31
0.0
  0
LINE
  5
789
  8
0
 10
38.47413602919238
 20
66.451670302249482
 30
0.0
 11
38.474136029192351
 21
67.769361755873433
 31
0.0
  0
LINE
  5
78A
  8
0
 10
34.874136029192357
 20
66.451670302249482
 30
0.0
 11
34.874136029192329
 21
67.769361755873433
 31
0.0
  0
LINE
  5
78B
  8
0
 10
41.174136029192368
 20
67.769361755873462
 30
0.0
 11
41.17413602919234
 21
76.163109040842528
 31
0.0
  0
LINE
  5
78C
  8
0
 10
32.174136029192397
 20
76.163109040842528
 30
0.0
 11
32.174136029192397
 21
67.769361755873462
 31
0.0
  0
ARC
  5
78D
  8
0
 10
36.674136029192368
 20
69.569361755873445
 30
0.0
 40
3.5999999999999939
 50
239.99999999999969
 51
299.9999999999996
  0
LINE
  5
78E
  8
1
 10
76.374136029192385
 20
71.369361755873484
 30
0.0
 11
98.174136029192397
 21
71.369361755873484
 31
0.0
  0
LINE
  5
78F
  8
1
 10
65.674136029192368
 20
80.469361755873464
 30
0.0
 11
65.674136029192368
 21
65.26936175587349
 31
0.0
  0
LINE
  5
790
  8
2
 10
63.174136029192368
 20
68.269361755873476
 30
0.0
 11
68.174136029192368
 21
68.269361755873476
 31
0.0
  0
LINE
  5
791
  8
2
 10
63.174136029192368
 20
74.26936175587349
 30
0.0
 11
68.174136029192368
 21
74.26936175587349
 31
0.0
  0
LINE
  5
792
  8
0
 10
82.474136029192366
 20
74.969361755873479
 30
0.0
 11
89.674136029192354
 21
74.969361755873479
 31
0.0
  0
LINE
  5
793
  8
0
 10
89.674136029192354
 20
67.76936175587349
 30
0.0
 11
82.474136029192366
 21
67.76936175587349
 31
0.0
  0
ARC
  5
794
  8
0
 10
89.674136029192354
 20
71.369361755873484
 30
0.0
 40
3.6000000000000121
 50
270.0
 51
90.0
  0
ARC
  5
795
  8
0
 10
82.474136029192366
 20
71.369361755873484
 30
0.0
 40
3.599999999999993
 50
90.0
 51
270.0
  0
LINE
  5
796
  8
0
 10
69.798454154652632
 20
76.163109040842556
 30
0.0
 11
61.174136029192368
 21
76.163109040842556
 31
0.0
  0
LINE
  5
797
  8
0
 10
69.798454154652632
 20
76.299690054053372
 30
0.0
 11
69.798454154652632
 21
67.76936175587349
 31
0.0
  0
LINE
  5
798
  8
0
 10
61.174136029192368
 20
67.76936175587349
 30
0.0
 11
75.020067031831388
 21
67.76936175587349
 31
0.0
  0
ARC
  5
799
  8
0
 10
75.020067031831388
 20
62.369361755873513
 30
0.0
 40
5.3999999999999897
 50
59.858614447926037
 51
90.0
  0
LINE
  5
79A
  8
2
 10
63.174136029192368
 20
68.269361755873476
 30
0.0
 11
62.674136029192368
 21
67.76936175587349
 31
0.0
  0
LINE
  5
79B
  8
2
 10
68.674136029192368
 20
67.76936175587349
 30
0.0
 11
68.174136029192368
 21
68.269361755873476
 31
0.0
  0
LINE
  5
79C
  8
2
 10
63.174136029192368
 20
74.26936175587349
 30
0.0
 11
63.174136029192368
 21
68.269361755873476
 31
0.0
  0
LINE
  5
79D
  8
2
 10
68.174136029192368
 20
68.269361755873476
 30
0.0
 11
68.174136029192368
 21
74.26936175587349
 31
0.0
  0
LINE
  5
79E
  8
2
 10
65.674136029192368
 20
75.712737428847561
 30
0.0
 11
63.174136029192368
 21
74.26936175587349
 31
0.0
  0
LINE
  5
79F
  8
2
 10
68.174136029192368
 20
74.26936175587349
 30
0.0
 11
65.674136029192368
 21
75.712737428847561
 31
0.0
  0
LINE
  5
7A0
  8
0
 10
61.174136029192368
 20
76.163109040842556
 30
0.0
 11
61.174136029192368
 21
67.76936175587349
 31
0.0
  0
LINE
  5
7A1
  8
0
 10
90.274136029192391
 20
76.76936175587349
 30
0.0
 11
69.969408086740998
 21
76.76936175587349
 31
0.0
  0
LINE
  5
7A2
  8
0
 10
81.139479982301566
 20
65.969361755873479
 30
0.0
 11
90.274136029192391
 21
65.969361755873479
 31
0.0
  0
ARC
  5
7A3
  8
0
 10
90.274136029192391
 20
71.369361755873484
 30
0.0
 40
5.3999999999999977
 50
270.0
 51
90.0
  0
LINE
  5
7AD
  8
0
 10
81.139479982301566
 20
45.069361755873501
 30
0.0
 11
81.139479982301566
 21
41.469361755873479
 31
0.0
  0
TEXT
  5
85F
  8
0
 62
     3
 10
0.0
 20
0.0
 30
0.0
 40
10.0
  1
LB30R-SUS
  7
STANDARD1
  0
ENDSEC
  0
EOF
