  0
SECTION
  2
HEADER
  9
$ACADVER
  1
AC1009
  9
$INSBASE
 10
0.0
 20
0.0
 30
0.0
  9
$EXTMIN
 10
0.0
 20
-2.960436562073669
 30
0.0
  9
$EXTMAX
 10
217.50000000000011
 20
80.500000000000085
 30
0.0
  9
$LIMMIN
 10
0.0
 20
0.0
  9
$LIMMAX
 10
187.5
 20
135.0
  9
$ORTHOMODE
 70
     1
  9
$REGENMODE
 70
     1
  9
$FILLMODE
 70
     1
  9
$QTEXTMODE
 70
     0
  9
$MIRRTEXT
 70
     0
  9
$DRAGMODE
 70
     2
  9
$LTSCALE
 40
5.0
  9
$OSMODE
 70
    37
  9
$ATTMODE
 70
     1
  9
$TEXTSIZE
 40
0.2
  9
$TRACEWID
 40
0.05
  9
$TEXTSTYLE
  7
STANDARD
  9
$CLAYER
  8
0
  9
$CELTYPE
  6
BYLAYER
  9
$CECOLOR
 62
   256
  9
$DIMSCALE
 40
0.5
  9
$DIMASZ
 40
3.0
  9
$DIMEXO
 40
2.0
  9
$DIMDLI
 40
0.38
  9
$DIMRND
 40
0.0
  9
$DIMDLE
 40
0.0
  9
$DIMEXE
 40
2.0
  9
$DIMTP
 40
0.0
  9
$DIMTM
 40
0.0
  9
$DIMTXT
 40
3.2000000000000002
  9
$DIMCEN
 40
0.0
  9
$DIMTSZ
 40
0.0
  9
$DIMTOL
 70
     0
  9
$DIMLIM
 70
     0
  9
$DIMTIH
 70
     0
  9
$DIMTOH
 70
     0
  9
$DIMSE1
 70
     0
  9
$DIMSE2
 70
     0
  9
$DIMTAD
 70
     1
  9
$DIMZIN
 70
     0
  9
$DIMBLK
  1

  9
$DIMASO
 70
     1
  9
$DIMSHO
 70
     0
  9
$DIMPOST
  1

  9
$DIMAPOST
  1

  9
$DIMALT
 70
     0
  9
$DIMALTD
 70
     2
  9
$DIMALTF
 40
25.399999999999999
  9
$DIMLFAC
 40
1.0
  9
$DIMTOFL
 70
     1
  9
$DIMTVP
 40
1.6000000000000001
  9
$DIMTIX
 70
     1
  9
$DIMSOXD
 70
     0
  9
$DIMSAH
 70
     0
  9
$DIMBLK1
  1

  9
$DIMBLK2
  1

  9
$DIMSTYLE
  2
STANDARD
  9
$DIMCLRD
 70
     0
  9
$DIMCLRE
 70
     0
  9
$DIMCLRT
 70
     0
  9
$DIMTFAC
 40
1.0
  9
$DIMGAP
 40
0.09
  9
$LUNITS
 70
     2
  9
$LUPREC
 70
     4
  9
$SKETCHINC
 40
0.1
  9
$FILLETRAD
 40
0.6
  9
$AUNITS
 70
     1
  9
$AUPREC
 70
     4
  9
$MENU
  1
E:\r13\win\SUPPORT\ACAD
  9
$ELEVATION
 40
0.0
  9
$PELEVATION
 40
0.0
  9
$THICKNESS
 40
0.0
  9
$LIMCHECK
 70
     0
  9
$BLIPMODE
 70
     0
  9
$CHAMFERA
 40
0.0
  9
$CHAMFERB
 40
0.0
  9
$SKPOLY
 70
     0
  9
$TDCREATE
 40
2449839.7863657409
  9
$TDUPDATE
 40
2457179.3856116319
  9
$TDINDWG
 40
0.0077270833
  9
$TDUSRTIMER
 40
2456598.444680382
  9
$USRTIMER
 70
     1
  9
$ANGBASE
 50
0.0
  9
$ANGDIR
 70
     0
  9
$PDMODE
 70
     0
  9
$PDSIZE
 40
0.0
  9
$PLINEWID
 40
0.0
  9
$COORDS
 70
     1
  9
$SPLFRAME
 70
     0
  9
$SPLINETYPE
 70
     6
  9
$SPLINESEGS
 70
     8
  9
$ATTDIA
 70
     0
  9
$ATTREQ
 70
     1
  9
$HANDLING
 70
     1
  9
$HANDSEED
  5
570
  9
$SURFTAB1
 70
     6
  9
$SURFTAB2
 70
     6
  9
$SURFTYPE
 70
     6
  9
$SURFU
 70
     6
  9
$SURFV
 70
     6
  9
$UCSNAME
  2

  9
$UCSORG
 10
0.0
 20
0.0
 30
0.0
  9
$UCSXDIR
 10
1.0
 20
0.0
 30
0.0
  9
$UCSYDIR
 10
0.0
 20
1.0
 30
0.0
  9
$PUCSNAME
  2

  9
$PUCSORG
 10
0.0
 20
0.0
 30
0.0
  9
$PUCSXDIR
 10
1.0
 20
0.0
 30
0.0
  9
$PUCSYDIR
 10
0.0
 20
1.0
 30
0.0
  9
$USERI1
 70
     0
  9
$USERI2
 70
     1
  9
$USERI3
 70
     1
  9
$USERI4
 70
     0
  9
$USERI5
 70
     0
  9
$USERR1
 40
0.0
  9
$USERR2
 40
0.0
  9
$USERR3
 40
0.0
  9
$USERR4
 40
0.0
  9
$USERR5
 40
0.0
  9
$WORLDVIEW
 70
     1
  9
$SHADEDGE
 70
     3
  9
$SHADEDIF
 70
    70
  9
$TILEMODE
 70
     1
  9
$MAXACTVP
 70
    16
  9
$PLIMCHECK
 70
     0
  9
$PEXTMIN
 10
1.0000000000000000E+020
 20
1.0000000000000000E+020
 30
1.0000000000000000E+020
  9
$PEXTMAX
 10
-1.0000000000000000E+020
 20
-1.0000000000000000E+020
 30
-1.0000000000000000E+020
  9
$PLIMMIN
 10
0.0
 20
0.0
  9
$PLIMMAX
 10
12.0
 20
9.0
  9
$UNITMODE
 70
     0
  9
$VISRETAIN
 70
     0
  9
$PLINEGEN
 70
     0
  9
$PSLTSCALE
 70
     0
  0
ENDSEC
  0
SECTION
  2
TABLES
  0
TABLE
  2
VPORT
 70
     1
  0
VPORT
  2
*ACTIVE
 70
     0
 10
0.0
 20
0.0
 11
1.0
 21
1.0
 12
172.54273504273499
 22
95.0
 13
0.0
 23
0.0
 14
5.0
 24
5.0
 15
5.0
 25
5.0
 16
0.0
 26
0.0
 36
1.0
 17
0.0
 27
0.0
 37
0.0
 40
190.0
 41
1.816239316239316
 42
50.0
 43
0.0
 44
0.0
 50
0.0
 51
0.0
 71
     0
 72
   500
 73
     1
 74
     0
 75
     0
 76
     0
 77
     0
 78
     2
  0
ENDTAB
  0
TABLE
  2
LTYPE
 70
     3
  0
LTYPE
  2
CONTINUOUS
 70
     0
  3
Solid Line
 72
    65
 73
     0
 40
0.0
  0
LTYPE
  2
CENTER
 70
     0
  3
____ _ ____ _ ____ _ ____ _ ____ _ ____ _ ____
 72
    65
 73
     4
 40
2.0
 49
1.25
 49
-0.25
 49
0.25
 49
-0.25
  0
LTYPE
  2
PHANTOM2
 70
     0
  3
___ _ _ ___ _ _ ___ _ _ ___ _ _
 72
    65
 73
     6
 40
1.25
 49
0.625
 49
-0.125
 49
0.125
 49
-0.125
 49
0.125
 49
-0.125
  0
ENDTAB
  0
TABLE
  2
LAYER
 70
     3
  0
LAYER
  2
0
 70
     0
 62
     7
  6
CONTINUOUS
  0
LAYER
  2
1
 70
     0
 62
     1
  6
CENTER
  0
LAYER
  2
3
 70
     0
 62
     3
  6
CONTINUOUS
  0
ENDTAB
  0
TABLE
  2
STYLE
 70
     2
  0
STYLE
  2
STANDARD
 70
     0
 40
0.0
 41
1.0
 50
0.0
 71
     0
 42
0.2
  3
TXT
  4
BIGFONT
  0
STYLE
  2
STANDARD1
 70
     0
 40
0.0
 41
1.0
 50
0.0
 71
     0
 42
3.0
  3
txt
  4

  0
ENDTAB
  0
TABLE
  2
VIEW
 70
     1
  0
VIEW
  2
ALL
 70
     0
 40
179.5384664489153
 10
135.0
 20
89.769233224457665
 41
0.0
 11
0.0
 21
0.0
 31
1.0
 12
0.0
 22
0.0
 32
0.0
 42
50.0
 43
0.0
 44
0.0
 50
0.0
 71
     0
  0
ENDTAB
  0
TABLE
  2
UCS
 70
     0
  0
ENDTAB
  0
TABLE
  2
APPID
 70
     3
  0
APPID
  2
ACAD
 70
     0
  0
APPID
  2
ACAD_MLEADERVER
 70
     0
  0
APPID
  2
ACAD_NAV_VCDISPLAY
 70
     0
  0
ENDTAB
  0
TABLE
  2
DIMSTYLE
 70
     1
  0
DIMSTYLE
  2
STANDARD
 70
     0
  3

  4

  5

  6

  7

 40
1.0
 41
0.18
 42
0.0625
 43
0.38
 44
0.18
 45
0.0
 46
0.0
 47
0.0
 48
0.0
140
0.18
141
0.09
142
0.0
143
25.399999999999999
144
1.0
145
0.0
146
1.0
147
0.09
 71
     0
 72
     0
 73
     1
 74
     1
 75
     0
 76
     0
 77
     0
 78
     0
170
     0
171
     2
172
     0
173
     0
174
     0
175
     0
176
     0
177
     0
178
     0
  0
ENDTAB
  0
ENDSEC
  0
SECTION
  2
BLOCKS
  0
BLOCK
  8
0
  2
$MODEL_SPACE
 70
     0
 10
0.0
 20
0.0
 30
0.0
  3
$MODEL_SPACE
  1

  0
ENDBLK
  5
2C0
  8
0
  0
BLOCK
 67
     1
  8
0
  2
$PAPER_SPACE
 70
     0
 10
0.0
 20
0.0
 30
0.0
  3
$PAPER_SPACE
  1

  0
ENDBLK
  5
2BE
 67
     1
  8
0
  0
ENDSEC
  0
SECTION
  2
ENTITIES
  0
LINE
  5
34
  8
1
 10
70.500000000000128
 20
60.0
 30
0.0
 11
29.499999999999869
 21
60.0
 31
0.0
  0
LINE
  5
35
  8
1
 10
50.0
 20
80.500000000000085
 30
0.0
 11
50.0
 21
39.499999999999872
 31
0.0
  0
CIRCLE
  5
36
  8
0
 10
50.0
 20
60.0
 30
0.0
 40
17.0
  0
ARC
  5
37
  8
0
 10
53.316535474274183
 20
76.673349766854926
 30
0.0
 40
1.0000000000000351
 50
347.06458695977761
 51
170.43541304022179
  0
ARC
  5
38
  8
0
 10
56.505618350206561
 20
75.705952052691984
 30
0.0
 40
1.0000000000000351
 50
335.8145869597783
 51
159.1854130402215
  0
ARC
  5
39
  8
0
 10
59.44469396133325
 20
74.134983409143416
 30
0.0
 40
1.0000000000000351
 50
324.56458695977921
 51
147.9354130402206
  0
ARC
  5
3A
  8
0
 10
62.020815280171391
 20
72.020815280171291
 30
0.0
 40
1.0000000000000351
 50
313.31458695977921
 51
136.68541304022071
  0
ARC
  5
3B
  8
0
 10
64.134983409143416
 20
69.444693961333201
 30
0.0
 40
1.0000000000000351
 50
302.06458695977921
 51
125.43541304022121
  0
ARC
  5
3C
  8
0
 10
65.705952052692055
 20
66.505618350206419
 30
0.0
 40
1.0000000000000351
 50
290.81458695977841
 51
114.1854130402217
  0
ARC
  5
3D
  8
0
 10
66.673349766855111
 20
63.316535474273898
 30
0.0
 40
1.0000000000000351
 50
279.5645869597783
 51
102.9354130402215
  0
ARC
  5
3E
  8
0
 10
32.999999999999858
 20
59.999999999999602
 30
0.0
 40
1.0000000000000351
 50
88.314586959778083
 51
271.68541304022142
  0
ARC
  5
3F
  8
0
 10
34.294047947307952
 20
66.505618350206419
 30
0.0
 40
1.0000000000000351
 50
65.81458695977831
 51
249.18541304022131
  0
ARC
  5
40
  8
0
 10
35.865016590856591
 20
69.444693961333201
 30
0.0
 40
1.0000000000000351
 50
54.564586959778801
 51
237.9354130402206
  0
ARC
  5
41
  8
0
 10
37.979184719828602
 20
72.020815280171291
 30
0.0
 40
1.0000000000000351
 50
43.314586959779291
 51
226.68541304022071
  0
ARC
  5
42
  8
0
 10
40.555306038666743
 20
74.134983409143416
 30
0.0
 40
1.0000000000000351
 50
32.064586959779767
 51
215.43541304022091
  0
ARC
  5
43
  8
0
 10
43.494381649793432
 20
75.705952052691984
 30
0.0
 40
1.0000000000000351
 50
20.814586959778051
 51
204.1854130402217
  0
ARC
  5
44
  8
0
 10
46.683464525725817
 20
76.673349766854926
 30
0.0
 40
1.0000000000000351
 50
9.5645869597782003
 51
192.93541304022239
  0
ARC
  5
45
  8
0
 10
49.999999999999929
 20
77.0
 30
0.0
 40
1.0000000000000351
 50
358.31458695977892
 51
181.6854130402227
  0
ARC
  5
46
  8
0
 10
49.999999999999929
 20
42.999999999999901
 30
0.0
 40
1.0000000000000351
 50
178.31458695977801
 51
1.6854130402211061
  0
ARC
  5
47
  8
0
 10
46.683464525725817
 20
43.326650233145081
 30
0.0
 40
1.0000000000000351
 50
167.06458695977841
 51
350.43541304022182
  0
ARC
  5
48
  8
0
 10
43.494381649793432
 20
44.294047947308002
 30
0.0
 40
1.0000000000000351
 50
155.8145869597783
 51
339.18541304022187
  0
ARC
  5
49
  8
0
 10
40.555306038666743
 20
45.865016590856577
 30
0.0
 40
1.0000000000000351
 50
144.5645869597785
 51
327.9354130402217
  0
ARC
  5
4A
  8
0
 10
37.979184719828602
 20
47.979184719828581
 30
0.0
 40
1.0000000000000351
 50
133.31458695977861
 51
316.68541304022119
  0
ARC
  5
4B
  8
0
 10
35.865016590856591
 20
50.555306038666799
 30
0.0
 40
1.0000000000000351
 50
122.06458695977859
 51
305.43541304022119
  0
ARC
  5
4C
  8
0
 10
34.294047947307952
 20
53.494381649793503
 30
0.0
 40
1.0000000000000351
 50
110.8145869597785
 51
294.18541304022182
  0
ARC
  5
4D
  8
0
 10
33.326650233144903
 20
56.683464525725988
 30
0.0
 40
1.0000000000000351
 50
99.564586959778183
 51
282.93541304022182
  0
ARC
  5
4E
  8
0
 10
67.000000000000171
 20
60.000000000000099
 30
0.0
 40
1.0000000000000351
 50
268.31458695977818
 51
91.685413040221889
  0
ARC
  5
4F
  8
0
 10
65.705952052692055
 20
53.494381649793503
 30
0.0
 40
1.0000000000000351
 50
245.81458695977821
 51
69.185413040221732
  0
ARC
  5
50
  8
0
 10
64.134983409143416
 20
50.555306038666799
 30
0.0
 40
1.0000000000000351
 50
234.56458695977881
 51
57.93541304022169
  0
ARC
  5
51
  8
0
 10
62.020815280171391
 20
47.979184719828581
 30
0.0
 40
1.0000000000000351
 50
223.31458695977869
 51
46.685413040221363
  0
ARC
  5
52
  8
0
 10
59.44469396133325
 20
45.865016590856577
 30
0.0
 40
1.0000000000000351
 50
212.0645869597783
 51
35.435413040221412
  0
ARC
  5
53
  8
0
 10
56.505618350206561
 20
44.294047947308002
 30
0.0
 40
1.0000000000000351
 50
200.81458695977801
 51
24.185413040221729
  0
ARC
  5
54
  8
0
 10
53.316535474274183
 20
43.326650233145081
 30
0.0
 40
1.0000000000000351
 50
189.56458695977821
 51
12.93541304022159
  0
ARC
  5
55
  8
0
 10
66.673349766855111
 20
56.683464525725988
 30
0.0
 40
1.0000000000000351
 50
257.06458695977852
 51
80.435413040221718
  0
ARC
  5
56
  8
0
 10
33.326650233144903
 20
63.316535474273898
 30
0.0
 40
1.0000000000000351
 50
77.064586959778083
 51
260.43541304022131
  0
LINE
  5
159
  8
3
 10
117.5
 20
56.676499999999912
 30
0.0
 11
116.3282676286798
 21
56.0
 31
0.0
  0
LINE
  5
15A
  8
3
 10
117.5
 20
63.323500000000088
 30
0.0
 11
116.3282676286798
 21
64.0
 31
0.0
  0
LINE
  5
15B
  8
0
 10
117.5
 20
64.0
 30
0.0
 11
117.5
 21
56.0
 31
0.0
  0
LINE
  5
15C
  8
0
 10
153.80000000000001
 20
56.0
 30
0.0
 11
153.7999999999999
 21
64.0
 31
0.0
  0
LINE
  5
15D
  8
0
 10
154.99999999999989
 20
62.799999999999997
 30
0.0
 11
153.7999999999999
 21
64.0
 31
0.0
  0
LINE
  5
15E
  8
0
 10
153.80000000000001
 20
56.0
 30
0.0
 11
155.0
 21
57.200000000000003
 31
0.0
  0
LINE
  5
15F
  8
0
 10
115.0
 20
56.0
 30
0.0
 11
153.80000000000001
 21
56.0
 31
0.0
  0
LINE
  5
160
  8
3
 10
117.5
 20
56.676499999999912
 30
0.0
 11
154.47649999999979
 21
56.676499999999912
 31
0.0
  0
LINE
  5
161
  8
3
 10
117.5
 20
63.323500000000088
 30
0.0
 11
154.47649999999979
 21
63.323500000000088
 31
0.0
  0
LINE
  5
162
  8
0
 10
115.0
 20
64.0
 30
0.0
 11
153.7999999999999
 21
64.0
 31
0.0
  0
LINE
  5
163
  8
0
 10
155.0
 20
57.200000000000003
 30
0.0
 11
154.99999999999989
 21
62.799999999999997
 31
0.0
  0
LINE
  5
164
  8
0
 10
95.400000000000006
 20
78.0
 30
0.0
 11
104.8
 21
78.0
 31
0.0
  0
LINE
  5
165
  8
0
 10
115.0
 20
65.5
 30
0.0
 11
115.0
 21
54.5
 31
0.0
  0
ARC
  5
166
  8
0
 10
154.0
 20
59.999999999999901
 30
0.0
 40
62.0
 50
164.0059515986926
 51
195.99404840130731
  0
LINE
  5
167
  8
0
 10
107.0
 20
43.516674796749712
 30
0.0
 11
107.0
 21
76.483325203250104
 31
0.0
  0
LINE
  5
168
  8
0
 10
107.0
 20
46.5
 30
0.0
 11
113.7
 21
46.5
 31
0.0
  0
LINE
  5
169
  8
0
 10
107.0
 20
73.5
 30
0.0
 11
113.7
 21
73.5
 31
0.0
  0
LINE
  5
16A
  8
0
 10
114.7
 20
72.5
 30
0.0
 11
114.7
 21
47.5
 31
0.0
  0
LINE
  5
16B
  8
0
 10
113.7
 20
46.5
 30
0.0
 11
114.7
 21
47.5
 31
0.0
  0
LINE
  5
16C
  8
0
 10
114.7
 20
72.5
 30
0.0
 11
113.7
 21
73.5
 31
0.0
  0
LINE
  5
16D
  8
0
 10
113.7
 20
46.5
 30
0.0
 11
113.7
 21
73.5
 31
0.0
  0
LINE
  5
16E
  8
0
 10
114.7
 20
54.5
 30
0.0
 11
115.0
 21
54.5
 31
0.0
  0
LINE
  5
16F
  8
0
 10
114.7
 20
65.5
 30
0.0
 11
115.0
 21
65.5
 31
0.0
  0
LINE
  5
170
  8
0
 10
94.400000000000006
 20
42.916674796749803
 30
0.0
 11
94.400000000000006
 21
77.083325203250098
 31
0.0
  0
LINE
  5
171
  8
0
 10
95.400000000000006
 20
42.0
 30
0.0
 11
95.400000000000006
 21
78.0
 31
0.0
  0
LINE
  5
172
  8
0
 10
94.400000000000006
 20
77.083325203250098
 30
0.0
 11
95.400000000000006
 21
77.083325203250098
 31
0.0
  0
ARC
  5
173
  8
0
 10
106.40000000000001
 20
43.516674796749712
 30
0.0
 40
0.6
 50
270.0
 51
0.0
  0
ARC
  5
174
  8
0
 10
106.40000000000001
 20
76.483325203250104
 30
0.0
 40
0.6
 50
0.0
 51
90.0
  0
LINE
  5
175
  8
0
 10
95.400000000000006
 20
59.000432619531281
 30
0.0
 11
104.8
 21
59.000432619531281
 31
0.0
  0
LINE
  5
176
  8
0
 10
95.400000000000006
 20
60.999567380468498
 30
0.0
 11
104.8
 21
60.999567380468591
 31
0.0
  0
LINE
  5
177
  8
0
 10
95.400000000000006
 20
62.330436550091697
 30
0.0
 11
104.8
 21
62.330436550091697
 31
0.0
  0
LINE
  5
178
  8
0
 10
95.400000000000006
 20
65.570883110956004
 30
0.0
 11
104.8
 21
65.570883110956004
 31
0.0
  0
LINE
  5
179
  8
0
 10
95.400000000000006
 20
67.505618350206589
 30
0.0
 11
104.8
 21
67.505618350206589
 31
0.0
  0
LINE
  5
17A
  8
0
 10
95.400000000000006
 20
64.31653547427419
 30
0.0
 11
104.8
 21
64.31653547427419
 31
0.0
  0
LINE
  5
17B
  8
0
 10
95.400000000000006
 20
68.59724375805348
 30
0.0
 11
104.8
 21
68.59724375805348
 31
0.0
  0
LINE
  5
17C
  8
0
 10
95.400000000000006
 20
71.293217148918814
 30
0.0
 11
104.8
 21
71.293217148918814
 31
0.0
  0
LINE
  5
17D
  8
0
 10
95.400000000000006
 20
73.555198538060409
 30
0.0
 11
104.8
 21
73.555198538060409
 31
0.0
  0
LINE
  5
17E
  8
0
 10
95.400000000000006
 20
75.2962612492272
 30
0.0
 11
104.8
 21
75.2962612492272
 31
0.0
  0
LINE
  5
17F
  8
0
 10
95.400000000000006
 20
70.444693961333286
 30
0.0
 11
104.8
 21
70.444693961333286
 31
0.0
  0
LINE
  5
180
  8
0
 10
95.400000000000006
 20
73.020815280171405
 30
0.0
 11
104.8
 21
73.020815280171405
 31
0.0
  0
LINE
  5
181
  8
0
 10
95.400000000000006
 20
75.134983409143416
 30
0.0
 11
104.8
 21
75.134983409143416
 31
0.0
  0
LINE
  5
182
  8
0
 10
95.400000000000006
 20
76.705952052691998
 30
0.0
 11
104.8
 21
76.705952052692083
 31
0.0
  0
ARC
  5
183
  8
0
 10
104.8
 20
60.0
 30
0.0
 40
0.9995673804687044
 50
270.0
 51
90.0
  0
ARC
  5
184
  8
0
 10
104.8
 20
77.000432619531395
 30
0.0
 40
0.9995673804687044
 50
4.7569137507400532
 51
90.0
  0
POLYLINE
  5
185
  8
0
 66
     1
 10
0.0
 20
0.0
 30
0.0
  0
VERTEX
  5
186
  8
0
 10
104.8
 20
62.330436550091697
 30
0.0
 42
0.0972484206288136
 50
90.0
  0
VERTEX
  5
187
  8
0
 10
105.18334347584261
 20
62.405707501868491
 30
0.0
 42
0.0979678212243771
 50
90.0
  0
VERTEX
  5
188
  8
0
 10
105.50710678118659
 20
62.619258238063999
 30
0.0
 42
0.0990026717700471
 70
     2
 50
44.598982729567787
  0
VERTEX
  5
189
  8
0
 10
105.7427915164764
 20
62.967454815867598
 30
0.0
 42
0.118162139942375
 50
44.598982729567787
  0
VERTEX
  5
18A
  8
0
 10
105.7999999999999
 20
63.31653547427419
 30
0.0
 42
0.0997470565631534
 50
90.0
  0
SEQEND
  5
18B
  8
0
  0
POLYLINE
  5
18C
  8
0
 66
     1
 10
0.0
 20
0.0
 30
0.0
  0
VERTEX
  5
18D
  8
0
 10
105.8
 20
63.316535474294412
 30
0.0
 42
0.0984914033571609
 50
90.0
  0
VERTEX
  5
18E
  8
0
 10
105.7238795325035
 20
63.699218906657997
 30
0.0
 42
0.0984914033571505
 50
90.0
  0
VERTEX
  5
18F
  8
0
 10
105.5071067811722
 20
64.023642255475096
 30
0.0
 42
0.0984914033571655
 70
     2
 50
135.00000000116071
  0
VERTEX
  5
190
  8
0
 10
105.1544820305826
 20
64.2592585810103
 30
0.0
 42
0.116778796887844
 50
135.00000000116071
  0
VERTEX
  5
191
  8
0
 10
104.7999999999797
 20
64.31653547427419
 30
0.0
 42
0.0984914033571699
 50
90.0
  0
SEQEND
  5
192
  8
0
  0
POLYLINE
  5
193
  8
0
 66
     1
 10
0.0
 20
0.0
 30
0.0
  0
VERTEX
  5
194
  8
0
 10
104.8
 20
65.570883110956004
 30
0.0
 42
0.0926149598708974
 50
90.0
  0
VERTEX
  5
195
  8
0
 10
105.1857730946877
 20
65.642958055378699
 30
0.0
 42
0.0958599469429265
 50
90.0
  0
VERTEX
  5
196
  8
0
 10
105.50710678118649
 20
65.844660723918494
 30
0.0
 42
0.1008368288639902
 70
     2
 50
43.06796410831172
  0
VERTEX
  5
197
  8
0
 10
105.7249513117485
 20
66.151017522231598
 30
0.0
 42
0.1046621808919001
 50
43.06796410831172
  0
VERTEX
  5
198
  8
0
 10
105.8
 20
66.505618350206589
 30
0.0
 42
0.1046621808919182
 50
90.0
  0
SEQEND
  5
199
  8
0
  0
POLYLINE
  5
19A
  8
0
 66
     1
 10
0.0
 20
0.0
 30
0.0
  0
VERTEX
  5
19B
  8
0
 10
105.8
 20
66.505618350206589
 30
0.0
 42
0.0984914033571539
 50
90.0
  0
VERTEX
  5
19C
  8
0
 10
105.7238795325113
 20
66.888301782571602
 30
0.0
 42
0.0984914033571625
 50
90.0
  0
VERTEX
  5
19D
  8
0
 10
105.50710678118649
 20
67.212725131393086
 30
0.0
 42
0.0984914033571685
 70
     2
 50
134.99999999999901
  0
VERTEX
  5
19E
  8
0
 10
105.1544820306018
 20
67.448341456935495
 30
0.0
 42
0.1167787968878553
 50
134.99999999999901
  0
VERTEX
  5
19F
  8
0
 10
104.8
 20
67.505618350206589
 30
0.0
 42
0.0984914033571346
 50
90.0
  0
SEQEND
  5
1A0
  8
0
  0
POLYLINE
  5
1A1
  8
0
 66
     1
 10
0.0
 20
0.0
 30
0.0
  0
VERTEX
  5
1A2
  8
0
 10
104.8
 20
68.59724375805348
 30
0.0
 42
0.0845979538028016
 50
90.0
  0
VERTEX
  5
1A3
  8
0
 10
105.1898489677429
 20
68.663680080367413
 30
0.0
 42
0.0916109803249698
 50
90.0
  0
VERTEX
  5
1A4
  8
0
 10
105.50710678118649
 20
68.845456175876194
 30
0.0
 42
0.1036578977342116
 70
     2
 50
40.279615507528128
  0
VERTEX
  5
1A5
  8
0
 10
105.7266635169378
 20
69.127648344658695
 30
0.0
 42
0.1141490444317177
 50
40.279615507528128
  0
VERTEX
  5
1A6
  8
0
 10
105.8
 20
69.444693961333201
 30
0.0
 42
0.1141490444317194
 50
90.0
  0
SEQEND
  5
1A7
  8
0
  0
POLYLINE
  5
1A8
  8
0
 66
     1
 10
0.0
 20
0.0
 30
0.0
  0
VERTEX
  5
1A9
  8
0
 10
105.8
 20
69.444693961333201
 30
0.0
 42
0.0984914033571684
 50
90.0
  0
VERTEX
  5
1AA
  8
0
 10
105.7238795325113
 20
69.827377393698413
 30
0.0
 42
0.0984914033571683
 50
90.0
  0
VERTEX
  5
1AB
  8
0
 10
105.50710678118649
 20
70.151800742519811
 30
0.0
 42
0.098491403357175
 70
     2
 50
134.99999999999881
  0
VERTEX
  5
1AC
  8
0
 10
105.1544820306017
 20
70.387417068062206
 30
0.0
 42
0.1167787968878664
 50
134.99999999999881
  0
VERTEX
  5
1AD
  8
0
 10
104.8
 20
70.444693961333286
 30
0.0
 42
0.0984914033571556
 50
90.0
  0
SEQEND
  5
1AE
  8
0
  0
POLYLINE
  5
1AF
  8
0
 66
     1
 10
0.0
 20
0.0
 30
0.0
  0
VERTEX
  5
1B0
  8
0
 10
104.8
 20
71.293217148918814
 30
0.0
 42
0.0733117432078528
 50
90.0
  0
VERTEX
  5
1B1
  8
0
 10
105.19525908202191
 20
71.351484578369906
 30
0.0
 42
0.0842700810583048
 50
90.0
  0
VERTEX
  5
1B2
  8
0
 10
105.50710678118659
 20
71.506325707584011
 30
0.0
 42
0.1064634149370646
 70
     2
 50
36.039565861127059
  0
VERTEX
  5
1B3
  8
0
 10
105.74551267517271
 20
71.77290818714971
 30
0.0
 42
0.1517399511944181
 50
36.039565861127059
  0
VERTEX
  5
1B4
  8
0
 10
105.8
 20
72.020815280171405
 30
0.0
 42
0.1301097382092303
 50
90.0
  0
SEQEND
  5
1B5
  8
0
  0
POLYLINE
  5
1B6
  8
0
 66
     1
 10
0.0
 20
0.0
 30
0.0
  0
VERTEX
  5
1B7
  8
0
 10
105.80000000000589
 20
72.020815280171405
 30
0.0
 42
0.0984914033576747
 50
90.0
  0
VERTEX
  5
1B8
  8
0
 10
105.7238795325168
 20
72.403498712536191
 30
0.0
 42
0.0984914033573845
 50
90.0
  0
VERTEX
  5
1B9
  8
0
 10
105.5071067811907
 20
72.727922061357901
 30
0.0
 42
0.0984914033569561
 70
     2
 50
135.00000000016809
  0
VERTEX
  5
1BA
  8
0
 10
105.1544820306041
 20
72.963538386900183
 30
0.0
 42
0.1167787968872995
 50
135.00000000016809
  0
VERTEX
  5
1BB
  8
0
 10
104.8
 20
73.020815280171405
 30
0.0
 42
0.0984914033566435
 50
90.0
  0
SEQEND
  5
1BC
  8
0
  0
POLYLINE
  5
1BD
  8
0
 66
     1
 10
0.0
 20
0.0
 30
0.0
  0
VERTEX
  5
1BE
  8
0
 10
104.8
 20
73.555198538060409
 30
0.0
 42
0.0589911121922398
 50
90.0
  0
VERTEX
  5
1BF
  8
0
 10
105.20143220336421
 20
73.60272579489299
 30
0.0
 42
0.0725598144814817
 50
90.0
  0
VERTEX
  5
1C0
  8
0
 10
105.50710678118659
 20
73.725013595171305
 30
0.0
 42
0.1066594607029755
 70
     2
 50
30.104509019113799
  0
VERTEX
  5
1C1
  8
0
 10
105.74915020777919
 20
73.945107552094811
 30
0.0
 42
0.1812863563258501
 50
30.104509019113799
  0
VERTEX
  5
1C2
  8
0
 10
105.7999999999865
 20
74.134983409143416
 30
0.0
 42
0.1563410729737865
 50
90.0
  0
SEQEND
  5
1C3
  8
0
  0
POLYLINE
  5
1C4
  8
0
 66
     1
 10
0.0
 20
0.0
 30
0.0
  0
VERTEX
  5
1C5
  8
0
 10
105.8
 20
74.13498340909959
 30
0.0
 42
0.0984914033571656
 50
90.0
  0
VERTEX
  5
1C6
  8
0
 10
105.723879532528
 20
74.517666841467985
 30
0.0
 42
0.0984914033571732
 50
90.0
  0
VERTEX
  5
1C7
  8
0
 10
105.5071067812175
 20
74.84209019029899
 30
0.0
 42
0.0984914033571693
 70
     2
 50
134.99999999749031
  0
VERTEX
  5
1C8
  8
0
 10
105.154482030643
 20
75.077706515856789
 30
0.0
 42
0.1167787969021638
 50
134.99999999749031
  0
VERTEX
  5
1C9
  8
0
 10
104.8
 20
75.134983409140403
 30
0.0
 42
0.0984914033571892
 50
90.0
  0
SEQEND
  5
1CA
  8
0
  0
POLYLINE
  5
1CB
  8
0
 66
     1
 10
0.0
 20
0.0
 30
0.0
  0
VERTEX
  5
1CC
  8
0
 10
105.80068058209901
 20
75.705952052691984
 30
0.0
 42
0.0985521367319277
 50
90.0
  0
VERTEX
  5
1CD
  8
0
 10
105.72451869156519
 20
76.0886031492158
 30
0.0
 42
0.0985165391957271
 50
90.0
  0
VERTEX
  5
1CE
  8
0
 10
105.5075880254039
 20
76.413058833878566
 30
0.0
 42
0.0984662384315616
 70
     2
 50
135.01949060771051
  0
VERTEX
  5
1CF
  8
0
 10
105.18297621387509
 20
76.629821217717108
 30
0.0
 42
0.098430699912055
 50
135.01949060771051
  0
VERTEX
  5
1D0
  8
0
 10
104.8
 20
76.705952052691998
 30
0.0
 42
0.0984306999120812
 50
90.0
  0
SEQEND
  5
1D1
  8
0
  0
POLYLINE
  5
1D2
  8
0
 66
     1
 10
0.0
 20
0.0
 30
0.0
  0
VERTEX
  5
1D3
  8
0
 10
104.8
 20
75.2962612492272
 30
0.0
 42
0.0420492744401184
 50
90.0
  0
VERTEX
  5
1D4
  8
0
 10
105.2074544562783
 20
75.330588272769205
 30
0.0
 42
0.0552396917260518
 50
90.0
  0
VERTEX
  5
1D5
  8
0
 10
105.50710678118659
 20
75.416256907372315
 30
0.0
 42
0.0980817873955073
 70
     2
 50
22.278461298273271
  0
VERTEX
  5
1D6
  8
0
 10
105.7568833495486
 20
75.581467412076705
 30
0.0
 42
0.2328031160041269
 50
22.27846129827325
  0
VERTEX
  5
1D7
  8
0
 10
105.8
 20
75.705952052692083
 30
0.0
 42
0.2003393978356608
 50
90.0
  0
SEQEND
  5
1D8
  8
0
  0
LINE
  5
1D9
  8
0
 10
95.400000000000006
 20
77.673349766855097
 30
0.0
 11
104.8
 21
77.673349766855097
 31
0.0
  0
POLYLINE
  5
1DA
  8
0
 66
     1
 10
0.0
 20
0.0
 30
0.0
  0
VERTEX
  5
1DB
  8
0
 10
105.4133607418289
 20
76.496080839362406
 30
0.0
 42
0.010224024522437
 50
90.0
  0
VERTEX
  5
1DC
  8
0
 10
105.50710678118649
 20
76.515062112159512
 30
0.0
 42
0.0689194230718931
 70
     2
 50
12.617791902249531
  0
VERTEX
  5
1DD
  8
0
 10
105.7722025881969
 20
76.614192705381214
 30
0.0
 50
12.617791902249531
  0
VERTEX
  5
1DE
  8
0
 10
105.8
 20
76.673349766855097
 30
0.0
 50
90.0
  0
SEQEND
  5
1DF
  8
0
  0
POLYLINE
  5
1E0
  8
0
 66
     1
 10
0.0
 20
0.0
 30
0.0
  0
VERTEX
  5
1E1
  8
0
 10
105.8
 20
76.673349766855097
 30
0.0
 42
0.0984914033571573
 50
90.0
  0
VERTEX
  5
1E2
  8
0
 10
105.7238795325113
 20
77.056033199220082
 30
0.0
 42
0.0984914033571792
 50
90.0
  0
VERTEX
  5
1E3
  8
0
 10
105.50710678118659
 20
77.380456548041593
 30
0.0
 42
0.0984914033571525
 70
     2
 50
134.9999999999965
  0
VERTEX
  5
1E4
  8
0
 10
105.1544820306018
 20
77.616072873584017
 30
0.0
 42
0.1167787968879025
 50
134.9999999999965
  0
VERTEX
  5
1E5
  8
0
 10
104.8
 20
77.673349766855921
 30
0.0
 42
0.098491403357132
 50
90.0
  0
SEQEND
  5
1E6
  8
0
  0
LINE
  5
1E7
  8
0
 10
105.712096563722
 20
77.083325203250098
 30
0.0
 11
106.40000000000001
 21
77.083325203250098
 31
0.0
  0
POLYLINE
  5
1E8
  8
0
 66
     1
 10
0.0
 20
0.0
 30
0.0
  0
VERTEX
  5
1E9
  8
0
 10
105.8
 20
43.326650233144917
 30
0.0
 42
-0.0984914033571573
 50
90.0
  0
VERTEX
  5
1EA
  8
0
 10
105.7238795325113
 20
42.943966800779918
 30
0.0
 42
-0.0984914033571792
 50
90.0
  0
VERTEX
  5
1EB
  8
0
 10
105.50710678118659
 20
42.619543451958293
 30
0.0
 42
-0.0984914033571525
 70
     2
 50
225.0000000000035
  0
VERTEX
  5
1EC
  8
0
 10
105.1544820306018
 20
42.383927126415898
 30
0.0
 42
-0.1167787968879025
 50
90.0
  0
VERTEX
  5
1ED
  8
0
 10
104.8
 20
42.326650233143987
 30
0.0
 42
-0.098491403357132
 50
90.0
  0
SEQEND
  5
1EE
  8
0
  0
POLYLINE
  5
1EF
  8
0
 66
     1
 10
0.0
 20
0.0
 30
0.0
  0
VERTEX
  5
1F0
  8
0
 10
105.4133607418289
 20
43.503919160637487
 30
0.0
 42
-0.010224024522437
 50
90.0
  0
VERTEX
  5
1F1
  8
0
 10
105.50710678118649
 20
43.484937887840502
 30
0.0
 42
-0.0689194230718931
 70
     2
 50
347.38220809775049
  0
VERTEX
  5
1F2
  8
0
 10
105.7722025881969
 20
43.3858072946188
 30
0.0
 50
90.0
  0
VERTEX
  5
1F3
  8
0
 10
105.8
 20
43.326650233144917
 30
0.0
 50
90.0
  0
SEQEND
  5
1F4
  8
0
  0
LINE
  5
1F5
  8
0
 10
95.400000000000006
 20
42.326650233144797
 30
0.0
 11
104.8
 21
42.326650233144797
 31
0.0
  0
POLYLINE
  5
1F6
  8
0
 66
     1
 10
0.0
 20
0.0
 30
0.0
  0
VERTEX
  5
1F7
  8
0
 10
104.8
 20
44.7037387507728
 30
0.0
 42
-0.0420492744401184
 50
90.0
  0
VERTEX
  5
1F8
  8
0
 10
105.2074544562783
 20
44.669411727230688
 30
0.0
 42
-0.0552396917260518
 50
90.0
  0
VERTEX
  5
1F9
  8
0
 10
105.50710678118659
 20
44.583743092627699
 30
0.0
 42
-0.0980817873955073
 70
     2
 50
337.72153870172679
  0
VERTEX
  5
1FA
  8
0
 10
105.7568833495486
 20
44.418532587923202
 30
0.0
 42
-0.2328031160041269
 50
90.0
  0
VERTEX
  5
1FB
  8
0
 10
105.8
 20
44.294047947307917
 30
0.0
 42
-0.2003393978356608
 50
90.0
  0
SEQEND
  5
1FC
  8
0
  0
POLYLINE
  5
1FD
  8
0
 66
     1
 10
0.0
 20
0.0
 30
0.0
  0
VERTEX
  5
1FE
  8
0
 10
105.80068058209901
 20
44.294047947307917
 30
0.0
 42
-0.0985521367319277
 50
90.0
  0
VERTEX
  5
1FF
  8
0
 10
105.72451869156519
 20
43.9113968507842
 30
0.0
 42
-0.0985165391957271
 50
90.0
  0
VERTEX
  5
200
  8
0
 10
105.5075880254039
 20
43.586941166121413
 30
0.0
 42
-0.0984662384315616
 70
     2
 50
224.9805093922896
  0
VERTEX
  5
201
  8
0
 10
105.18297621387509
 20
43.370178782282899
 30
0.0
 42
-0.098430699912055
 50
90.0
  0
VERTEX
  5
202
  8
0
 10
104.8
 20
43.294047947307909
 30
0.0
 42
-0.0984306999120812
 50
90.0
  0
SEQEND
  5
203
  8
0
  0
POLYLINE
  5
204
  8
0
 66
     1
 10
0.0
 20
0.0
 30
0.0
  0
VERTEX
  5
205
  8
0
 10
105.8
 20
45.865016590900282
 30
0.0
 42
-0.0984914033571656
 50
90.0
  0
VERTEX
  5
206
  8
0
 10
105.723879532528
 20
45.482333158531908
 30
0.0
 42
-0.0984914033571732
 50
90.0
  0
VERTEX
  5
207
  8
0
 10
105.5071067812175
 20
45.15790980970101
 30
0.0
 42
-0.0984914033571693
 70
     2
 50
225.00000000250969
  0
VERTEX
  5
208
  8
0
 10
105.154482030643
 20
44.922293484143083
 30
0.0
 42
-0.1167787969021638
 50
90.0
  0
VERTEX
  5
209
  8
0
 10
104.8
 20
44.865016590859511
 30
0.0
 42
-0.0984914033571892
 50
90.0
  0
SEQEND
  5
20A
  8
0
  0
POLYLINE
  5
20B
  8
0
 66
     1
 10
0.0
 20
0.0
 30
0.0
  0
VERTEX
  5
20C
  8
0
 10
104.8
 20
46.444801461939498
 30
0.0
 42
-0.0589911121922398
 50
90.0
  0
VERTEX
  5
20D
  8
0
 10
105.20143220336421
 20
46.397274205106989
 30
0.0
 42
-0.0725598144814817
 50
90.0
  0
VERTEX
  5
20E
  8
0
 10
105.50710678118659
 20
46.274986404828688
 30
0.0
 42
-0.1066594607029755
 70
     2
 50
329.89549098088622
  0
VERTEX
  5
20F
  8
0
 10
105.74915020777919
 20
46.054892447905203
 30
0.0
 42
-0.1812863563258501
 50
90.0
  0
VERTEX
  5
210
  8
0
 10
105.7999999999865
 20
45.865016590856577
 30
0.0
 42
-0.1563410729737865
 50
90.0
  0
SEQEND
  5
211
  8
0
  0
POLYLINE
  5
212
  8
0
 66
     1
 10
0.0
 20
0.0
 30
0.0
  0
VERTEX
  5
213
  8
0
 10
105.80000000000589
 20
47.979184719828581
 30
0.0
 42
-0.0984914033576747
 50
90.0
  0
VERTEX
  5
214
  8
0
 10
105.7238795325168
 20
47.596501287463788
 30
0.0
 42
-0.0984914033573845
 50
90.0
  0
VERTEX
  5
215
  8
0
 10
105.5071067811907
 20
47.272077938641999
 30
0.0
 42
-0.0984914033569561
 70
     2
 50
224.99999999983191
  0
VERTEX
  5
216
  8
0
 10
105.1544820306041
 20
47.036461613099704
 30
0.0
 42
-0.1167787968872995
 50
90.0
  0
VERTEX
  5
217
  8
0
 10
104.8
 20
46.979184719828581
 30
0.0
 42
-0.0984914033566435
 50
90.0
  0
SEQEND
  5
218
  8
0
  0
POLYLINE
  5
219
  8
0
 66
     1
 10
0.0
 20
0.0
 30
0.0
  0
VERTEX
  5
21A
  8
0
 10
104.8
 20
48.706782851081201
 30
0.0
 42
-0.0733117432078528
 50
90.0
  0
VERTEX
  5
21B
  8
0
 10
105.19525908202191
 20
48.648515421629988
 30
0.0
 42
-0.0842700810583048
 50
90.0
  0
VERTEX
  5
21C
  8
0
 10
105.50710678118659
 20
48.493674292415903
 30
0.0
 42
-0.1064634149370646
 70
     2
 50
323.96043413887298
  0
VERTEX
  5
21D
  8
0
 10
105.74551267517271
 20
48.227091812850311
 30
0.0
 42
-0.1517399511944181
 50
90.0
  0
VERTEX
  5
21E
  8
0
 10
105.8
 20
47.979184719828581
 30
0.0
 42
-0.1301097382092303
 50
90.0
  0
SEQEND
  5
21F
  8
0
  0
POLYLINE
  5
220
  8
0
 66
     1
 10
0.0
 20
0.0
 30
0.0
  0
VERTEX
  5
221
  8
0
 10
105.8
 20
50.5553060386667
 30
0.0
 42
-0.0984914033571684
 50
90.0
  0
VERTEX
  5
222
  8
0
 10
105.7238795325113
 20
50.17262260630158
 30
0.0
 42
-0.0984914033571683
 50
90.0
  0
VERTEX
  5
223
  8
0
 10
105.50710678118649
 20
49.84819925748009
 30
0.0
 42
-0.098491403357175
 70
     2
 50
225.00000000000131
  0
VERTEX
  5
224
  8
0
 10
105.1544820306017
 20
49.612582931937688
 30
0.0
 42
-0.1167787968878664
 50
90.0
  0
VERTEX
  5
225
  8
0
 10
104.8
 20
49.555306038666593
 30
0.0
 42
-0.0984914033571556
 50
90.0
  0
SEQEND
  5
226
  8
0
  0
POLYLINE
  5
227
  8
0
 66
     1
 10
0.0
 20
0.0
 30
0.0
  0
VERTEX
  5
228
  8
0
 10
104.8
 20
51.402756241946499
 30
0.0
 42
-0.0845979538028016
 50
90.0
  0
VERTEX
  5
229
  8
0
 10
105.1898489677429
 20
51.336319919632587
 30
0.0
 42
-0.0916109803249698
 50
90.0
  0
VERTEX
  5
22A
  8
0
 10
105.50710678118649
 20
51.154543824123799
 30
0.0
 42
-0.1036578977342116
 70
     2
 50
319.72038449247191
  0
VERTEX
  5
22B
  8
0
 10
105.7266635169378
 20
50.872351655341312
 30
0.0
 42
-0.1141490444317177
 50
90.0
  0
VERTEX
  5
22C
  8
0
 10
105.8
 20
50.5553060386667
 30
0.0
 42
-0.1141490444317194
 50
90.0
  0
SEQEND
  5
22D
  8
0
  0
POLYLINE
  5
22E
  8
0
 66
     1
 10
0.0
 20
0.0
 30
0.0
  0
VERTEX
  5
22F
  8
0
 10
105.8
 20
53.494381649793411
 30
0.0
 42
-0.0984914033571539
 50
90.0
  0
VERTEX
  5
230
  8
0
 10
105.7238795325113
 20
53.111698217428291
 30
0.0
 42
-0.0984914033571625
 50
90.0
  0
VERTEX
  5
231
  8
0
 10
105.50710678118649
 20
52.787274868606801
 30
0.0
 42
-0.0984914033571685
 70
     2
 50
225.00000000000111
  0
VERTEX
  5
232
  8
0
 10
105.1544820306018
 20
52.551658543064512
 30
0.0
 42
-0.1167787968878553
 50
90.0
  0
VERTEX
  5
233
  8
0
 10
104.8
 20
52.494381649793411
 30
0.0
 42
-0.0984914033571346
 50
90.0
  0
SEQEND
  5
234
  8
0
  0
POLYLINE
  5
235
  8
0
 66
     1
 10
0.0
 20
0.0
 30
0.0
  0
VERTEX
  5
236
  8
0
 10
104.8
 20
54.429116889043897
 30
0.0
 42
-0.0926149598708974
 50
90.0
  0
VERTEX
  5
237
  8
0
 10
105.1857730946877
 20
54.357041944621301
 30
0.0
 42
-0.0958599469429265
 50
90.0
  0
VERTEX
  5
238
  8
0
 10
105.50710678118649
 20
54.155339276081513
 30
0.0
 42
-0.1008368288639902
 70
     2
 50
316.93203589168832
  0
VERTEX
  5
239
  8
0
 10
105.7249513117485
 20
53.848982477768288
 30
0.0
 42
-0.1046621808919001
 50
90.0
  0
VERTEX
  5
23A
  8
0
 10
105.8
 20
53.494381649793411
 30
0.0
 42
-0.1046621808919182
 50
90.0
  0
SEQEND
  5
23B
  8
0
  0
POLYLINE
  5
23C
  8
0
 66
     1
 10
0.0
 20
0.0
 30
0.0
  0
VERTEX
  5
23D
  8
0
 10
105.8
 20
56.683464525705503
 30
0.0
 42
-0.0984914033571609
 50
90.0
  0
VERTEX
  5
23E
  8
0
 10
105.7238795325035
 20
56.30078109334189
 30
0.0
 42
-0.0984914033571505
 50
90.0
  0
VERTEX
  5
23F
  8
0
 10
105.5071067811722
 20
55.976357744524897
 30
0.0
 42
-0.0984914033571655
 70
     2
 50
224.9999999988394
  0
VERTEX
  5
240
  8
0
 10
105.1544820305826
 20
55.7407414189896
 30
0.0
 42
-0.116778796887844
 50
90.0
  0
VERTEX
  5
241
  8
0
 10
104.7999999999797
 20
55.683464525725711
 30
0.0
 42
-0.0984914033571699
 50
90.0
  0
SEQEND
  5
242
  8
0
  0
POLYLINE
  5
243
  8
0
 66
     1
 10
0.0
 20
0.0
 30
0.0
  0
VERTEX
  5
244
  8
0
 10
104.8
 20
57.669563449908303
 30
0.0
 42
-0.0972484206288136
 50
90.0
  0
VERTEX
  5
245
  8
0
 10
105.18334347584261
 20
57.594292498131409
 30
0.0
 42
-0.0979678212243771
 50
90.0
  0
VERTEX
  5
246
  8
0
 10
105.50710678118659
 20
57.380741761935987
 30
0.0
 42
-0.0990026717700471
 70
     2
 50
315.40101727043219
  0
VERTEX
  5
247
  8
0
 10
105.7427915164764
 20
57.032545184132289
 30
0.0
 42
-0.118162139942375
 50
90.0
  0
VERTEX
  5
248
  8
0
 10
105.7999999999999
 20
56.68346452572581
 30
0.0
 42
-0.0997470565631534
 50
90.0
  0
SEQEND
  5
249
  8
0
  0
ARC
  5
24A
  8
0
 10
104.8
 20
42.999567380468513
 30
0.0
 40
0.9995673804687044
 50
270.0
 51
355.24308624925987
  0
LINE
  5
24B
  8
0
 10
95.400000000000006
 20
43.294047947307909
 30
0.0
 11
104.8
 21
43.294047947307909
 31
0.0
  0
LINE
  5
24C
  8
0
 10
95.400000000000006
 20
44.865016590856492
 30
0.0
 11
104.8
 21
44.865016590856492
 31
0.0
  0
LINE
  5
24D
  8
0
 10
95.400000000000006
 20
46.979184719828488
 30
0.0
 11
104.8
 21
46.979184719828488
 31
0.0
  0
LINE
  5
24E
  8
0
 10
95.400000000000006
 20
49.555306038666593
 30
0.0
 11
104.8
 21
49.555306038666593
 31
0.0
  0
LINE
  5
24F
  8
0
 10
95.400000000000006
 20
44.7037387507728
 30
0.0
 11
104.8
 21
44.7037387507728
 31
0.0
  0
LINE
  5
250
  8
0
 10
95.400000000000006
 20
46.444801461939498
 30
0.0
 11
104.8
 21
46.444801461939498
 31
0.0
  0
LINE
  5
251
  8
0
 10
95.400000000000006
 20
48.706782851081201
 30
0.0
 11
104.8
 21
48.706782851081087
 31
0.0
  0
LINE
  5
252
  8
0
 10
95.400000000000006
 20
51.402756241946499
 30
0.0
 11
104.8
 21
51.402756241946499
 31
0.0
  0
LINE
  5
253
  8
0
 10
95.400000000000006
 20
55.683464525725711
 30
0.0
 11
104.8
 21
55.683464525725711
 31
0.0
  0
LINE
  5
254
  8
0
 10
95.400000000000006
 20
52.494381649793411
 30
0.0
 11
104.8
 21
52.494381649793411
 31
0.0
  0
LINE
  5
255
  8
0
 10
95.400000000000006
 20
54.429116889043897
 30
0.0
 11
104.8
 21
54.429116889043989
 31
0.0
  0
LINE
  5
256
  8
0
 10
95.400000000000006
 20
57.669563449908303
 30
0.0
 11
104.8
 21
57.669563449908203
 31
0.0
  0
LINE
  5
257
  8
0
 10
94.400000000000006
 20
42.916674796749902
 30
0.0
 11
95.400000000000006
 21
42.916674796749902
 31
0.0
  0
LINE
  5
258
  8
0
 10
95.400000000000006
 20
42.0
 30
0.0
 11
104.8
 21
42.0
 31
0.0
  0
LINE
  5
259
  8
0
 10
105.712096563722
 20
42.916674796749902
 30
0.0
 11
106.40000000000001
 21
42.916674796749902
 31
0.0
  0
LINE
  5
25A
  8
1
 10
89.499999999999943
 20
60.0
 30
0.0
 11
157.5
 21
60.0
 31
0.0
  0
TEXT
  5
3AC
  8
0
 62
     3
 10
0.0
 20
0.0
 30
0.0
 40
10.0
  1
KS35X40
  7
STANDARD1
  0
LINE
  5
4A8
  8
1
 10
176.4999999999998
 20
60.0
 30
0.0
 11
217.50000000000011
 21
60.0
 31
0.0
  0
LINE
  5
4A9
  8
1
 10
196.99999999999989
 20
80.500000000000085
 30
0.0
 11
196.99999999999989
 21
39.499999999999872
 31
0.0
  0
CIRCLE
  5
4AA
  8
0
 10
196.99999999999989
 20
60.0
 30
0.0
 40
17.0
  0
ARC
  5
4AB
  8
0
 10
193.6834645257257
 20
76.673349766854926
 30
0.0
 40
1.0000000000000351
 50
9.5645869597782625
 51
192.93541304022239
  0
ARC
  5
4AC
  8
0
 10
190.4943816497933
 20
75.705952052691984
 30
0.0
 40
1.0000000000000351
 50
20.814586959778762
 51
204.18541304022199
  0
ARC
  5
4AD
  8
0
 10
187.55530603866671
 20
74.134983409143416
 30
0.0
 40
1.0000000000000351
 50
32.064586959779128
 51
215.43541304022091
  0
ARC
  5
4AE
  8
0
 10
184.97918471982851
 20
72.020815280171291
 30
0.0
 40
1.0000000000000351
 50
43.314586959779582
 51
226.68541304022071
  0
ARC
  5
4AF
  8
0
 10
182.8650165908565
 20
69.444693961333201
 30
0.0
 40
1.0000000000000351
 50
54.564586959778318
 51
237.93541304022071
  0
ARC
  5
4B0
  8
0
 10
181.29404794730789
 20
66.505618350206419
 30
0.0
 40
1.0000000000000351
 50
65.814586959779021
 51
249.18541304022119
  0
ARC
  5
4B1
  8
0
 10
180.32665023314479
 20
63.316535474273898
 30
0.0
 40
1.0000000000000351
 50
77.064586959778794
 51
260.43541304022142
  0
ARC
  5
4B2
  8
0
 10
214.00000000000011
 20
59.999999999999602
 30
0.0
 40
1.0000000000000351
 50
268.31458695977892
 51
91.685413040222727
  0
ARC
  5
4B3
  8
0
 10
212.705952052692
 20
66.505618350206419
 30
0.0
 40
1.0000000000000351
 50
290.81458695977892
 51
114.18541304022099
  0
ARC
  5
4B4
  8
0
 10
211.13498340914339
 20
69.444693961333201
 30
0.0
 40
1.0000000000000351
 50
302.06458695977938
 51
125.4354130402217
  0
ARC
  5
4B5
  8
0
 10
209.0208152801714
 20
72.020815280171291
 30
0.0
 40
1.0000000000000351
 50
313.31458695977938
 51
136.6854130402204
  0
ARC
  5
4B6
  8
0
 10
206.4446939613332
 20
74.134983409143416
 30
0.0
 40
1.0000000000000351
 50
324.56458695977909
 51
147.9354130402206
  0
ARC
  5
4B7
  8
0
 10
203.5056183502065
 20
75.705952052691984
 30
0.0
 40
1.0000000000000351
 50
335.81458695977801
 51
159.18541304022219
  0
ARC
  5
4B8
  8
0
 10
200.3165354742741
 20
76.673349766854926
 30
0.0
 40
1.0000000000000351
 50
347.06458695977761
 51
170.4354130402217
  0
ARC
  5
4B9
  8
0
 10
197.0
 20
77.0
 30
0.0
 40
1.0000000000000351
 50
358.31458695977727
 51
181.68541304022099
  0
ARC
  5
4BA
  8
0
 10
197.0
 20
42.999999999999901
 30
0.0
 40
1.0000000000000351
 50
178.31458695977889
 51
1.6854130402219301
  0
ARC
  5
4BB
  8
0
 10
200.3165354742741
 20
43.326650233145081
 30
0.0
 40
1.0000000000000351
 50
189.56458695977821
 51
12.935413040221651
  0
ARC
  5
4BC
  8
0
 10
203.5056183502065
 20
44.294047947308002
 30
0.0
 40
1.0000000000000351
 50
200.81458695977781
 51
24.185413040222009
  0
ARC
  5
4BD
  8
0
 10
206.4446939613332
 20
45.865016590856577
 30
0.0
 40
1.0000000000000351
 50
212.06458695977841
 51
35.435413040221327
  0
ARC
  5
4BE
  8
0
 10
209.0208152801714
 20
47.979184719828581
 30
0.0
 40
1.0000000000000351
 50
223.3145869597794
 51
46.685413040220944
  0
ARC
  5
4BF
  8
0
 10
211.13498340914339
 20
50.555306038666799
 30
0.0
 40
1.0000000000000351
 50
234.56458695977841
 51
57.935413040220858
  0
ARC
  5
4C0
  8
0
 10
212.705952052692
 20
53.494381649793503
 30
0.0
 40
1.0000000000000351
 50
245.8145869597775
 51
69.18541304022115
  0
ARC
  5
4C1
  8
0
 10
213.67334976685501
 20
56.683464525725988
 30
0.0
 40
1.0000000000000351
 50
257.06458695977881
 51
80.435413040221405
  0
ARC
  5
4C2
  8
0
 10
179.9999999999998
 20
60.000000000000099
 30
0.0
 40
1.0000000000000351
 50
88.314586959778893
 51
271.68541304022108
  0
ARC
  5
4C3
  8
0
 10
181.29404794730789
 20
53.494381649793503
 30
0.0
 40
1.0000000000000351
 50
110.81458695977879
 51
294.1854130402225
  0
ARC
  5
4C4
  8
0
 10
182.8650165908565
 20
50.555306038666799
 30
0.0
 40
1.0000000000000351
 50
122.0645869597776
 51
305.4354130402217
  0
ARC
  5
4C5
  8
0
 10
184.97918471982851
 20
47.979184719828581
 30
0.0
 40
1.0000000000000351
 50
133.31458695977901
 51
316.68541304022187
  0
ARC
  5
4C6
  8
0
 10
187.55530603866671
 20
45.865016590856577
 30
0.0
 40
1.0000000000000351
 50
144.56458695977869
 51
327.9354130402217
  0
ARC
  5
4C7
  8
0
 10
190.4943816497933
 20
44.294047947308002
 30
0.0
 40
1.0000000000000351
 50
155.8145869597779
 51
339.18541304022222
  0
ARC
  5
4C8
  8
0
 10
193.6834645257257
 20
43.326650233145081
 30
0.0
 40
1.0000000000000351
 50
167.06458695977841
 51
350.43541304022182
  0
ARC
  5
4C9
  8
0
 10
180.32665023314479
 20
56.683464525725988
 30
0.0
 40
1.0000000000000351
 50
99.564586959778609
 51
282.93541304022119
  0
ARC
  5
4CA
  8
0
 10
213.67334976685501
 20
63.316535474273898
 30
0.0
 40
1.0000000000000351
 50
279.56458695977869
 51
102.93541304022121
  0
CIRCLE
  5
4D2
  8
3
 10
196.99999999999989
 20
60.0
 30
0.0
 40
3.3235000000000952
  0
CIRCLE
  5
4D3
  8
0
 10
196.99999999999989
 20
59.999999999999979
 30
0.0
 40
4.0000000000000213
  0
CIRCLE
  5
4D4
  8
0
 10
196.99999999999989
 20
59.999999999999979
 30
0.0
 40
5.5000000000000213
  0
CIRCLE
  5
4D5
  8
0
 10
196.99999999999989
 20
59.999999999999979
 30
0.0
 40
12.50000000000002
  0
CIRCLE
  5
4D6
  8
0
 10
196.99999999999989
 20
60.0
 30
0.0
 40
13.5
  0
ENDSEC
  0
EOF
