  0
SECTION
  2
HEADER
  9
$ACADVER
  1
AC1009
  9
$INSBASE
 10
0.0
 20
0.0
 30
0.0
  9
$EXTMIN
 10
0.0
 20
-2.960436562073669
 30
0.0
  9
$EXTMAX
 10
151.5
 20
83.499999999999986
 30
0.0
  9
$LIMMIN
 10
0.0
 20
0.0
  9
$LIMMAX
 10
187.5
 20
135.0
  9
$ORTHOMODE
 70
     1
  9
$REGENMODE
 70
     1
  9
$FILLMODE
 70
     1
  9
$QTEXTMODE
 70
     0
  9
$MIRRTEXT
 70
     0
  9
$DRAGMODE
 70
     2
  9
$LTSCALE
 40
5.0
  9
$OSMODE
 70
    37
  9
$ATTMODE
 70
     1
  9
$TEXTSIZE
 40
5.0
  9
$TRACEWID
 40
0.05
  9
$TEXTSTYLE
  7
STANDARD
  9
$CLAYER
  8
0
  9
$CELTYPE
  6
BYLAYER
  9
$CECOLOR
 62
   256
  9
$DIMSCALE
 40
0.5
  9
$DIMASZ
 40
3.0
  9
$DIMEXO
 40
2.0
  9
$DIMDLI
 40
0.3799999999999999
  9
$DIMRND
 40
0.0
  9
$DIMDLE
 40
0.0
  9
$DIMEXE
 40
2.0
  9
$DIMTP
 40
0.0
  9
$DIMTM
 40
0.0
  9
$DIMTXT
 40
3.2000000000000002
  9
$DIMCEN
 40
0.09
  9
$DIMTSZ
 40
0.0
  9
$DIMTOL
 70
     0
  9
$DIMLIM
 70
     0
  9
$DIMTIH
 70
     0
  9
$DIMTOH
 70
     0
  9
$DIMSE1
 70
     0
  9
$DIMSE2
 70
     0
  9
$DIMTAD
 70
     1
  9
$DIMZIN
 70
     0
  9
$DIMBLK
  1

  9
$DIMASO
 70
     1
  9
$DIMSHO
 70
     0
  9
$DIMPOST
  1

  9
$DIMAPOST
  1

  9
$DIMALT
 70
     0
  9
$DIMALTD
 70
     2
  9
$DIMALTF
 40
25.399999999999999
  9
$DIMLFAC
 40
1.0
  9
$DIMTOFL
 70
     0
  9
$DIMTVP
 40
1.6000000000000001
  9
$DIMTIX
 70
     1
  9
$DIMSOXD
 70
     0
  9
$DIMSAH
 70
     0
  9
$DIMBLK1
  1

  9
$DIMBLK2
  1

  9
$DIMSTYLE
  2
STANDARD
  9
$DIMCLRD
 70
     0
  9
$DIMCLRE
 70
     0
  9
$DIMCLRT
 70
     0
  9
$DIMTFAC
 40
1.0
  9
$DIMGAP
 40
0.09
  9
$LUNITS
 70
     2
  9
$LUPREC
 70
     4
  9
$SKETCHINC
 40
0.1
  9
$FILLETRAD
 40
0.0
  9
$AUNITS
 70
     0
  9
$AUPREC
 70
     0
  9
$MENU
  1
E:\r13\win\SUPPORT\ACAD
  9
$ELEVATION
 40
0.0
  9
$PELEVATION
 40
0.0
  9
$THICKNESS
 40
0.0
  9
$LIMCHECK
 70
     0
  9
$BLIPMODE
 70
     0
  9
$CHAMFERA
 40
0.0
  9
$CHAMFERB
 40
0.0
  9
$SKPOLY
 70
     0
  9
$TDCREATE
 40
2449839.7861458338
  9
$TDUPDATE
 40
2457179.3855820261
  9
$TDINDWG
 40
0.0499030903
  9
$TDUSRTIMER
 40
0.0499030903
  9
$USRTIMER
 70
     1
  9
$ANGBASE
 50
0.0
  9
$ANGDIR
 70
     0
  9
$PDMODE
 70
     0
  9
$PDSIZE
 40
0.0
  9
$PLINEWID
 40
0.0
  9
$COORDS
 70
     1
  9
$SPLFRAME
 70
     0
  9
$SPLINETYPE
 70
     6
  9
$SPLINESEGS
 70
     8
  9
$ATTDIA
 70
     0
  9
$ATTREQ
 70
     1
  9
$HANDLING
 70
     1
  9
$HANDSEED
  5
AC8
  9
$SURFTAB1
 70
     6
  9
$SURFTAB2
 70
     6
  9
$SURFTYPE
 70
     6
  9
$SURFU
 70
     6
  9
$SURFV
 70
     6
  9
$UCSNAME
  2

  9
$UCSORG
 10
0.0
 20
0.0
 30
0.0
  9
$UCSXDIR
 10
1.0
 20
0.0
 30
0.0
  9
$UCSYDIR
 10
0.0
 20
1.0
 30
0.0
  9
$PUCSNAME
  2

  9
$PUCSORG
 10
0.0
 20
0.0
 30
0.0
  9
$PUCSXDIR
 10
1.0
 20
0.0
 30
0.0
  9
$PUCSYDIR
 10
0.0
 20
1.0
 30
0.0
  9
$USERI1
 70
     0
  9
$USERI2
 70
     1
  9
$USERI3
 70
     1
  9
$USERI4
 70
     0
  9
$USERI5
 70
     0
  9
$USERR1
 40
0.0
  9
$USERR2
 40
0.0
  9
$USERR3
 40
0.0
  9
$USERR4
 40
0.0
  9
$USERR5
 40
0.0
  9
$WORLDVIEW
 70
     1
  9
$SHADEDGE
 70
     3
  9
$SHADEDIF
 70
    70
  9
$TILEMODE
 70
     1
  9
$MAXACTVP
 70
    16
  9
$PLIMCHECK
 70
     0
  9
$PEXTMIN
 10
1.0000000000000000E+020
 20
1.0000000000000000E+020
 30
1.0000000000000000E+020
  9
$PEXTMAX
 10
-1.0000000000000000E+020
 20
-1.0000000000000000E+020
 30
-1.0000000000000000E+020
  9
$PLIMMIN
 10
0.0
 20
0.0
  9
$PLIMMAX
 10
12.0
 20
9.0
  9
$UNITMODE
 70
     0
  9
$VISRETAIN
 70
     0
  9
$PLINEGEN
 70
     0
  9
$PSLTSCALE
 70
     0
  0
ENDSEC
  0
SECTION
  2
TABLES
  0
TABLE
  2
VPORT
 70
     1
  0
VPORT
  2
*ACTIVE
 70
     0
 10
0.0
 20
0.0
 11
1.0
 21
1.0
 12
172.54273504273499
 22
95.0
 13
0.0
 23
0.0
 14
5.0
 24
5.0
 15
5.0
 25
5.0
 16
0.0
 26
0.0
 36
1.0
 17
0.0
 27
0.0
 37
0.0
 40
190.0
 41
1.816239316239316
 42
50.0
 43
0.0
 44
0.0
 50
0.0
 51
0.0
 71
     0
 72
   500
 73
     1
 74
     0
 75
     0
 76
     0
 77
     0
 78
     2
  0
ENDTAB
  0
TABLE
  2
LTYPE
 70
     4
  0
LTYPE
  2
CONTINUOUS
 70
     0
  3
Solid Line
 72
    65
 73
     0
 40
0.0
  0
LTYPE
  2
CENTER
 70
     0
  3
____ _ ____ _ ____ _ ____ _ ____ _ ____ _ ____
 72
    65
 73
     4
 40
2.0
 49
1.25
 49
-0.25
 49
0.25
 49
-0.25
  0
LTYPE
  2
PHANTOM
 70
     0
  3
_____ _ _ _____ _ _ _____ _ _ _____ _ _ ____
 72
    65
 73
     6
 40
2.5
 49
1.25
 49
-0.25
 49
0.25
 49
-0.25
 49
0.25
 49
-0.25
  0
LTYPE
  2
PHANTOM2
 70
     0
  3
___ _ _ ___ _ _ ___ _ _ ___ _ _
 72
    65
 73
     6
 40
1.25
 49
0.625
 49
-0.125
 49
0.125
 49
-0.125
 49
0.125
 49
-0.125
  0
ENDTAB
  0
TABLE
  2
LAYER
 70
     4
  0
LAYER
  2
0
 70
     0
 62
     7
  6
CONTINUOUS
  0
LAYER
  2
1
 70
     0
 62
     1
  6
CENTER
  0
LAYER
  2
3
 70
     0
 62
     3
  6
CONTINUOUS
  0
LAYER
  2
5
 70
     0
 62
     3
  6
PHANTOM
  0
ENDTAB
  0
TABLE
  2
STYLE
 70
     2
  0
STYLE
  2
STANDARD
 70
     0
 40
0.0
 41
1.0
 50
0.0
 71
     0
 42
5.0
  3
TXT
  4
BIGFONT
  0
STYLE
  2
STANDARD1
 70
     0
 40
0.0
 41
1.0
 50
0.0
 71
     0
 42
3.0
  3
txt
  4

  0
ENDTAB
  0
TABLE
  2
VIEW
 70
     1
  0
VIEW
  2
ALL
 70
     0
 40
135.0
 10
110.4957983193277
 20
67.5
 41
0.0
 11
0.0
 21
0.0
 31
1.0
 12
0.0
 22
0.0
 32
0.0
 42
0.0
 43
0.0
 44
0.0
 50
0.0
 71
     0
  0
ENDTAB
  0
TABLE
  2
UCS
 70
     0
  0
ENDTAB
  0
TABLE
  2
APPID
 70
     4
  0
APPID
  2
ACAD
 70
     0
  0
APPID
  2
ACAD_MLEADERVER
 70
     0
  0
APPID
  2
ACAD_EXEMPT_FROM_CAD_STANDARDS
 70
     0
  0
APPID
  2
ACAD_NAV_VCDISPLAY
 70
     0
  0
ENDTAB
  0
TABLE
  2
DIMSTYLE
 70
     1
  0
DIMSTYLE
  2
STANDARD
 70
     0
  3

  4

  5

  6

  7

 40
1.0
 41
0.18
 42
0.0625
 43
0.38
 44
0.18
 45
0.0
 46
0.0
 47
0.0
 48
0.0
140
0.18
141
0.09
142
0.0
143
25.399999999999999
144
1.0
145
0.0
146
1.0
147
0.09
 71
     0
 72
     0
 73
     1
 74
     1
 75
     0
 76
     0
 77
     0
 78
     0
170
     0
171
     2
172
     0
173
     0
174
     0
175
     0
176
     0
177
     0
178
     0
  0
ENDTAB
  0
ENDSEC
  0
SECTION
  2
BLOCKS
  0
BLOCK
  8
0
  2
$MODEL_SPACE
 70
     0
 10
0.0
 20
0.0
 30
0.0
  3
$MODEL_SPACE
  1

  0
ENDBLK
  5
46F
  8
0
  0
BLOCK
 67
     1
  8
0
  2
$PAPER_SPACE
 70
     0
 10
0.0
 20
0.0
 30
0.0
  3
$PAPER_SPACE
  1

  0
ENDBLK
  5
46D
 67
     1
  8
0
  0
ENDSEC
  0
SECTION
  2
ENTITIES
  0
TEXT
  5
55B
  8
0
 62
     3
 10
0.0
 20
0.0
 30
0.0
 40
10.0
  1
KS20X10
  7
STANDARD1
  0
ARC
  5
8C2
  8
0
 10
111.0
 20
70.0
 30
0.0
 40
35.0
 50
163.3984504009785
 51
196.60154959902141
  0
LINE
  5
8C3
  8
0
 10
77.458980337503135
 20
60.0
 30
0.0
 11
78.458980337503135
 21
60.0
 31
0.0
  0
LINE
  5
8C4
  8
0
 10
89.199999999999761
 20
62.500000000000057
 30
0.0
 11
86.0
 21
62.500000000000057
 31
0.0
  0
LINE
  5
8C5
  8
0
 10
77.458980337503135
 20
80.0
 30
0.0
 11
77.458980337503135
 21
60.0
 31
0.0
  0
LINE
  5
8C6
  8
0
 10
86.0
 20
79.5
 30
0.0
 11
86.0
 21
60.499999046325676
 31
0.0
  0
LINE
  5
8C7
  8
0
 10
90.0
 20
75.0
 30
0.0
 11
90.0
 21
65.0
 31
0.0
  0
LINE
  5
8C8
  8
0
 10
89.699999999999747
 20
75.0
 30
0.0
 11
90.0
 21
75.0
 31
0.0
  0
LINE
  5
8C9
  8
0
 10
89.699999999999747
 20
76.999999999999915
 30
0.0
 11
89.699999999999747
 21
63.000000000000057
 31
0.0
  0
LINE
  5
8CA
  8
0
 10
89.199999999999761
 20
77.499999999999915
 30
0.0
 11
86.0
 21
77.499999999999943
 31
0.0
  0
LINE
  5
8CB
  8
0
 10
77.458980337503135
 20
80.0
 30
0.0
 11
78.458980337503135
 21
80.0
 31
0.0
  0
LINE
  5
8CC
  8
1
 10
102.5
 20
69.999999999999943
 30
0.0
 11
73.5
 21
70.0
 31
0.0
  0
ARC
  5
8CD
  8
0
 10
34.579798566743307
 20
79.396926207859053
 30
0.0
 40
1.0
 50
17.134016017401329
 51
202.86598398259881
  0
ARC
  5
8CE
  8
0
 10
31.572123903134582
 20
77.660444431189745
 30
0.0
 40
1.0
 50
37.134016017399993
 51
222.86598398259969
  0
ARC
  5
8CF
  8
0
 10
29.339745962155579
 20
74.999999999999972
 30
0.0
 40
1.0
 50
57.134016017400519
 51
242.86598398259861
  0
ARC
  5
8D0
  8
0
 10
28.151922469877949
 20
71.736481776669279
 30
0.0
 40
1.0
 50
77.134016017401763
 51
262.86598398259957
  0
ARC
  5
8D1
  8
0
 10
28.151922469877949
 20
68.263518223330664
 30
0.0
 40
1.0
 50
97.134016017401933
 51
282.86598398259821
  0
ARC
  5
8D2
  8
0
 10
29.339745962155629
 20
64.999999999999972
 30
0.0
 40
1.0
 50
117.13401601740139
 51
302.86598398259952
  0
ARC
  5
8D3
  8
0
 10
31.572123903134639
 20
62.339555568810219
 30
0.0
 40
1.0
 50
137.1340160174025
 51
322.86598398260003
  0
ARC
  5
8D4
  8
0
 10
34.579798566743307
 20
60.60307379214089
 30
0.0
 40
1.0
 50
157.13401601740111
 51
342.86598398259872
  0
ARC
  5
8D5
  8
0
 10
38.0
 20
60.0
 30
0.0
 40
1.0
 50
177.1340160174021
 51
2.865983982597883
  0
ARC
  5
8D6
  8
0
 10
41.420201433256693
 20
60.60307379214089
 30
0.0
 40
1.0
 50
197.13401601740131
 51
22.865983982598859
  0
ARC
  5
8D7
  8
0
 10
44.427876096865347
 20
62.339555568810219
 30
0.0
 40
1.0
 50
217.1340160174
 51
42.865983982599687
  0
ARC
  5
8D8
  8
0
 10
46.660254037844368
 20
65.0
 30
0.0
 40
1.0
 50
237.13401601740051
 51
62.865983982598578
  0
ARC
  5
8D9
  8
0
 10
47.848077530122048
 20
68.263518223330664
 30
0.0
 40
1.0
 50
257.13401601740179
 51
82.86598398259963
  0
ARC
  5
8DA
  8
0
 10
47.848077530122048
 20
71.736481776669279
 30
0.0
 40
1.0
 50
277.13401601740031
 51
102.86598398259819
  0
ARC
  5
8DB
  8
0
 10
46.660254037844417
 20
74.999999999999972
 30
0.0
 40
1.0
 50
297.13401601740139
 51
122.8659839825994
  0
ARC
  5
8DC
  8
0
 10
44.427876096865347
 20
77.660444431189774
 30
0.0
 40
1.0
 50
317.13401601740031
 51
142.8659839826
  0
ARC
  5
8DD
  8
0
 10
41.420201433256693
 20
79.396926207859082
 30
0.0
 40
1.0
 50
337.13401601740122
 51
162.86598398259861
  0
ARC
  5
8DE
  8
0
 10
38.0
 20
80.0
 30
0.0
 40
1.0
 50
357.13401601740208
 51
182.8659839825979
  0
CIRCLE
  5
8DF
  8
0
 10
38.0
 20
70.0
 30
0.0
 40
10.0
  0
LINE
  5
8E0
  8
1
 10
38.0
 20
83.499999999999986
 30
0.0
 11
38.0
 21
56.5
 31
0.0
  0
LINE
  5
8E1
  8
1
 10
51.5
 20
70.0
 30
0.0
 11
24.5
 21
70.0
 31
0.0
  0
LINE
  5
8E2
  8
0
 10
89.199999999999761
 20
62.500000000000057
 30
0.0
 11
89.699999999999747
 21
63.000000000000057
 31
0.0
  0
LINE
  5
8E3
  8
0
 10
89.699999999999747
 20
76.999999999999915
 30
0.0
 11
89.199999999999761
 21
77.499999999999915
 31
0.0
  0
ARC
  5
8E4
  8
0
 10
85.5
 20
79.5
 30
0.0
 40
0.5
 50
0.0
 51
90.0
  0
ARC
  5
8E5
  8
0
 10
85.5
 20
60.5
 30
0.0
 40
0.5
 50
270.0
 51
0.0
  0
LINE
  5
8E6
  8
0
 10
89.199999999999761
 20
77.499999999999943
 30
0.0
 11
89.199999999999761
 21
62.500000000000028
 31
0.0
  0
LINE
  5
8E7
  8
0
 10
79.458980337503135
 20
81.000000000001819
 30
0.0
 11
84.0
 21
81.000000000001819
 31
0.0
  0
ARC
  5
8E8
  8
0
 10
84.0
 20
80.000000000001819
 30
0.0
 40
1.0
 50
0.0
 51
90.0
  0
LINE
  5
8E9
  8
0
 10
79.457945946013524
 20
80.396926207859082
 30
0.0
 11
84.0
 21
80.396926207859082
 31
0.0
  0
LINE
  5
8EA
  8
0
 10
78.458980337503135
 20
79.008349226210996
 30
0.0
 11
84.0
 21
79.008349226211038
 31
0.0
  0
POLYLINE
  5
8EB
  8
0
 66
     1
 10
0.0
 20
0.0
 30
0.0
  0
VERTEX
  5
9E2
  8
0
 10
84.0
 20
79.008349226211038
 30
0.0
 42
0.0399174738601831
  0
VERTEX
  5
9E3
  8
0
 10
84.408096274776753
 20
79.04098156749933
 30
0.0
 42
0.052807795065124
  0
VERTEX
  5
9E4
  8
0
 10
84.707106781186539
 20
79.122160789122745
 30
0.0
 42
0.0960069432422777
  0
VERTEX
  5
9E5
  8
0
 10
84.958212501727644
 20
79.280308555973022
 30
0.0
 42
0.2411404351806645
  0
VERTEX
  5
9E6
  8
0
 10
84.999999999998749
 20
79.39692620785911
 30
0.0
 42
0.2072223791585372
  0
SEQEND
  5
9E7
  8
0
  0
POLYLINE
  5
8EC
  8
0
 66
     1
 10
0.0
 20
0.0
 30
0.0
  0
VERTEX
  5
9E8
  8
0
 10
84.999999999982549
 20
79.39692620785911
 30
0.0
 42
0.0984914033556077
  0
VERTEX
  5
9E9
  8
0
 10
84.923879532494894
 20
79.779609640224976
 30
0.0
 42
0.098491403356525
  0
VERTEX
  5
9EA
  8
0
 10
84.707106781174218
 20
80.104032989045606
 30
0.0
 42
0.0984914033578243
  0
VERTEX
  5
9EB
  8
0
 10
84.382683432357567
 20
80.320805740370645
 30
0.0
 42
0.0984914033587124
  0
VERTEX
  5
9EC
  8
0
 10
84.0
 20
80.396926207859082
 30
0.0
 42
0.0984914033587305
  0
SEQEND
  5
9ED
  8
0
  0
POLYLINE
  5
8ED
  8
0
 66
     1
 10
0.0
 20
0.0
 30
0.0
  0
VERTEX
  5
9EE
  8
0
 10
84.818297507746479
 20
79.971721118059861
 30
0.0
 42
0.0107439791054499
  0
VERTEX
  5
9EF
  8
0
 10
84.993483993077916
 20
79.989058188503293
 30
0.0
  0
VERTEX
  5
9F0
  8
0
 10
85.000000000000895
 20
79.999999999999972
 30
0.0
  0
SEQEND
  5
9F1
  8
0
  0
LINE
  5
8EE
  8
0
 10
85.0
 20
80.0
 30
0.0
 11
85.5
 21
80.0
 31
0.0
  0
LINE
  5
8EF
  8
0
 10
79.445810616748986
 20
78.660444431189745
 30
0.0
 11
84.0
 21
78.660444431189745
 31
0.0
  0
LINE
  5
8F0
  8
0
 10
78.458980337503135
 20
76.980158586665894
 30
0.0
 11
84.0
 21
76.98015858666588
 31
0.0
  0
POLYLINE
  5
8F1
  8
0
 66
     1
 10
0.0
 20
0.0
 30
0.0
  0
VERTEX
  5
9F2
  8
0
 10
84.0
 20
76.98015858666588
 30
0.0
 42
0.0687735942286349
  0
VERTEX
  5
9F3
  8
0
 10
84.397307474391084
 20
77.035066818073176
 30
0.0
 42
0.0808530481494667
  0
VERTEX
  5
9F4
  8
0
 10
84.707106781186539
 20
77.179409697381715
 30
0.0
 42
0.1070308378656403
  0
VERTEX
  5
9F5
  8
0
 10
84.946449321972182
 20
77.431141619100629
 30
0.0
 42
0.1600969164469462
  0
VERTEX
  5
9F6
  8
0
 10
84.999999999995865
 20
77.660444431189774
 30
0.0
 42
0.1375896364343942
  0
SEQEND
  5
9F7
  8
0
  0
POLYLINE
  5
8F2
  8
0
 66
     1
 10
0.0
 20
0.0
 30
0.0
  0
VERTEX
  5
9F8
  8
0
 10
85.0
 20
77.660444431189774
 30
0.0
 42
0.0984914033571286
  0
VERTEX
  5
9F9
  8
0
 10
84.923879532511364
 20
78.043127863554787
 30
0.0
 42
0.0984914033571594
  0
VERTEX
  5
9FA
  8
0
 10
84.707106781186539
 20
78.367551212376327
 30
0.0
 42
0.0984914033572042
  0
VERTEX
  5
9FB
  8
0
 10
84.382683432365056
 20
78.584323963701024
 30
0.0
 42
0.0984914033571863
  0
VERTEX
  5
9FC
  8
0
 10
84.0
 20
78.660444431189745
 30
0.0
 42
0.0984914033571539
  0
SEQEND
  5
9FD
  8
0
  0
LINE
  5
8F3
  8
0
 10
79.392925317549725
 20
75.999999999999972
 30
0.0
 11
84.0
 21
75.999999999999972
 31
0.0
  0
LINE
  5
8F4
  8
0
 10
78.458980337503135
 20
74.110057805399663
 30
0.0
 11
84.0
 21
74.110057805399663
 31
0.0
  0
LINE
  5
8F5
  8
0
 10
78.458980337503135
 20
80.0
 30
0.0
 11
78.458980337503135
 21
60.0
 31
0.0
  0
POLYLINE
  5
8F6
  8
0
 66
     1
 10
0.0
 20
0.0
 30
0.0
  0
VERTEX
  5
9FE
  8
0
 10
84.999999999998863
 20
74.999999999999943
 30
0.0
 42
0.0984914033570566
  0
VERTEX
  5
9FF
  8
0
 10
84.923879532510227
 20
75.382683432365127
 30
0.0
 42
0.0984914033570902
  0
VERTEX
  5
A00
  8
0
 10
84.707106781185757
 20
75.707106781186496
 30
0.0
 42
0.0984914033572319
  0
VERTEX
  5
A01
  8
0
 10
84.382683432364615
 20
75.923879532511251
 30
0.0
 42
0.0984914033572867
  0
VERTEX
  5
A02
  8
0
 10
84.0
 20
75.999999999999972
 30
0.0
 42
0.0984914033572722
  0
SEQEND
  5
A03
  8
0
  0
POLYLINE
  5
8F7
  8
0
 66
     1
 10
0.0
 20
0.0
 30
0.0
  0
VERTEX
  5
A04
  8
0
 10
84.0
 20
74.110057805399663
 30
0.0
 42
0.0885228847778437
  0
VERTEX
  5
A05
  8
0
 10
84.387875136911234
 20
74.179271839519373
 30
0.0
 42
0.0937884263503702
  0
VERTEX
  5
A06
  8
0
 10
84.707106781186539
 20
74.370715839334082
 30
0.0
 42
0.1023419655820169
  0
VERTEX
  5
A07
  8
0
 10
84.94343926767317
 20
74.688405450179744
 30
0.0
 42
0.1287307123387808
  0
VERTEX
  5
A08
  8
0
 10
84.999999999998863
 20
75.0
 30
0.0
 42
0.1093371813473585
  0
SEQEND
  5
A09
  8
0
  0
LINE
  5
8F8
  8
0
 10
79.164426394975067
 20
72.736481776669265
 30
0.0
 11
84.0
 21
72.736481776669265
 31
0.0
  0
LINE
  5
8F9
  8
0
 10
78.458980337503135
 20
70.744223394809296
 30
0.0
 11
84.0
 21
70.744223394809296
 31
0.0
  0
POLYLINE
  5
8FA
  8
0
 66
     1
 10
0.0
 20
0.0
 30
0.0
  0
VERTEX
  5
A0A
  8
0
 10
84.0
 20
70.744223394809296
 30
0.0
 42
0.0977997608286787
  0
VERTEX
  5
A0B
  8
0
 10
84.383051119553556
 20
70.819871569714593
 30
0.0
 42
0.0982022191882202
  0
VERTEX
  5
A0C
  8
0
 10
84.707106781186539
 20
71.034849146166891
 30
0.0
 42
0.0987767920503924
  0
VERTEX
  5
A0D
  8
0
 10
84.94276051439499
 20
71.38500724013295
 30
0.0
 42
0.1175450871260601
  0
VERTEX
  5
A0E
  8
0
 10
84.999999999997385
 20
71.736481776669294
 30
0.0
 42
0.0991869513187082
  0
SEQEND
  5
A0F
  8
0
  0
POLYLINE
  5
8FB
  8
0
 66
     1
 10
0.0
 20
0.0
 30
0.0
  0
VERTEX
  5
A10
  8
0
 10
84.999999999998749
 20
71.736481776669294
 30
0.0
 42
0.0984914033570649
  0
VERTEX
  5
A11
  8
0
 10
84.923879532510114
 20
72.119165209034463
 30
0.0
 42
0.098491403357111
  0
VERTEX
  5
A12
  8
0
 10
84.707106781185644
 20
72.443588557855833
 30
0.0
 42
0.0984914033572209
  0
VERTEX
  5
A13
  8
0
 10
84.354482030601275
 20
72.679204883398214
 30
0.0
 42
0.1167787968879798
  0
VERTEX
  5
A14
  8
0
 10
84.0
 20
72.736481776669251
 30
0.0
 42
0.0984914033572819
  0
SEQEND
  5
A15
  8
0
  0
LINE
  5
8FC
  8
0
 10
89.699999999999747
 20
65.0
 30
0.0
 11
90.0
 21
65.0
 31
0.0
  0
LINE
  5
8FD
  8
0
 10
78.458980337503135
 20
80.0
 30
0.0
 11
79.458980337503135
 21
81.000000000001791
 31
0.0
  0
POLYLINE
  5
8FE
  8
0
 66
     1
 10
0.0
 20
0.0
 30
0.0
  0
VERTEX
  5
A16
  8
0
 10
78.458980337503135
 20
76.980158586665894
 30
0.0
 42
0.1357624536129769
  0
VERTEX
  5
A17
  8
0
 10
78.820724589524389
 20
77.080225539555016
 30
0.0
 42
0.1069328816758945
  0
VERTEX
  5
A18
  8
0
 10
79.166087118689688
 20
77.403778920080981
 30
0.0
 42
0.0816835820661553
  0
VERTEX
  5
A19
  8
0
 10
79.378413302416845
 20
77.85253951099844
 30
0.0
 42
0.0698441514689261
  0
VERTEX
  5
A1A
  8
0
 10
79.458980337503135
 20
78.426488874308745
 30
0.0
 42
0.0698441514689051
  0
SEQEND
  5
A1B
  8
0
  0
POLYLINE
  5
8FF
  8
0
 66
     1
 10
0.0
 20
0.0
 30
0.0
  0
VERTEX
  5
A1C
  8
0
 10
78.458980337503135
 20
70.744223394809296
 30
0.0
 42
0.112952233495438
  0
VERTEX
  5
A1D
  8
0
 10
78.833766594775511
 20
70.829983428763853
 30
0.0
 42
0.1033521303521588
  0
VERTEX
  5
A1E
  8
0
 10
79.166087118689688
 20
71.085709519864849
 30
0.0
 42
0.0921557829877799
  0
VERTEX
  5
A1F
  8
0
 10
79.401238419759522
 20
71.491542839450346
 30
0.0
 42
0.102498577777232
  0
VERTEX
  5
A20
  8
0
 10
79.458980337503135
 20
71.910129954336213
 30
0.0
 42
0.0855486455907096
  0
VERTEX
  5
A21
  8
0
 10
79.380733839869777
 20
72.364104675777924
 30
0.0
 42
0.0921557829877674
  0
VERTEX
  5
A22
  8
0
 10
79.166087118689688
 20
72.734550388807577
 30
0.0
 42
0.0006211829298046
  0
VERTEX
  5
A23
  8
0
 10
79.164426394975067
 20
72.736481776669265
 30
0.0
 42
0.1129522334954706
  0
SEQEND
  5
A24
  8
0
  0
POLYLINE
  5
900
  8
0
 66
     1
 10
0.0
 20
0.0
 30
0.0
  0
VERTEX
  5
A25
  8
0
 10
79.458980337503135
 20
78.426488874308745
 30
0.0
 42
0.0281235132331599
  0
VERTEX
  5
A26
  8
0
 10
79.445810616749441
 20
78.660444431189745
 30
0.0
 42
0.0816835820661416
  0
SEQEND
  5
A27
  8
0
  0
POLYLINE
  5
901
  8
0
 66
     1
 10
0.0
 20
0.0
 30
0.0
  0
VERTEX
  5
A28
  8
0
 10
78.458980337503135
 20
79.008349226211067
 30
0.0
 42
0.1264137453229119
  0
VERTEX
  5
A29
  8
0
 10
78.826134506911671
 20
79.102683394589434
 30
0.0
 42
0.106014725762345
  0
VERTEX
  5
A2A
  8
0
 10
79.166087118689688
 20
79.397390385519998
 30
0.0
 42
0.0859711009775293
  0
VERTEX
  5
A2B
  8
0
 10
79.401197527364729
 20
79.855904583717972
 30
0.0
 42
0.091584542955487
  0
VERTEX
  5
A2C
  8
0
 10
79.458980337503135
 20
80.336618828644987
 30
0.0
 42
0.0085753637371852
  0
VERTEX
  5
A2D
  8
0
 10
79.457945946013297
 20
80.396926207859082
 30
0.0
 42
0.0859711009775116
  0
SEQEND
  5
A2E
  8
0
  0
POLYLINE
  5
902
  8
0
 66
     1
 10
0.0
 20
0.0
 30
0.0
  0
VERTEX
  5
A2F
  8
0
 10
79.164426394973702
 20
72.736481776670928
 30
0.0
 42
0.0036851577796042
  0
VERTEX
  5
A30
  8
0
 10
78.872259377343255
 20
72.734328384311084
 30
0.0
 42
0.0052085144068955
  0
VERTEX
  5
A31
  8
0
 10
78.665600703974974
 20
72.729128271844814
 30
0.0
 42
0.0125345551502357
  0
VERTEX
  5
A32
  8
0
 10
78.464041751133891
 20
72.716890281904924
 30
0.0
  0
VERTEX
  5
A33
  8
0
 10
78.458980337503135
 20
72.711375340762629
 30
0.0
  0
SEQEND
  5
A34
  8
0
  0
POLYLINE
  5
903
  8
0
 66
     1
 10
0.0
 20
0.0
 30
0.0
  0
VERTEX
  5
A35
  8
0
 10
78.458980337503135
 20
74.110057805399663
 30
0.0
 42
0.1313437824762944
  0
VERTEX
  5
A36
  8
0
 10
78.823290636459433
 20
74.207437506364727
 30
0.0
 42
0.1065878680515746
  0
VERTEX
  5
A37
  8
0
 10
79.166087118689688
 20
74.517162448740748
 30
0.0
 42
0.0837035582594187
  0
VERTEX
  5
A38
  8
0
 10
79.401245014642768
 20
74.995827912213315
 30
0.0
 42
0.0880311528106757
  0
VERTEX
  5
A39
  8
0
 10
79.458980337503135
 20
75.499999999999943
 30
0.0
 42
0.0657692923710514
  0
VERTEX
  5
A3A
  8
0
 10
79.392925317548702
 20
75.999999999999972
 30
0.0
 42
0.0837035935685364
  0
SEQEND
  5
A3B
  8
0
  0
POLYLINE
  5
904
  8
0
 66
     1
 10
0.0
 20
0.0
 30
0.0
  0
VERTEX
  5
A3C
  8
0
 10
79.392925317548702
 20
75.999999999999972
 30
0.0
 42
0.0177189272708453
  0
VERTEX
  5
A3D
  8
0
 10
79.007235729384831
 20
75.986327695914554
 30
0.0
 42
0.0247202943034733
  0
VERTEX
  5
A3E
  8
0
 10
78.732526488903318
 20
75.953120154180226
 30
0.0
 42
0.0556996223540668
  0
VERTEX
  5
A3F
  8
0
 10
78.487323078251961
 20
75.88234168741684
 30
0.0
  0
VERTEX
  5
A40
  8
0
 10
78.458980337503135
 20
75.839942194600269
 30
0.0
  0
SEQEND
  5
A41
  8
0
  0
POLYLINE
  5
905
  8
0
 66
     1
 10
0.0
 20
0.0
 30
0.0
  0
VERTEX
  5
A42
  8
0
 10
79.445810616749441
 20
78.660444431189745
 30
0.0
 42
0.0412338094258564
  0
VERTEX
  5
A43
  8
0
 10
79.043476681215282
 20
78.627208400745758
 30
0.0
 42
0.0543157360887474
  0
VERTEX
  5
A44
  8
0
 10
78.748016234414308
 20
78.544365400822869
 30
0.0
 42
0.0973195254250049
  0
VERTEX
  5
A45
  8
0
 10
78.501038069893639
 20
78.383989631912513
 30
0.0
 42
0.2359323889828584
  0
VERTEX
  5
A46
  8
0
 10
78.458980337504144
 20
78.264125831401714
 30
0.0
 42
0.2029309459319423
  0
SEQEND
  5
A47
  8
0
  0
POLYLINE
  5
906
  8
0
 66
     1
 10
0.0
 20
0.0
 30
0.0
  0
VERTEX
  5
A48
  8
0
 10
79.457945946013524
 20
80.396926207859082
 30
0.0
 42
0.07125740644457
  0
VERTEX
  5
A49
  8
0
 10
79.062159596721244
 20
80.340232923505994
 30
0.0
 42
0.0827568216601228
  0
VERTEX
  5
A4A
  8
0
 10
78.751570590063693
 20
80.190321592317588
 30
0.0
 42
0.1067686003866145
  0
VERTEX
  5
A4B
  8
0
 10
78.513009406263905
 20
79.930748368449542
 30
0.0
 42
0.1554222116688372
  0
VERTEX
  5
A4C
  8
0
 10
78.458980337503135
 20
79.69153392742848
 30
0.0
 42
0.1334107515023988
  0
SEQEND
  5
A4D
  8
0
  0
POLYLINE
  5
907
  8
0
 66
     1
 10
0.0
 20
0.0
 30
0.0
  0
VERTEX
  5
A4E
  8
0
 10
78.458980337503135
 20
79.949999999999989
 30
0.0
 42
0.0176232818351147
  0
VERTEX
  5
A4F
  8
0
 10
78.526135521943374
 20
79.952367724852309
 30
0.0
 42
0.1002177893370621
  0
SEQEND
  5
A50
  8
0
  0
POLYLINE
  5
908
  8
0
 66
     1
 10
0.0
 20
0.0
 30
0.0
  0
VERTEX
  5
A51
  8
0
 10
79.270595568917429
 20
80.384422800598955
 30
0.0
 42
0.0603807619314468
  0
VERTEX
  5
A52
  8
0
 10
79.401500481973926
 20
80.626128654787919
 30
0.0
 42
0.112064963543386
  0
VERTEX
  5
A53
  8
0
 10
79.458980337503135
 20
81.000000000001819
 30
0.0
 42
0.0942139302208779
  0
SEQEND
  5
A54
  8
0
  0
POLYLINE
  5
909
  8
0
 66
     1
 10
0.0
 20
0.0
 30
0.0
  0
VERTEX
  5
A55
  8
0
 10
79.270595568917429
 20
59.615577199401059
 30
0.0
 42
-0.0603807619314468
  0
VERTEX
  5
A56
  8
0
 10
79.401500481973926
 20
59.373871345212017
 30
0.0
 42
-0.112064963543386
  0
VERTEX
  5
A57
  8
0
 10
79.458980337503135
 20
58.999999999998153
 30
0.0
 42
-0.0942139302208779
  0
SEQEND
  5
A58
  8
0
  0
POLYLINE
  5
90A
  8
0
 66
     1
 10
0.0
 20
0.0
 30
0.0
  0
VERTEX
  5
A59
  8
0
 10
78.458980337503135
 20
60.049999999999947
 30
0.0
 42
-0.0176232818351147
  0
VERTEX
  5
A5A
  8
0
 10
78.526135521943374
 20
60.047632275147691
 30
0.0
 42
-0.1002177893370621
  0
SEQEND
  5
A5B
  8
0
  0
POLYLINE
  5
90B
  8
0
 66
     1
 10
0.0
 20
0.0
 30
0.0
  0
VERTEX
  5
A5C
  8
0
 10
79.457945946013524
 20
59.60307379214089
 30
0.0
 42
-0.07125740644457
  0
VERTEX
  5
A5D
  8
0
 10
79.062159596721244
 20
59.659767076493949
 30
0.0
 42
-0.0827568216601228
  0
VERTEX
  5
A5E
  8
0
 10
78.751570590063693
 20
59.809678407682377
 30
0.0
 42
-0.1067686003866145
  0
VERTEX
  5
A5F
  8
0
 10
78.513009406263905
 20
60.069251631550429
 30
0.0
 42
-0.1554222116688372
  0
VERTEX
  5
A60
  8
0
 10
78.458980337503135
 20
60.308466072571491
 30
0.0
 42
-0.1334107515023988
  0
SEQEND
  5
A61
  8
0
  0
POLYLINE
  5
90C
  8
0
 66
     1
 10
0.0
 20
0.0
 30
0.0
  0
VERTEX
  5
A62
  8
0
 10
79.445810616749441
 20
61.339555568810233
 30
0.0
 42
-0.0412338094258564
  0
VERTEX
  5
A63
  8
0
 10
79.043476681215282
 20
61.372791599254242
 30
0.0
 42
-0.0543157360887474
  0
VERTEX
  5
A64
  8
0
 10
78.748016234414308
 20
61.455634599177102
 30
0.0
 42
-0.0973195254250049
  0
VERTEX
  5
A65
  8
0
 10
78.501038069893639
 20
61.616010368087437
 30
0.0
 42
-0.2359323889828584
  0
VERTEX
  5
A66
  8
0
 10
78.458980337504144
 20
61.73587416859823
 30
0.0
 42
-0.2029309459319423
  0
SEQEND
  5
A67
  8
0
  0
POLYLINE
  5
90D
  8
0
 66
     1
 10
0.0
 20
0.0
 30
0.0
  0
VERTEX
  5
A68
  8
0
 10
79.392925317548702
 20
64.0
 30
0.0
 42
-0.0177189272708453
  0
VERTEX
  5
A69
  8
0
 10
79.007235729384831
 20
64.013672304085446
 30
0.0
 42
-0.0247202943034733
  0
VERTEX
  5
A6A
  8
0
 10
78.732526488903318
 20
64.046879845819717
 30
0.0
 42
-0.0556996223540668
  0
VERTEX
  5
A6B
  8
0
 10
78.487323078251961
 20
64.117658312583103
 30
0.0
  0
VERTEX
  5
A6C
  8
0
 10
78.458980337503135
 20
64.160057805399674
 30
0.0
  0
SEQEND
  5
A6D
  8
0
  0
POLYLINE
  5
90E
  8
0
 66
     1
 10
0.0
 20
0.0
 30
0.0
  0
VERTEX
  5
A6E
  8
0
 10
78.458980337503135
 20
65.889942194600323
 30
0.0
 42
-0.1313437824762944
  0
VERTEX
  5
A6F
  8
0
 10
78.823290636459433
 20
65.792562493635216
 30
0.0
 42
-0.1065878680515746
  0
VERTEX
  5
A70
  8
0
 10
79.166087118689688
 20
65.482837551259195
 30
0.0
 42
-0.0837035582594187
  0
VERTEX
  5
A71
  8
0
 10
79.401245014642768
 20
65.004172087786685
 30
0.0
 42
-0.0880311528106757
  0
VERTEX
  5
A72
  8
0
 10
79.458980337503135
 20
64.5
 30
0.0
 42
-0.0657692923710514
  0
VERTEX
  5
A73
  8
0
 10
79.392925317548702
 20
64.0
 30
0.0
 42
-0.0837035935685364
  0
SEQEND
  5
A74
  8
0
  0
POLYLINE
  5
90F
  8
0
 66
     1
 10
0.0
 20
0.0
 30
0.0
  0
VERTEX
  5
A75
  8
0
 10
79.164426394973702
 20
67.263518223329044
 30
0.0
 42
-0.0036851577796042
  0
VERTEX
  5
A76
  8
0
 10
78.872259377343255
 20
67.265671615688859
 30
0.0
 42
-0.0052085144068955
  0
VERTEX
  5
A77
  8
0
 10
78.665600703974974
 20
67.270871728155143
 30
0.0
 42
-0.0125345551502357
  0
VERTEX
  5
A78
  8
0
 10
78.464041751133891
 20
67.283109718095034
 30
0.0
  0
VERTEX
  5
A79
  8
0
 10
78.458980337503135
 20
67.288624659237371
 30
0.0
  0
SEQEND
  5
A7A
  8
0
  0
POLYLINE
  5
910
  8
0
 66
     1
 10
0.0
 20
0.0
 30
0.0
  0
VERTEX
  5
A7B
  8
0
 10
78.458980337503135
 20
60.991650773788933
 30
0.0
 42
-0.1264137453229119
  0
VERTEX
  5
A7C
  8
0
 10
78.826134506911671
 20
60.897316605410538
 30
0.0
 42
-0.106014725762345
  0
VERTEX
  5
A7D
  8
0
 10
79.166087118689688
 20
60.602609614479981
 30
0.0
 42
-0.0859711009775293
  0
VERTEX
  5
A7E
  8
0
 10
79.401197527364729
 20
60.144095416282028
 30
0.0
 42
-0.091584542955487
  0
VERTEX
  5
A7F
  8
0
 10
79.458980337503135
 20
59.663381171354963
 30
0.0
 42
-0.0085753637371852
  0
VERTEX
  5
A80
  8
0
 10
79.457945946013297
 20
59.60307379214089
 30
0.0
 42
-0.0859711009775116
  0
SEQEND
  5
A81
  8
0
  0
POLYLINE
  5
911
  8
0
 66
     1
 10
0.0
 20
0.0
 30
0.0
  0
VERTEX
  5
A82
  8
0
 10
79.458980337503135
 20
61.573511125691248
 30
0.0
 42
-0.0281235132331599
  0
VERTEX
  5
A83
  8
0
 10
79.445810616749441
 20
61.339555568810233
 30
0.0
 42
-0.0816835820661416
  0
SEQEND
  5
A84
  8
0
  0
POLYLINE
  5
912
  8
0
 66
     1
 10
0.0
 20
0.0
 30
0.0
  0
VERTEX
  5
A85
  8
0
 10
78.458980337503135
 20
69.255776605190647
 30
0.0
 42
-0.112952233495438
  0
VERTEX
  5
A86
  8
0
 10
78.833766594775511
 20
69.17001657123609
 30
0.0
 42
-0.1033521303521588
  0
VERTEX
  5
A87
  8
0
 10
79.166087118689688
 20
68.914290480135094
 30
0.0
 42
-0.0921557829877799
  0
VERTEX
  5
A88
  8
0
 10
79.401238419759522
 20
68.508457160549597
 30
0.0
 42
-0.102498577777232
  0
VERTEX
  5
A89
  8
0
 10
79.458980337503135
 20
68.089870045663744
 30
0.0
 42
-0.0855486455907096
  0
VERTEX
  5
A8A
  8
0
 10
79.380733839869777
 20
67.635895324222005
 30
0.0
 42
-0.0921557829877674
  0
VERTEX
  5
A8B
  8
0
 10
79.166087118689688
 20
67.265449611192423
 30
0.0
 42
-0.0006211829298046
  0
VERTEX
  5
A8C
  8
0
 10
79.164426394975067
 20
67.263518223330664
 30
0.0
 42
-0.1129522334954706
  0
SEQEND
  5
A8D
  8
0
  0
POLYLINE
  5
913
  8
0
 66
     1
 10
0.0
 20
0.0
 30
0.0
  0
VERTEX
  5
A8E
  8
0
 10
78.458980337503135
 20
63.019841413334063
 30
0.0
 42
-0.1357624536129769
  0
VERTEX
  5
A8F
  8
0
 10
78.820724589524389
 20
62.919774460444948
 30
0.0
 42
-0.1069328816758945
  0
VERTEX
  5
A90
  8
0
 10
79.166087118689688
 20
62.596221079918962
 30
0.0
 42
-0.0816835820661553
  0
VERTEX
  5
A91
  8
0
 10
79.378413302416845
 20
62.14746048900156
 30
0.0
 42
-0.0698441514689261
  0
VERTEX
  5
A92
  8
0
 10
79.458980337503135
 20
61.573511125691248
 30
0.0
 42
-0.0698441514689051
  0
SEQEND
  5
A93
  8
0
  0
LINE
  5
914
  8
0
 10
78.458980337503135
 20
60.0
 30
0.0
 11
79.458980337503135
 21
58.999999999998181
 31
0.0
  0
POLYLINE
  5
915
  8
0
 66
     1
 10
0.0
 20
0.0
 30
0.0
  0
VERTEX
  5
A94
  8
0
 10
84.999999999998749
 20
68.263518223330664
 30
0.0
 42
-0.0984914033570649
  0
VERTEX
  5
A95
  8
0
 10
84.923879532510114
 20
67.88083479096548
 30
0.0
 42
-0.098491403357111
  0
VERTEX
  5
A96
  8
0
 10
84.707106781185644
 20
67.556411442144139
 30
0.0
 42
-0.0984914033572209
  0
VERTEX
  5
A97
  8
0
 10
84.354482030601275
 20
67.320795116601744
 30
0.0
 42
-0.1167787968879798
  0
VERTEX
  5
A98
  8
0
 10
84.0
 20
67.263518223330721
 30
0.0
 42
-0.0984914033572819
  0
SEQEND
  5
A99
  8
0
  0
POLYLINE
  5
916
  8
0
 66
     1
 10
0.0
 20
0.0
 30
0.0
  0
VERTEX
  5
A9A
  8
0
 10
84.0
 20
69.255776605190647
 30
0.0
 42
-0.0977997608286787
  0
VERTEX
  5
A9B
  8
0
 10
84.383051119553556
 20
69.180128430285379
 30
0.0
 42
-0.0982022191882202
  0
VERTEX
  5
A9C
  8
0
 10
84.707106781186539
 20
68.965150853833052
 30
0.0
 42
-0.0987767920503924
  0
VERTEX
  5
A9D
  8
0
 10
84.94276051439499
 20
68.614992759867022
 30
0.0
 42
-0.1175450871260601
  0
VERTEX
  5
A9E
  8
0
 10
84.999999999997385
 20
68.263518223330664
 30
0.0
 42
-0.0991869513187082
  0
SEQEND
  5
A9F
  8
0
  0
LINE
  5
917
  8
0
 10
78.458980337503135
 20
69.255776605190675
 30
0.0
 11
84.0
 21
69.255776605190647
 31
0.0
  0
LINE
  5
918
  8
0
 10
79.164426394975067
 20
67.263518223330664
 30
0.0
 11
84.0
 21
67.263518223330664
 31
0.0
  0
POLYLINE
  5
919
  8
0
 66
     1
 10
0.0
 20
0.0
 30
0.0
  0
VERTEX
  5
AA0
  8
0
 10
84.0
 20
65.889942194600323
 30
0.0
 42
-0.0885228847778437
  0
VERTEX
  5
AA1
  8
0
 10
84.387875136911234
 20
65.820728160480598
 30
0.0
 42
-0.0937884263503702
  0
VERTEX
  5
AA2
  8
0
 10
84.707106781186539
 20
65.629284160665918
 30
0.0
 42
-0.1023419655820169
  0
VERTEX
  5
AA3
  8
0
 10
84.94343926767317
 20
65.3115945498202
 30
0.0
 42
-0.1287307123387808
  0
VERTEX
  5
AA4
  8
0
 10
84.999999999998863
 20
64.999999999999972
 30
0.0
 42
-0.1093371813473585
  0
SEQEND
  5
AA5
  8
0
  0
POLYLINE
  5
91A
  8
0
 66
     1
 10
0.0
 20
0.0
 30
0.0
  0
VERTEX
  5
AA6
  8
0
 10
84.999999999998863
 20
65.0
 30
0.0
 42
-0.0984914033570566
  0
VERTEX
  5
AA7
  8
0
 10
84.923879532510227
 20
64.617316567634816
 30
0.0
 42
-0.0984914033570902
  0
VERTEX
  5
AA8
  8
0
 10
84.707106781185757
 20
64.292893218813475
 30
0.0
 42
-0.0984914033572319
  0
VERTEX
  5
AA9
  8
0
 10
84.382683432364615
 20
64.076120467488721
 30
0.0
 42
-0.0984914033572867
  0
VERTEX
  5
AAA
  8
0
 10
84.0
 20
64.0
 30
0.0
 42
-0.0984914033572722
  0
SEQEND
  5
AAB
  8
0
  0
LINE
  5
91B
  8
0
 10
78.458980337503135
 20
65.889942194600309
 30
0.0
 11
84.0
 21
65.889942194600323
 31
0.0
  0
LINE
  5
91C
  8
0
 10
79.392925317549725
 20
64.0
 30
0.0
 11
84.0
 21
64.0
 31
0.0
  0
POLYLINE
  5
91D
  8
0
 66
     1
 10
0.0
 20
0.0
 30
0.0
  0
VERTEX
  5
AAC
  8
0
 10
85.0
 20
62.339555568810198
 30
0.0
 42
-0.0984914033571286
  0
VERTEX
  5
AAD
  8
0
 10
84.923879532511364
 20
61.956872136445149
 30
0.0
 42
-0.0984914033571594
  0
VERTEX
  5
AAE
  8
0
 10
84.707106781186539
 20
61.632448787623673
 30
0.0
 42
-0.0984914033572042
  0
VERTEX
  5
AAF
  8
0
 10
84.382683432365056
 20
61.41567603629894
 30
0.0
 42
-0.0984914033571863
  0
VERTEX
  5
AB0
  8
0
 10
84.0
 20
61.339555568810233
 30
0.0
 42
-0.0984914033571539
  0
SEQEND
  5
AB1
  8
0
  0
POLYLINE
  5
91E
  8
0
 66
     1
 10
0.0
 20
0.0
 30
0.0
  0
VERTEX
  5
AB2
  8
0
 10
84.0
 20
63.019841413334063
 30
0.0
 42
-0.0687735942286349
  0
VERTEX
  5
AB3
  8
0
 10
84.397307474391084
 20
62.964933181926817
 30
0.0
 42
-0.0808530481494667
  0
VERTEX
  5
AB4
  8
0
 10
84.707106781186539
 20
62.820590302618257
 30
0.0
 42
-0.1070308378656403
  0
VERTEX
  5
AB5
  8
0
 10
84.946449321972182
 20
62.568858380899343
 30
0.0
 42
-0.1600969164469462
  0
VERTEX
  5
AB6
  8
0
 10
84.999999999995865
 20
62.339555568810219
 30
0.0
 42
-0.1375896364343942
  0
SEQEND
  5
AB7
  8
0
  0
LINE
  5
91F
  8
0
 10
78.458980337503135
 20
63.019841413334063
 30
0.0
 11
84.0
 21
63.019841413334063
 31
0.0
  0
LINE
  5
920
  8
0
 10
79.445810616748986
 20
61.339555568810233
 30
0.0
 11
84.0
 21
61.339555568810233
 31
0.0
  0
POLYLINE
  5
921
  8
0
 66
     1
 10
0.0
 20
0.0
 30
0.0
  0
VERTEX
  5
AB8
  8
0
 10
84.818297507746479
 20
60.028278881940139
 30
0.0
 42
-0.0107439791054499
  0
VERTEX
  5
AB9
  8
0
 10
84.993483993077916
 20
60.010941811496672
 30
0.0
  0
VERTEX
  5
ABA
  8
0
 10
85.000000000000895
 20
60.0
 30
0.0
  0
SEQEND
  5
ABB
  8
0
  0
POLYLINE
  5
922
  8
0
 66
     1
 10
0.0
 20
0.0
 30
0.0
  0
VERTEX
  5
ABC
  8
0
 10
84.999999999982549
 20
60.60307379214089
 30
0.0
 42
-0.0984914033556077
  0
VERTEX
  5
ABD
  8
0
 10
84.923879532494894
 20
60.22039035977496
 30
0.0
 42
-0.098491403356525
  0
VERTEX
  5
ABE
  8
0
 10
84.707106781174218
 20
59.89596701095433
 30
0.0
 42
-0.0984914033578243
  0
VERTEX
  5
ABF
  8
0
 10
84.382683432357567
 20
59.67919425962932
 30
0.0
 42
-0.0984914033587124
  0
VERTEX
  5
AC0
  8
0
 10
84.0
 20
59.60307379214089
 30
0.0
 42
-0.0984914033587305
  0
SEQEND
  5
AC1
  8
0
  0
POLYLINE
  5
923
  8
0
 66
     1
 10
0.0
 20
0.0
 30
0.0
  0
VERTEX
  5
AC2
  8
0
 10
84.0
 20
60.991650773788933
 30
0.0
 42
-0.0399174738601831
  0
VERTEX
  5
AC3
  8
0
 10
84.408096274776753
 20
60.959018432500642
 30
0.0
 42
-0.052807795065124
  0
VERTEX
  5
AC4
  8
0
 10
84.707106781186539
 20
60.877839210877191
 30
0.0
 42
-0.0960069432422777
  0
VERTEX
  5
AC5
  8
0
 10
84.958212501727644
 20
60.719691444026971
 30
0.0
 42
-0.2411404351806645
  0
VERTEX
  5
AC6
  8
0
 10
84.999999999998749
 20
60.603073792140862
 30
0.0
 42
-0.2072223791585372
  0
SEQEND
  5
AC7
  8
0
  0
LINE
  5
924
  8
0
 10
78.458980337503135
 20
60.991650773788933
 30
0.0
 11
84.0
 21
60.991650773788933
 31
0.0
  0
LINE
  5
925
  8
0
 10
79.457945946013524
 20
59.60307379214089
 30
0.0
 11
84.0
 21
59.60307379214089
 31
0.0
  0
ARC
  5
926
  8
0
 10
84.0
 20
59.999999999998181
 30
0.0
 40
1.0
 50
270.0
 51
0.0
  0
LINE
  5
927
  8
0
 10
79.458980337503135
 20
58.999999999998181
 30
0.0
 11
84.0
 21
58.999999999998181
 31
0.0
  0
LINE
  5
928
  8
0
 10
85.0
 20
60.0
 30
0.0
 11
85.5
 21
60.0
 31
0.0
  0
LINE
  5
929
  8
1
 10
151.5
 20
70.0
 30
0.0
 11
124.5
 21
70.0
 31
0.0
  0
LINE
  5
92A
  8
1
 10
138.0
 20
83.499999999999787
 30
0.0
 11
138.0
 21
56.50000000000005
 31
0.0
  0
CIRCLE
  5
92B
  8
0
 10
138.0
 20
70.0
 30
0.0
 40
10.0
  0
ARC
  5
92C
  8
0
 10
138.0
 20
80.0
 30
0.0
 40
1.0
 50
357.13401601740208
 51
182.8659839825979
  0
ARC
  5
92D
  8
0
 10
141.42020143325669
 20
79.396926207859082
 30
0.0
 40
1.0
 50
337.13401601740122
 51
162.86598398259861
  0
ARC
  5
92E
  8
0
 10
144.4278760968653
 20
77.660444431189774
 30
0.0
 40
1.0
 50
317.13401601740031
 51
142.8659839826
  0
ARC
  5
92F
  8
0
 10
146.6602540378444
 20
74.999999999999972
 30
0.0
 40
1.0
 50
297.13401601740139
 51
122.8659839825994
  0
ARC
  5
930
  8
0
 10
147.848077530122
 20
71.736481776669279
 30
0.0
 40
1.0
 50
277.13401601740031
 51
102.86598398259819
  0
ARC
  5
931
  8
0
 10
147.848077530122
 20
68.263518223330664
 30
0.0
 40
1.0
 50
257.13401601740179
 51
82.86598398259963
  0
ARC
  5
932
  8
0
 10
146.66025403784431
 20
65.0
 30
0.0
 40
1.0
 50
237.13401601740051
 51
62.865983982598578
  0
ARC
  5
933
  8
0
 10
144.4278760968653
 20
62.339555568810219
 30
0.0
 40
1.0
 50
217.1340160174
 51
42.865983982599687
  0
ARC
  5
934
  8
0
 10
141.42020143325669
 20
60.60307379214089
 30
0.0
 40
1.0
 50
197.13401601740131
 51
22.865983982598859
  0
ARC
  5
935
  8
0
 10
138.0
 20
60.0
 30
0.0
 40
1.0
 50
177.1340160174021
 51
2.865983982597883
  0
ARC
  5
936
  8
0
 10
134.57979856674331
 20
60.60307379214089
 30
0.0
 40
1.0
 50
157.13401601740111
 51
342.86598398259872
  0
ARC
  5
937
  8
0
 10
131.57212390313461
 20
62.339555568810219
 30
0.0
 40
1.0
 50
137.1340160174025
 51
322.86598398260003
  0
ARC
  5
938
  8
0
 10
129.3397459621556
 20
64.999999999999972
 30
0.0
 40
1.0
 50
117.13401601740139
 51
302.86598398259952
  0
ARC
  5
939
  8
0
 10
128.15192246987789
 20
68.263518223330664
 30
0.0
 40
1.0
 50
97.134016017401933
 51
282.86598398259821
  0
ARC
  5
93A
  8
0
 10
128.15192246987789
 20
71.736481776669279
 30
0.0
 40
1.0
 50
77.134016017401763
 51
262.86598398259957
  0
ARC
  5
93B
  8
0
 10
129.3397459621556
 20
74.999999999999972
 30
0.0
 40
1.0
 50
57.134016017400519
 51
242.86598398259861
  0
ARC
  5
93C
  8
0
 10
131.5721239031345
 20
77.660444431189745
 30
0.0
 40
1.0
 50
37.134016017399993
 51
222.86598398259969
  0
ARC
  5
93D
  8
0
 10
134.57979856674331
 20
79.396926207859053
 30
0.0
 40
1.0
 50
17.134016017401329
 51
202.86598398259881
  0
CIRCLE
  5
93E
  8
0
 10
138.0
 20
70.0
 30
0.0
 40
3.0
  0
CIRCLE
  5
93F
  8
3
 10
138.0
 20
70.0
 30
0.0
 40
2.458499999999999
  0
CIRCLE
  5
940
  8
0
 10
138.0
 20
70.0
 30
0.0
 40
7.4999999999999281
  0
CIRCLE
  5
941
  8
0
 10
138.0
 20
70.0
 30
0.0
 40
6.9999999999999281
  0
CIRCLE
  5
942
  8
0
 10
138.0
 20
70.0
 30
0.0
 40
5.0
  0
LINE
  5
943
  8
0
 10
99.0
 20
66.999999999999972
 30
0.0
 11
99.0
 21
72.999999999999972
 31
0.0
  0
LINE
  5
944
  8
0
 10
100.0
 20
67.999999999999972
 30
0.0
 11
100.0
 21
71.999999999999972
 31
0.0
  0
LINE
  5
945
  8
0
 10
100.0
 20
71.999999999999972
 30
0.0
 11
99.0
 21
72.999999999999972
 31
0.0
  0
LINE
  5
946
  8
0
 10
99.0
 20
72.999999999999972
 30
0.0
 11
90.0
 21
72.999999999999972
 31
0.0
  0
LINE
  5
947
  8
3
 10
99.541499999999871
 20
72.458500000000072
 30
0.0
 11
92.0
 21
72.458500000000072
 31
0.0
  0
LINE
  5
948
  8
3
 10
99.541499999999814
 20
67.541499999999814
 30
0.0
 11
92.0
 21
67.541499999999843
 31
0.0
  0
LINE
  5
949
  8
0
 10
99.0
 20
66.999999999999972
 30
0.0
 11
90.0
 21
66.999999999999972
 31
0.0
  0
LINE
  5
94A
  8
0
 10
100.0
 20
67.999999999999972
 30
0.0
 11
99.0
 21
66.999999999999972
 31
0.0
  0
LINE
  5
94B
  8
5
 10
91.062094487701629
 20
72.999999999999972
 30
0.0
 11
92.0
 21
72.458500000000072
 31
0.0
  0
LINE
  5
94C
  8
5
 10
91.062094487701629
 20
66.999999999999972
 30
0.0
 11
92.0
 21
67.541499999999843
 31
0.0
  0
LINE
  5
94D
  8
0
 10
92.0
 20
66.999999999999972
 30
0.0
 11
92.0
 21
72.999999999999972
 31
0.0
  0
ENDSEC
  0
EOF
