  0
SECTION
  2
HEADER
  9
$ACADVER
  1
AC1009
  9
$INSBASE
 10
0.0
 20
0.0
 30
0.0
  9
$EXTMIN
 10
0.0
 20
-2.960436562073669
 30
0.0
  9
$EXTMAX
 10
208.50000000000051
 20
82.500000000000483
 30
0.0
  9
$LIMMIN
 10
0.0
 20
0.0
  9
$LIMMAX
 10
187.5
 20
135.0
  9
$ORTHOMODE
 70
     1
  9
$REGENMODE
 70
     1
  9
$FILLMODE
 70
     1
  9
$QTEXTMODE
 70
     0
  9
$MIRRTEXT
 70
     0
  9
$DRAGMODE
 70
     2
  9
$LTSCALE
 40
5.0
  9
$OSMODE
 70
    37
  9
$ATTMODE
 70
     1
  9
$TEXTSIZE
 40
0.2
  9
$TRACEWID
 40
0.05
  9
$TEXTSTYLE
  7
STANDARD
  9
$CLAYER
  8
0
  9
$CELTYPE
  6
BYLAYER
  9
$CECOLOR
 62
   256
  9
$DIMSCALE
 40
0.5
  9
$DIMASZ
 40
3.0
  9
$DIMEXO
 40
2.0
  9
$DIMDLI
 40
0.38
  9
$DIMRND
 40
0.0
  9
$DIMDLE
 40
0.0
  9
$DIMEXE
 40
2.0
  9
$DIMTP
 40
0.0
  9
$DIMTM
 40
0.0
  9
$DIMTXT
 40
3.2000000000000002
  9
$DIMCEN
 40
0.0
  9
$DIMTSZ
 40
0.0
  9
$DIMTOL
 70
     0
  9
$DIMLIM
 70
     0
  9
$DIMTIH
 70
     0
  9
$DIMTOH
 70
     0
  9
$DIMSE1
 70
     0
  9
$DIMSE2
 70
     0
  9
$DIMTAD
 70
     1
  9
$DIMZIN
 70
     0
  9
$DIMBLK
  1

  9
$DIMASO
 70
     1
  9
$DIMSHO
 70
     0
  9
$DIMPOST
  1

  9
$DIMAPOST
  1

  9
$DIMALT
 70
     0
  9
$DIMALTD
 70
     2
  9
$DIMALTF
 40
25.399999999999999
  9
$DIMLFAC
 40
1.0
  9
$DIMTOFL
 70
     1
  9
$DIMTVP
 40
1.6000000000000001
  9
$DIMTIX
 70
     1
  9
$DIMSOXD
 70
     0
  9
$DIMSAH
 70
     0
  9
$DIMBLK1
  1

  9
$DIMBLK2
  1

  9
$DIMSTYLE
  2
STANDARD
  9
$DIMCLRD
 70
     0
  9
$DIMCLRE
 70
     0
  9
$DIMCLRT
 70
     0
  9
$DIMTFAC
 40
1.0
  9
$DIMGAP
 40
0.09
  9
$LUNITS
 70
     2
  9
$LUPREC
 70
     4
  9
$SKETCHINC
 40
0.1
  9
$FILLETRAD
 40
0.8
  9
$AUNITS
 70
     1
  9
$AUPREC
 70
     4
  9
$MENU
  1
E:\r13\win\SUPPORT\ACAD
  9
$ELEVATION
 40
0.0
  9
$PELEVATION
 40
0.0
  9
$THICKNESS
 40
0.0
  9
$LIMCHECK
 70
     0
  9
$BLIPMODE
 70
     0
  9
$CHAMFERA
 40
0.0
  9
$CHAMFERB
 40
0.0
  9
$SKPOLY
 70
     0
  9
$TDCREATE
 40
2449839.7859490742
  9
$TDUPDATE
 40
2457179.3854996879
  9
$TDINDWG
 40
0.0093556481
  9
$TDUSRTIMER
 40
0.0093556481
  9
$USRTIMER
 70
     1
  9
$ANGBASE
 50
0.0
  9
$ANGDIR
 70
     0
  9
$PDMODE
 70
     0
  9
$PDSIZE
 40
0.0
  9
$PLINEWID
 40
0.0
  9
$COORDS
 70
     1
  9
$SPLFRAME
 70
     0
  9
$SPLINETYPE
 70
     6
  9
$SPLINESEGS
 70
     8
  9
$ATTDIA
 70
     0
  9
$ATTREQ
 70
     1
  9
$HANDLING
 70
     1
  9
$HANDSEED
  5
51A
  9
$SURFTAB1
 70
     6
  9
$SURFTAB2
 70
     6
  9
$SURFTYPE
 70
     6
  9
$SURFU
 70
     6
  9
$SURFV
 70
     6
  9
$UCSNAME
  2

  9
$UCSORG
 10
0.0
 20
0.0
 30
0.0
  9
$UCSXDIR
 10
1.0
 20
0.0
 30
0.0
  9
$UCSYDIR
 10
0.0
 20
1.0
 30
0.0
  9
$PUCSNAME
  2

  9
$PUCSORG
 10
0.0
 20
0.0
 30
0.0
  9
$PUCSXDIR
 10
1.0
 20
0.0
 30
0.0
  9
$PUCSYDIR
 10
0.0
 20
1.0
 30
0.0
  9
$USERI1
 70
     0
  9
$USERI2
 70
     1
  9
$USERI3
 70
     1
  9
$USERI4
 70
     0
  9
$USERI5
 70
     0
  9
$USERR1
 40
0.0
  9
$USERR2
 40
0.0
  9
$USERR3
 40
0.0
  9
$USERR4
 40
0.0
  9
$USERR5
 40
0.0
  9
$WORLDVIEW
 70
     1
  9
$SHADEDGE
 70
     3
  9
$SHADEDIF
 70
    70
  9
$TILEMODE
 70
     1
  9
$MAXACTVP
 70
    16
  9
$PLIMCHECK
 70
     0
  9
$PEXTMIN
 10
1.0000000000000000E+020
 20
1.0000000000000000E+020
 30
1.0000000000000000E+020
  9
$PEXTMAX
 10
-1.0000000000000000E+020
 20
-1.0000000000000000E+020
 30
-1.0000000000000000E+020
  9
$PLIMMIN
 10
0.0
 20
0.0
  9
$PLIMMAX
 10
12.0
 20
9.0
  9
$UNITMODE
 70
     0
  9
$VISRETAIN
 70
     0
  9
$PLINEGEN
 70
     0
  9
$PSLTSCALE
 70
     0
  0
ENDSEC
  0
SECTION
  2
TABLES
  0
TABLE
  2
VPORT
 70
     1
  0
VPORT
  2
*ACTIVE
 70
     0
 10
0.0
 20
0.0
 11
1.0
 21
1.0
 12
172.54273504273499
 22
95.0
 13
0.0
 23
0.0
 14
5.0
 24
5.0
 15
5.0
 25
5.0
 16
0.0
 26
0.0
 36
1.0
 17
0.0
 27
0.0
 37
0.0
 40
190.0
 41
1.816239316239316
 42
50.0
 43
0.0
 44
0.0
 50
0.0
 51
0.0
 71
     0
 72
   500
 73
     1
 74
     0
 75
     0
 76
     0
 77
     0
 78
     2
  0
ENDTAB
  0
TABLE
  2
LTYPE
 70
     4
  0
LTYPE
  2
CONTINUOUS
 70
     0
  3
Solid Line
 72
    65
 73
     0
 40
0.0
  0
LTYPE
  2
CENTER
 70
     0
  3
____ _ ____ _ ____ _ ____ _ ____ _ ____ _ ____
 72
    65
 73
     4
 40
2.0
 49
1.25
 49
-0.25
 49
0.25
 49
-0.25
  0
LTYPE
  2
HIDDEN
 70
     0
  3
_ _ _ _ _ _ _ _ _ _ _ _ _ _ _ _ _ _ _ _ _ _ _
 72
    65
 73
     2
 40
0.375
 49
0.25
 49
-0.125
  0
LTYPE
  2
PHANTOM2
 70
     0
  3
___ _ _ ___ _ _ ___ _ _ ___ _ _
 72
    65
 73
     6
 40
1.25
 49
0.625
 49
-0.125
 49
0.125
 49
-0.125
 49
0.125
 49
-0.125
  0
ENDTAB
  0
TABLE
  2
LAYER
 70
     4
  0
LAYER
  2
0
 70
     0
 62
     7
  6
CONTINUOUS
  0
LAYER
  2
1
 70
     0
 62
     1
  6
CENTER
  0
LAYER
  2
2
 70
     0
 62
     2
  6
HIDDEN
  0
LAYER
  2
3
 70
     0
 62
     3
  6
CONTINUOUS
  0
ENDTAB
  0
TABLE
  2
STYLE
 70
     2
  0
STYLE
  2
STANDARD
 70
     0
 40
0.0
 41
1.0
 50
0.0
 71
     0
 42
0.2
  3
TXT
  4
BIGFONT
  0
STYLE
  2
STANDARD1
 70
     0
 40
0.0
 41
1.0
 50
0.0
 71
     0
 42
3.0
  3
txt
  4

  0
ENDTAB
  0
TABLE
  2
VIEW
 70
     1
  0
VIEW
  2
ALL
 70
     0
 40
135.0
 10
110.4957983193277
 20
67.5
 41
0.0
 11
0.0
 21
0.0
 31
1.0
 12
0.0
 22
0.0
 32
0.0
 42
0.0
 43
0.0
 44
0.0
 50
0.0
 71
     0
  0
ENDTAB
  0
TABLE
  2
UCS
 70
     0
  0
ENDTAB
  0
TABLE
  2
APPID
 70
     4
  0
APPID
  2
ACAD
 70
     0
  0
APPID
  2
ACAD_MLEADERVER
 70
     0
  0
APPID
  2
ACAD_NAV_VCDISPLAY
 70
     0
  0
APPID
  2
ACAD_EXEMPT_FROM_CAD_STANDARDS
 70
     0
  0
ENDTAB
  0
TABLE
  2
DIMSTYLE
 70
     1
  0
DIMSTYLE
  2
STANDARD
 70
     0
  3

  4

  5

  6

  7

 40
1.0
 41
0.18
 42
0.0625
 43
0.38
 44
0.18
 45
0.0
 46
0.0
 47
0.0
 48
0.0
140
0.18
141
0.09
142
0.0
143
25.399999999999999
144
1.0
145
0.0
146
1.0
147
0.09
 71
     0
 72
     0
 73
     1
 74
     1
 75
     0
 76
     0
 77
     0
 78
     0
170
     0
171
     2
172
     0
173
     0
174
     0
175
     0
176
     0
177
     0
178
     0
  0
ENDTAB
  0
ENDSEC
  0
SECTION
  2
BLOCKS
  0
BLOCK
  8
0
  2
$MODEL_SPACE
 70
     0
 10
0.0
 20
0.0
 30
0.0
  3
$MODEL_SPACE
  1

  0
ENDBLK
  5
304
  8
0
  0
BLOCK
 67
     1
  8
0
  2
$PAPER_SPACE
 70
     0
 10
0.0
 20
0.0
 30
0.0
  3
$PAPER_SPACE
  1

  0
ENDBLK
  5
302
 67
     1
  8
0
  0
ENDSEC
  0
SECTION
  2
ENTITIES
  0
LINE
  5
35
  8
1
 10
60.000000000000007
 20
82.500000000000483
 30
0.0
 11
60.0
 21
37.499999999999559
 31
0.0
  0
LINE
  5
36
  8
1
 10
37.499999999999559
 20
60.000000000000028
 30
0.0
 11
82.500000000000455
 21
59.999999999999993
 31
0.0
  0
CIRCLE
  5
37
  8
0
 10
60.000000000000007
 20
60.0
 30
0.0
 40
19.0
  0
ARC
  5
38
  8
0
 10
41.000000000000028
 20
60.000000000000007
 30
0.0
 40
1.0
 50
88.492042245762008
 51
271.50795775423808
  0
ARC
  5
39
  8
0
 10
41.323500153971587
 20
63.491182249797347
 30
0.0
 40
1.0
 50
77.903986690206509
 51
260.91990219868251
  0
ARC
  5
3A
  8
0
 10
41.323500153971587
 20
56.508817750202681
 30
0.0
 40
1.0
 50
99.080097801317521
 51
282.09601330979359
  0
ARC
  5
3B
  8
0
 10
42.2829845790842
 20
53.136519499916147
 30
0.0
 40
1.0
 50
109.66815335687301
 51
292.6840688653491
  0
ARC
  5
3C
  8
0
 10
43.845780290152909
 20
49.997940933688298
 30
0.0
 40
1.0
 50
120.25620891242851
 51
303.27212442090467
  0
ARC
  5
3D
  8
0
 10
48.549704086847143
 20
75.162147720597901
 30
0.0
 40
1.0
 50
35.551764467983944
 51
218.56767997645991
  0
ARC
  5
3E
  8
0
 10
45.958669955266508
 20
72.800041038014783
 30
0.0
 40
1.0
 50
46.139820023539407
 51
229.15573553201551
  0
ARC
  5
3F
  8
0
 10
43.845780290152973
 20
70.002059066311674
 30
0.0
 40
1.0
 50
56.727875579094871
 51
239.74379108757091
  0
ARC
  5
40
  8
0
 10
42.282984579084221
 20
66.863480500083824
 30
0.0
 40
1.0
 50
67.31593113465037
 51
250.3318466431264
  0
ARC
  5
41
  8
0
 10
45.958669955266501
 20
47.199958961985253
 30
0.0
 40
1.0
 50
130.84426446798591
 51
313.86017997646201
  0
ARC
  5
42
  8
0
 10
48.549704086847129
 20
44.837852279402227
 30
0.0
 40
1.0
 50
141.43232002354151
 51
324.44823553201752
  0
ARC
  5
43
  8
0
 10
51.530651112209362
 20
42.992056872835263
 30
0.0
 40
1.0
 50
152.02037557909699
 51
335.03629108757298
  0
ARC
  5
44
  8
0
 10
54.800001892228323
 20
41.725426963150142
 30
0.0
 40
1.0
 50
162.6084311346527
 51
345.62434664312849
  0
ARC
  5
45
  8
0
 10
58.24642637630155
 20
41.081094652537253
 30
0.0
 40
1.0
 50
173.1964866902085
 51
356.21240219868457
  0
ARC
  5
46
  8
0
 10
61.752564685350293
 20
41.081001162227253
 30
0.0
 40
1.0
 50
183.7845422457641
 51
6.8004577542400799
  0
ARC
  5
47
  8
0
 10
65.199023526445714
 20
41.725149675812759
 30
0.0
 40
1.0
 50
194.37259780131961
 51
17.388513309795631
  0
ARC
  5
48
  8
0
 10
68.46844185056149
 20
42.991605230838509
 30
0.0
 40
1.0
 50
204.96065335687521
 51
27.976568865351151
  0
ARC
  5
49
  8
0
 10
74.042012644616719
 20
47.200707797366107
 30
0.0
 40
1.0
 50
226.14287557909239
 51
49.158791087568453
  0
ARC
  5
4A
  8
0
 10
76.154753091732616
 20
49.998802444450106
 30
0.0
 40
1.0
 50
236.7309311346479
 51
59.746846643123952
  0
ARC
  5
4B
  8
0
 10
77.717381421738125
 20
53.137464349336227
 30
0.0
 40
1.0
 50
247.3189866902035
 51
70.334902198679444
  0
ARC
  5
4C
  8
0
 10
78.676686002490484
 20
56.509813763656616
 30
0.0
 40
1.0
 50
257.90704224575887
 51
80.922957754234986
  0
ARC
  5
4D
  8
0
 10
78.999999972981314
 20
60.001013260592401
 30
0.0
 40
1.0
 50
268.49509780131513
 51
91.511013309791025
  0
ARC
  5
4E
  8
0
 10
78.676313636449052
 20
63.49217825332218
 30
0.0
 40
1.0
 50
279.08315335687053
 51
102.0990688653465
  0
ARC
  5
4F
  8
0
 10
77.716649369704939
 20
66.864425329983959
 30
0.0
 40
1.0
 50
289.67120891242598
 51
112.68712442090199
  0
ARC
  5
50
  8
0
 10
76.153686282017674
 20
70.002920548627202
 30
0.0
 40
1.0
 50
300.2592644679815
 51
123.27517997645759
  0
ARC
  5
51
  8
0
 10
58.246426376301358
 20
78.918905347463038
 30
0.0
 40
1.0
 50
3.7875978013172289
 51
186.80351330979329
  0
ARC
  5
52
  8
0
 10
54.80000189222811
 20
78.274573036850001
 30
0.0
 40
1.0
 50
14.375653356872791
 51
197.3915688653486
  0
ARC
  5
53
  8
0
 10
51.530651112209199
 20
77.007943127164836
 30
0.0
 40
1.0
 50
24.963708912428171
 51
207.97962442090409
  0
ARC
  5
54
  8
0
 10
74.040647404915617
 20
72.800789836991868
 30
0.0
 40
1.0
 50
310.84732002353923
 51
133.8632355320151
  0
ARC
  5
55
  8
0
 10
71.449487307039661
 20
75.162758337648711
 30
0.0
 40
1.0
 50
321.43537557909463
 51
144.4512910875705
  0
ARC
  5
56
  8
0
 10
68.468441850561319
 20
77.008394769162038
 30
0.0
 40
1.0
 50
332.02343113465002
 51
155.03934664312601
  0
ARC
  5
57
  8
0
 10
61.752564685350031
 20
78.918998837773131
 30
0.0
 40
1.0
 50
353.19954224576122
 51
176.21545775423709
  0
ARC
  5
58
  8
0
 10
65.199023526445515
 20
78.274850324187696
 30
0.0
 40
1.0
 50
342.6114866902056
 51
165.62740219868161
  0
ARC
  5
59
  8
0
 10
71.451104486700231
 20
44.838462939574811
 30
0.0
 40
1.0
 50
215.5548200235323
 51
38.570735532008349
  0
LINE
  5
17E
  8
0
 10
136.0
 20
53.99999999999995
 30
0.0
 11
136.0
 21
66.0
 31
0.0
  0
LINE
  5
17F
  8
1
 10
107.5
 20
59.999999999999957
 30
0.0
 11
138.5
 21
59.999999999999979
 31
0.0
  0
ARC
  5
180
  8
0
 10
178.0
 20
59.999999999999979
 30
0.0
 40
68.0
 50
163.7748998653019
 51
196.22510013469821
  0
LINE
  5
181
  8
0
 10
126.0
 20
41.799999999999969
 30
0.0
 11
126.0
 21
78.19999999999996
 31
0.0
  0
LINE
  5
182
  8
0
 10
135.69999999999999
 20
46.499999999999972
 30
0.0
 11
135.69999999999999
 21
73.499999999999972
 31
0.0
  0
LINE
  5
183
  8
0
 10
126.0
 20
74.499999999999972
 30
0.0
 11
134.69999999999999
 21
74.499999999999972
 31
0.0
  0
LINE
  5
184
  8
0
 10
126.0
 20
45.499999999999957
 30
0.0
 11
134.69999999999999
 21
45.499999999999979
 31
0.0
  0
LINE
  5
185
  8
0
 10
135.69999999999999
 20
66.0
 30
0.0
 11
136.0
 21
65.999999999999972
 31
0.0
  0
LINE
  5
186
  8
0
 10
135.69999999999999
 20
53.999999999999979
 30
0.0
 11
136.0
 21
53.999999999999979
 31
0.0
  0
LINE
  5
187
  8
0
 10
134.69999999999999
 20
74.499999999999972
 30
0.0
 11
135.69999999999999
 21
73.499999999999972
 31
0.0
  0
LINE
  5
188
  8
0
 10
135.69999999999999
 20
46.499999999999972
 30
0.0
 11
134.69999999999999
 21
45.499999999999979
 31
0.0
  0
LINE
  5
189
  8
0
 10
112.70834662837829
 20
40.999999999999957
 30
0.0
 11
113.70834662837829
 21
40.999999999999957
 31
0.0
  0
ARC
  5
18A
  8
0
 10
125.2
 20
78.19999999999996
 30
0.0
 40
0.8
 50
0.0
 51
90.000000000000057
  0
ARC
  5
18B
  8
0
 10
125.2
 20
41.799999999999969
 30
0.0
 40
0.8
 50
270.00000000000011
 51
0.0
  0
LINE
  5
18C
  8
0
 10
112.70834662837829
 20
40.999999999999957
 30
0.0
 11
112.70834662837819
 21
78.999999999999972
 31
0.0
  0
LINE
  5
18D
  8
0
 10
113.70834662837829
 20
40.081001162226812
 30
0.0
 11
113.70834662837829
 21
79.918998837773131
 31
0.0
  0
LINE
  5
18E
  8
0
 10
134.69999999999999
 20
74.499999999999972
 30
0.0
 11
134.69999999999999
 21
45.499999999999979
 31
0.0
  0
LINE
  5
18F
  8
0
 10
124.7050606353549
 20
40.999999999999957
 30
0.0
 11
125.2
 21
40.999999999999957
 31
0.0
  0
LINE
  5
190
  8
0
 10
124.7050606353549
 20
78.999999999999972
 30
0.0
 11
125.2
 21
78.999999999999972
 31
0.0
  0
LINE
  5
191
  8
0
 10
112.70834662837829
 20
78.999999999999972
 30
0.0
 11
113.70834662837829
 21
78.999999999999972
 31
0.0
  0
LINE
  5
192
  8
2
 10
136.0
 20
65.688000000000159
 30
0.0
 11
134.5
 21
64.188000000000102
 31
0.0
  0
LINE
  5
193
  8
2
 10
134.5
 20
55.811999999999912
 30
0.0
 11
134.5
 21
64.188000000000102
 31
0.0
  0
LINE
  5
194
  8
2
 10
136.0
 20
54.311999999999848
 30
0.0
 11
134.5
 21
55.811999999999912
 31
0.0
  0
LINE
  5
195
  8
2
 10
123.0
 20
65.000000000000384
 30
0.0
 11
121.5935747442543
 21
64.188000000000557
 31
0.0
  0
LINE
  5
196
  8
2
 10
123.0
 20
55.00000000000005
 30
0.0
 11
121.5935747442543
 21
55.811999999999891
 31
0.0
  0
LINE
  5
197
  8
2
 10
120.0
 20
55.811999999999998
 30
0.0
 11
117.48359572751239
 21
60.00000000000022
 31
0.0
  0
LINE
  5
198
  8
2
 10
120.0
 20
64.188000000000443
 30
0.0
 11
117.48359572751239
 21
60.00000000000022
 31
0.0
  0
LINE
  5
199
  8
2
 10
120.0
 20
64.188000000000102
 30
0.0
 11
120.0
 21
55.811999999999891
 31
0.0
  0
LINE
  5
19A
  8
2
 10
123.0
 20
65.0
 30
0.0
 11
123.0
 21
55.0
 31
0.0
  0
LINE
  5
19B
  8
2
 10
135.3119999999999
 20
55.0
 30
0.0
 11
123.0
 21
55.0
 31
0.0
  0
LINE
  5
19C
  8
2
 10
134.49999999999989
 20
55.811999999999912
 30
0.0
 11
120.0
 21
55.811999999999891
 31
0.0
  0
LINE
  5
19D
  8
2
 10
134.49999999999989
 20
64.188000000000102
 30
0.0
 11
120.0
 21
64.188000000000102
 31
0.0
  0
LINE
  5
19E
  8
2
 10
135.3119999999999
 20
65.0
 30
0.0
 11
123.0
 21
65.0
 31
0.0
  0
LINE
  5
19F
  8
2
 10
117.0
 20
53.999999999999943
 30
0.0
 11
117.0
 21
66.000000000000028
 31
0.0
  0
LINE
  5
1A0
  8
2
 10
117.0
 20
66.000000000000028
 30
0.0
 11
135.69999999999999
 21
66.000000000000028
 31
0.0
  0
LINE
  5
1A1
  8
2
 10
135.69999999999999
 20
53.999999999999979
 30
0.0
 11
117.0
 21
53.999999999999957
 31
0.0
  0
LINE
  5
1A2
  8
0
 10
113.70834662837829
 20
61.000665535406092
 30
0.0
 11
123.70834662837829
 21
61.000665535406078
 31
0.0
  0
LINE
  5
1A3
  8
0
 10
113.70834662837829
 20
59.00135817896264
 30
0.0
 11
123.70834662837829
 21
59.00135817896264
 31
0.0
  0
ARC
  5
1A4
  8
0
 10
123.70834662837829
 20
59.999999999999979
 30
0.0
 40
1.0006655354061129
 50
270.0
 51
90.0
  0
LINE
  5
1A5
  8
0
 10
113.70834662837829
 20
62.504717986134402
 30
0.0
 11
123.70834662837829
 21
62.504717986134402
 31
0.0
  0
LINE
  5
1A6
  8
0
 10
113.70834662837829
 20
65.922785513919933
 30
0.0
 11
123.70834662837829
 21
65.922785513919933
 31
0.0
  0
LINE
  5
1A7
  8
0
 10
113.70834662837829
 20
64.469964896539608
 30
0.0
 11
123.70834662837829
 21
64.469964896539608
 31
0.0
  0
LINE
  5
1A8
  8
0
 10
113.70834662837819
 20
69.139166512685051
 30
0.0
 11
123.70834662837829
 21
69.139166512685051
 31
0.0
  0
LINE
  5
1A9
  8
0
 10
113.70834662837829
 20
72.044334693131574
 30
0.0
 11
123.70834662837829
 21
72.044334693131574
 31
0.0
  0
LINE
  5
1AA
  8
0
 10
113.70834662837829
 20
74.539361386450594
 30
0.0
 11
123.70834662837829
 21
74.539361386450594
 31
0.0
  0
LINE
  5
1AB
  8
0
 10
113.70834662837819
 20
76.539284327436349
 30
0.0
 11
123.70834662837829
 21
76.539284327436349
 31
0.0
  0
LINE
  5
1AC
  8
0
 10
113.70834662837829
 20
67.864425329983959
 30
0.0
 11
123.70834662837829
 21
67.864425329983931
 31
0.0
  0
LINE
  5
1AD
  8
0
 10
113.70834662837829
 20
71.002920548627202
 30
0.0
 11
123.70834662837829
 21
71.002920548627174
 31
0.0
  0
LINE
  5
1AE
  8
0
 10
113.70834662837829
 20
73.800789836991839
 30
0.0
 11
123.70834662837829
 21
73.800789836991839
 31
0.0
  0
LINE
  5
1AF
  8
0
 10
113.70834662837829
 20
76.162758337648683
 30
0.0
 11
123.70834662837829
 21
76.162758337648683
 31
0.0
  0
LINE
  5
1B0
  8
0
 10
113.70834662837819
 20
78.00839476916201
 30
0.0
 11
123.70834662837829
 21
78.00839476916201
 31
0.0
  0
POLYLINE
  5
1B1
  8
0
 66
     1
 10
0.0
 20
0.0
 30
0.0
  0
VERTEX
  5
1B2
  8
0
 10
123.70834662837829
 20
62.504717986134402
 30
0.0
 42
0.0973703559092393
  0
VERTEX
  5
1B3
  8
0
 10
124.09162550360151
 20
62.58007242148274
 30
0.0
 42
0.0980199580784572
  0
VERTEX
  5
1B4
  8
0
 10
124.41545340955869
 20
62.79393840224143
 30
0.0
 42
0.0989528423291315
 70
     2
 50
44.638501335556057
  0
VERTEX
  5
1B5
  8
0
 10
124.6511311968371
 20
63.14256842960674
 30
0.0
 42
0.1180251925796578
 50
44.638501335556057
  0
VERTEX
  5
1B6
  8
0
 10
124.7083466283696
 20
63.49217825332218
 30
0.0
 42
0.09962274701374
  0
SEQEND
  5
1B7
  8
0
  0
POLYLINE
  5
1B8
  8
0
 66
     1
 10
0.0
 20
0.0
 30
0.0
  0
VERTEX
  5
1B9
  8
0
 10
124.70834662837071
 20
63.49217825332213
 30
0.0
 42
0.1005125234970303
  0
VERTEX
  5
1BA
  8
0
 10
124.6325733384457
 20
63.865304742408661
 30
0.0
 42
0.0993057232615918
  0
VERTEX
  5
1BB
  8
0
 10
124.4154534095595
 20
64.183577819294811
 30
0.0
 42
0.0976453758050702
 70
     2
 50
135.64348603236209
  0
VERTEX
  5
1BC
  8
0
 10
124.092084355751
 20
64.395205057789994
 30
0.0
 42
0.0965029096376417
 50
135.64348603236209
  0
VERTEX
  5
1BD
  8
0
 10
123.70834662837829
 20
64.469964896539608
 30
0.0
 42
0.0965029096376315
  0
SEQEND
  5
1BE
  8
0
  0
POLYLINE
  5
1BF
  8
0
 66
     1
 10
0.0
 20
0.0
 30
0.0
  0
VERTEX
  5
1C0
  8
0
 10
123.70834662837829
 20
65.922785513919933
 30
0.0
 42
0.0932415067687826
  0
VERTEX
  5
1C1
  8
0
 10
124.0937941456897
 20
65.995295327273197
 30
0.0
 42
0.0961595689076609
  0
VERTEX
  5
1C2
  8
0
 10
124.41545340955869
 20
66.198585430609825
 30
0.0
 42
0.1005961501083797
 70
     2
 50
43.278369765407838
  0
VERTEX
  5
1C3
  8
0
 10
124.65139696550359
 20
66.53265043942281
 30
0.0
 42
0.1228200267184208
 50
43.278369765407838
  0
VERTEX
  5
1C4
  8
0
 10
124.70834662836781
 20
66.864425329983931
 30
0.0
 42
0.1039749769695627
  0
SEQEND
  5
1C5
  8
0
  0
POLYLINE
  5
1C6
  8
0
 66
     1
 10
0.0
 20
0.0
 30
0.0
  0
VERTEX
  5
1C7
  8
0
 10
124.7083466283696
 20
66.864425329983931
 30
0.0
 42
0.0984914033564404
  0
VERTEX
  5
1C8
  8
0
 10
124.6322261608814
 20
67.247108762349484
 30
0.0
 42
0.0984914033568557
  0
VERTEX
  5
1C9
  8
0
 10
124.41545340955869
 20
67.571532111170484
 30
0.0
 42
0.0984914033573959
 70
     2
 50
134.99999999975199
  0
VERTEX
  5
1CA
  8
0
 10
124.0910300607398
 20
67.788304862495352
 30
0.0
 42
0.0984914033579028
 50
134.99999999975199
  0
VERTEX
  5
1CB
  8
0
 10
123.70834662837829
 20
67.864425329983931
 30
0.0
 42
0.0984914033579604
  0
SEQEND
  5
1CC
  8
0
  0
POLYLINE
  5
1CD
  8
0
 66
     1
 10
0.0
 20
0.0
 30
0.0
  0
VERTEX
  5
1CE
  8
0
 10
124.70834662837061
 20
70.002920548627145
 30
0.0
 42
0.098491403356439
  0
VERTEX
  5
1CF
  8
0
 10
124.6322261608824
 20
70.385603980992485
 30
0.0
 42
0.098491403356895
  0
VERTEX
  5
1D0
  8
0
 10
124.4154534095594
 20
70.710027329813684
 30
0.0
 42
0.0984914033573879
 70
     2
 50
134.9999999997772
  0
VERTEX
  5
1D1
  8
0
 10
124.0910300607402
 20
70.926800081138566
 30
0.0
 42
0.0984914033578482
 50
134.9999999997772
  0
VERTEX
  5
1D2
  8
0
 10
123.70834662837829
 20
71.002920548627174
 30
0.0
 42
0.0984914033578464
  0
SEQEND
  5
1D3
  8
0
  0
POLYLINE
  5
1D4
  8
0
 66
     1
 10
0.0
 20
0.0
 30
0.0
  0
VERTEX
  5
1D5
  8
0
 10
123.70834662837829
 20
69.139166512685051
 30
0.0
 42
0.0861088038697313
  0
VERTEX
  5
1D6
  8
0
 10
124.09744094322809
 20
69.206675968900782
 30
0.0
 42
0.0924715576904567
  0
VERTEX
  5
1D7
  8
0
 10
124.41545340955869
 20
69.392154212535246
 30
0.0
 42
0.1031679218242641
 70
     2
 50
40.8189454127318
  0
VERTEX
  5
1D8
  8
0
 10
124.65202480987421
 20
69.701570499322173
 30
0.0
 42
0.1319518294984841
 50
40.8189454127318
  0
VERTEX
  5
1D9
  8
0
 10
124.70834662837041
 20
70.002920548627174
 30
0.0
 42
0.112256620342503
  0
SEQEND
  5
1DA
  8
0
  0
POLYLINE
  5
1DB
  8
0
 66
     1
 10
0.0
 20
0.0
 30
0.0
  0
VERTEX
  5
1DC
  8
0
 10
124.7083466283738
 20
72.800789836991825
 30
0.0
 42
0.0984914033567252
  0
VERTEX
  5
1DD
  8
0
 10
124.63222616088539
 20
73.183473269357279
 30
0.0
 42
0.0984914033569051
  0
VERTEX
  5
1DE
  8
0
 10
124.41545340956171
 20
73.507896618178393
 30
0.0
 42
0.0984914033573436
 70
     2
 50
134.9999999998721
  0
VERTEX
  5
1DF
  8
0
 10
124.0910300607415
 20
73.724669369503175
 30
0.0
 42
0.0984914033575805
 50
134.9999999998721
  0
VERTEX
  5
1E0
  8
0
 10
123.70834662837829
 20
73.800789836991839
 30
0.0
 42
0.0984914033575625
  0
SEQEND
  5
1E1
  8
0
  0
POLYLINE
  5
1E2
  8
0
 66
     1
 10
0.0
 20
0.0
 30
0.0
  0
VERTEX
  5
1E3
  8
0
 10
123.70834662837829
 20
72.044334693131574
 30
0.0
 42
0.076057267004663
  0
VERTEX
  5
1E4
  8
0
 10
124.102329120006
 20
72.104613853586898
 30
0.0
 42
0.0862063881447959
  0
VERTEX
  5
1E5
  8
0
 10
124.41545340955869
 20
72.26589527510481
 30
0.0
 42
0.1059436274312842
 70
     2
 50
37.105870751952558
  0
VERTEX
  5
1E6
  8
0
 10
124.65337338903311
 20
72.541537937774194
 30
0.0
 42
0.1470598154277114
 50
37.105870751952558
  0
VERTEX
  5
1E7
  8
0
 10
124.7083466283696
 20
72.800789836991825
 30
0.0
 42
0.1259032753943678
  0
SEQEND
  5
1E8
  8
0
  0
POLYLINE
  5
1E9
  8
0
 66
     1
 10
0.0
 20
0.0
 30
0.0
  0
VERTEX
  5
1EA
  8
0
 10
123.70834662837829
 20
74.539361386450594
 30
0.0
 42
0.0632590671575898
  0
VERTEX
  5
1EB
  8
0
 10
124.1080310900625
 20
74.5901318876586
 30
0.0
 42
0.0763342934332739
  0
VERTEX
  5
1EC
  8
0
 10
124.41545340955869
 20
74.721950126085517
 30
0.0
 42
0.1071287764932742
 70
     2
 50
31.939287667492771
  0
VERTEX
  5
1ED
  8
0
 10
124.656191386948
 20
74.955801832102594
 30
0.0
 42
0.1714475678410233
 50
31.939287667492771
  0
VERTEX
  5
1EE
  8
0
 10
124.7083466283687
 20
75.162758337648683
 30
0.0
 42
0.1476755724106177
  0
SEQEND
  5
1EF
  8
0
  0
POLYLINE
  5
1F0
  8
0
 66
     1
 10
0.0
 20
0.0
 30
0.0
  0
VERTEX
  5
1F1
  8
0
 10
124.7083466283696
 20
75.162758337648654
 30
0.0
 42
0.0984914033564088
  0
VERTEX
  5
1F2
  8
0
 10
124.6322261608815
 20
75.545441770014094
 30
0.0
 42
0.098491403356883
  0
VERTEX
  5
1F3
  8
0
 10
124.41545340955869
 20
75.869865118835193
 30
0.0
 42
0.0984914033574812
 70
     2
 50
134.99999999975159
  0
VERTEX
  5
1F4
  8
0
 10
124.0910300607397
 20
76.086637870160104
 30
0.0
 42
0.098491403357929
 50
134.99999999975159
  0
VERTEX
  5
1F5
  8
0
 10
123.70834662837829
 20
76.162758337648683
 30
0.0
 42
0.0984914033579376
  0
SEQEND
  5
1F6
  8
0
  0
POLYLINE
  5
1F7
  8
0
 66
     1
 10
0.0
 20
0.0
 30
0.0
  0
VERTEX
  5
1F8
  8
0
 10
123.70834662837829
 20
76.539284327436349
 30
0.0
 42
0.0480169283836364
  0
VERTEX
  5
1F9
  8
0
 10
124.1138596874398
 20
76.578317305894501
 30
0.0
 42
0.0617562612128282
  0
VERTEX
  5
1FA
  8
0
 10
124.41545340955869
 20
76.676683594692321
 30
0.0
 42
0.1025659974033897
 70
     2
 50
25.131764032073441
  0
VERTEX
  5
1FB
  8
0
 10
124.66197144956629
 20
76.861398121447763
 30
0.0
 42
0.2119552820820339
 50
25.131764032073431
  0
VERTEX
  5
1FC
  8
0
 10
124.708346628382
 20
77.008394769161995
 30
0.0
 42
0.1828297065969082
  0
SEQEND
  5
1FD
  8
0
  0
POLYLINE
  5
1FE
  8
0
 66
     1
 10
0.0
 20
0.0
 30
0.0
  0
VERTEX
  5
1FF
  8
0
 10
124.7083466283696
 20
77.008394769210454
 30
0.0
 42
0.0984914033572301
  0
VERTEX
  5
200
  8
0
 10
124.632226160863
 20
77.391078201568604
 30
0.0
 42
0.0984914033571885
  0
VERTEX
  5
201
  8
0
 10
124.4154534095244
 20
77.715501550376715
 30
0.0
 42
0.0984914033572195
 70
     2
 50
135.00000000277649
  0
VERTEX
  5
202
  8
0
 10
124.0628286589312
 20
77.951117875899996
 30
0.0
 42
0.1167787968878578
 50
135.00000000277649
  0
VERTEX
  5
203
  8
0
 10
123.70834662832981
 20
78.008394769153369
 30
0.0
 42
0.09849140335716
  0
SEQEND
  5
204
  8
0
  0
LINE
  5
205
  8
0
 10
113.70834662837829
 20
79.274850324187668
 30
0.0
 11
123.70834662837829
 21
79.274850324187668
 31
0.0
  0
LINE
  5
206
  8
0
 10
113.70834662837829
 20
79.918998837773131
 30
0.0
 11
123.70834662837829
 21
79.918998837773103
 31
0.0
  0
POLYLINE
  5
207
  8
0
 66
     1
 10
0.0
 20
0.0
 30
0.0
  0
VERTEX
  5
208
  8
0
 10
124.7083466283696
 20
78.274850324187668
 30
0.0
 42
0.098491403356379
  0
VERTEX
  5
209
  8
0
 10
124.6322261608815
 20
78.657533756553192
 30
0.0
 42
0.0984914033568288
  0
VERTEX
  5
20A
  8
0
 10
124.41545340955869
 20
78.981957105374221
 30
0.0
 42
0.098491403357571
 70
     2
 50
134.99999999975239
  0
VERTEX
  5
20B
  8
0
 10
124.0910300607396
 20
79.198729856699089
 30
0.0
 42
0.0984914033579602
 50
134.99999999975239
  0
VERTEX
  5
20C
  8
0
 10
123.70834662837829
 20
79.274850324187668
 30
0.0
 42
0.0984914033579604
  0
SEQEND
  5
20D
  8
0
  0
POLYLINE
  5
20E
  8
0
 66
     1
 10
0.0
 20
0.0
 30
0.0
  0
VERTEX
  5
20F
  8
0
 10
123.9601597050212
 20
77.985502361330816
 30
0.0
 42
0.0119335468840971
  0
VERTEX
  5
210
  8
0
 10
124.11885889359471
 20
78.001312393869512
 30
0.0
 42
0.0418343691351924
  0
VERTEX
  5
211
  8
0
 10
124.4154534095578
 20
78.063531830602642
 30
0.0
 42
0.0838457557794582
 70
     2
 50
16.638748070097702
  0
VERTEX
  5
212
  8
0
 10
124.6733440391512
 20
78.190565880532574
 30
0.0
 42
0.2833238206855821
 50
16.638748070097702
  0
VERTEX
  5
213
  8
0
 10
124.7083466283683
 20
78.274850324187668
 30
0.0
 42
0.2409560325657716
  0
SEQEND
  5
214
  8
0
  0
POLYLINE
  5
215
  8
0
 66
     1
 10
0.0
 20
0.0
 30
0.0
  0
VERTEX
  5
216
  8
0
 10
124.7083466283696
 20
78.918998837773074
 30
0.0
 42
0.0984914033564367
  0
VERTEX
  5
217
  8
0
 10
124.6322261608814
 20
79.301682270138514
 30
0.0
 42
0.0984914033569268
  0
VERTEX
  5
218
  8
0
 10
124.41545340955869
 20
79.626105618959656
 30
0.0
 42
0.0984914033575036
 70
     2
 50
134.99999999975071
  0
VERTEX
  5
219
  8
0
 10
124.0910300607397
 20
79.842878370284524
 30
0.0
 42
0.0984914033579675
 50
134.99999999975071
  0
VERTEX
  5
21A
  8
0
 10
123.70834662837829
 20
79.918998837773131
 30
0.0
 42
0.0984914033579604
  0
SEQEND
  5
21B
  8
0
  0
POLYLINE
  5
21C
  8
0
 66
     1
 10
0.0
 20
0.0
 30
0.0
  0
VERTEX
  5
21D
  8
0
 10
124.5251476810561
 20
78.851769764259643
 30
0.0
 42
0.0244290128063364
 70
     2
 50
6.753056960482624
  0
VERTEX
  5
21E
  8
0
 10
124.6929207825266
 20
78.890981374655041
 30
0.0
 50
6.7530569604826249
  0
VERTEX
  5
21F
  8
0
 10
124.7083466283697
 20
78.918998837773103
 30
0.0
  0
SEQEND
  5
220
  8
0
  0
POLYLINE
  5
221
  8
0
 66
     1
 10
0.0
 20
0.0
 30
0.0
  0
VERTEX
  5
222
  8
0
 10
124.5251476810561
 20
41.148230235740279
 30
0.0
 42
-0.0244290128063364
 70
     2
 50
353.24694303951742
  0
VERTEX
  5
223
  8
0
 10
124.6929207825266
 20
41.109018625344881
 30
0.0
  0
VERTEX
  5
224
  8
0
 10
124.7083466283697
 20
41.081001162226819
 30
0.0
  0
SEQEND
  5
225
  8
0
  0
POLYLINE
  5
226
  8
0
 66
     1
 10
0.0
 20
0.0
 30
0.0
  0
VERTEX
  5
227
  8
0
 10
124.7083466283696
 20
41.081001162226848
 30
0.0
 42
-0.0984914033564367
  0
VERTEX
  5
228
  8
0
 10
124.6322261608814
 20
40.698317729861401
 30
0.0
 42
-0.0984914033569268
  0
VERTEX
  5
229
  8
0
 10
124.41545340955869
 20
40.373894381040259
 30
0.0
 42
-0.0984914033575036
 70
     2
 50
225.0000000002492
  0
VERTEX
  5
22A
  8
0
 10
124.0910300607397
 20
40.157121629715391
 30
0.0
 42
-0.0984914033579675
  0
VERTEX
  5
22B
  8
0
 10
123.70834662837829
 20
40.081001162226791
 30
0.0
 42
-0.0984914033579604
  0
SEQEND
  5
22C
  8
0
  0
POLYLINE
  5
22D
  8
0
 66
     1
 10
0.0
 20
0.0
 30
0.0
  0
VERTEX
  5
22E
  8
0
 10
123.9601597050212
 20
42.014497638669098
 30
0.0
 42
-0.0119335468840971
  0
VERTEX
  5
22F
  8
0
 10
124.11885889359471
 20
41.99868760613041
 30
0.0
 42
-0.0418343691351924
  0
VERTEX
  5
230
  8
0
 10
124.4154534095578
 20
41.93646816939728
 30
0.0
 42
-0.0838457557794582
 70
     2
 50
343.36125192990232
  0
VERTEX
  5
231
  8
0
 10
124.6733440391512
 20
41.80943411946734
 30
0.0
 42
-0.2833238206855821
  0
VERTEX
  5
232
  8
0
 10
124.7083466283683
 20
41.725149675812247
 30
0.0
 42
-0.2409560325657716
  0
SEQEND
  5
233
  8
0
  0
POLYLINE
  5
234
  8
0
 66
     1
 10
0.0
 20
0.0
 30
0.0
  0
VERTEX
  5
235
  8
0
 10
124.7083466283696
 20
41.725149675812247
 30
0.0
 42
-0.098491403356379
  0
VERTEX
  5
236
  8
0
 10
124.6322261608815
 20
41.342466243446722
 30
0.0
 42
-0.0984914033568288
  0
VERTEX
  5
237
  8
0
 10
124.41545340955869
 20
41.018042894625687
 30
0.0
 42
-0.098491403357571
 70
     2
 50
225.00000000024761
  0
VERTEX
  5
238
  8
0
 10
124.0910300607396
 20
40.801270143300833
 30
0.0
 42
-0.0984914033579602
  0
VERTEX
  5
239
  8
0
 10
123.70834662837829
 20
40.725149675812247
 30
0.0
 42
-0.0984914033579604
  0
SEQEND
  5
23A
  8
0
  0
LINE
  5
23B
  8
0
 10
113.70834662837829
 20
40.081001162226791
 30
0.0
 11
123.70834662837829
 21
40.081001162226812
 31
0.0
  0
LINE
  5
23C
  8
0
 10
113.70834662837829
 20
40.725149675812247
 30
0.0
 11
123.70834662837829
 21
40.725149675812247
 31
0.0
  0
POLYLINE
  5
23D
  8
0
 66
     1
 10
0.0
 20
0.0
 30
0.0
  0
VERTEX
  5
23E
  8
0
 10
124.7083466283696
 20
42.991605230789453
 30
0.0
 42
-0.0984914033572301
  0
VERTEX
  5
23F
  8
0
 10
124.632226160863
 20
42.608921798431311
 30
0.0
 42
-0.0984914033571885
  0
VERTEX
  5
240
  8
0
 10
124.4154534095244
 20
42.2844984496232
 30
0.0
 42
-0.0984914033572195
 70
     2
 50
224.99999999722351
  0
VERTEX
  5
241
  8
0
 10
124.0628286589312
 20
42.048882124099933
 30
0.0
 42
-0.1167787968878578
  0
VERTEX
  5
242
  8
0
 10
123.70834662832981
 20
41.991605230846552
 30
0.0
 42
-0.09849140335716
  0
SEQEND
  5
243
  8
0
  0
POLYLINE
  5
244
  8
0
 66
     1
 10
0.0
 20
0.0
 30
0.0
  0
VERTEX
  5
245
  8
0
 10
123.70834662837829
 20
43.46071567256358
 30
0.0
 42
-0.0480169283836364
  0
VERTEX
  5
246
  8
0
 10
124.1138596874398
 20
43.421682694105407
 30
0.0
 42
-0.0617562612128282
  0
VERTEX
  5
247
  8
0
 10
124.41545340955869
 20
43.323316405307587
 30
0.0
 42
-0.1025659974033897
 70
     2
 50
334.86823596792658
  0
VERTEX
  5
248
  8
0
 10
124.66197144956629
 20
43.138601878552151
 30
0.0
 42
-0.2119552820820339
  0
VERTEX
  5
249
  8
0
 10
124.708346628382
 20
42.991605230837912
 30
0.0
 42
-0.1828297065969082
  0
SEQEND
  5
24A
  8
0
  0
POLYLINE
  5
24B
  8
0
 66
     1
 10
0.0
 20
0.0
 30
0.0
  0
VERTEX
  5
24C
  8
0
 10
124.7083466283696
 20
44.837241662351261
 30
0.0
 42
-0.0984914033564088
  0
VERTEX
  5
24D
  8
0
 10
124.6322261608815
 20
44.454558229985821
 30
0.0
 42
-0.098491403356883
  0
VERTEX
  5
24E
  8
0
 10
124.41545340955869
 20
44.130134881164707
 30
0.0
 42
-0.0984914033574812
 70
     2
 50
225.00000000024841
  0
VERTEX
  5
24F
  8
0
 10
124.0910300607397
 20
43.913362129839832
 30
0.0
 42
-0.098491403357929
  0
VERTEX
  5
250
  8
0
 10
123.70834662837829
 20
43.837241662351239
 30
0.0
 42
-0.0984914033579376
  0
SEQEND
  5
251
  8
0
  0
POLYLINE
  5
252
  8
0
 66
     1
 10
0.0
 20
0.0
 30
0.0
  0
VERTEX
  5
253
  8
0
 10
123.70834662837829
 20
45.460638613549342
 30
0.0
 42
-0.0632590671575898
  0
VERTEX
  5
254
  8
0
 10
124.1080310900625
 20
45.409868112341321
 30
0.0
 42
-0.0763342934332739
  0
VERTEX
  5
255
  8
0
 10
124.41545340955869
 20
45.278049873914398
 30
0.0
 42
-0.1071287764932742
 70
     2
 50
328.06071233250731
  0
VERTEX
  5
256
  8
0
 10
124.656191386948
 20
45.044198167897342
 30
0.0
 42
-0.1714475678410233
  0
VERTEX
  5
257
  8
0
 10
124.7083466283687
 20
44.837241662351232
 30
0.0
 42
-0.1476755724106177
  0
SEQEND
  5
258
  8
0
  0
POLYLINE
  5
259
  8
0
 66
     1
 10
0.0
 20
0.0
 30
0.0
  0
VERTEX
  5
25A
  8
0
 10
123.70834662837829
 20
47.95566530686834
 30
0.0
 42
-0.076057267004663
  0
VERTEX
  5
25B
  8
0
 10
124.102329120006
 20
47.895386146413017
 30
0.0
 42
-0.0862063881447959
  0
VERTEX
  5
25C
  8
0
 10
124.41545340955869
 20
47.734104724895118
 30
0.0
 42
-0.1059436274312842
 70
     2
 50
322.89412924804748
  0
VERTEX
  5
25D
  8
0
 10
124.65337338903311
 20
47.458462062225742
 30
0.0
 42
-0.1470598154277114
  0
VERTEX
  5
25E
  8
0
 10
124.7083466283696
 20
47.199210163008082
 30
0.0
 42
-0.1259032753943678
  0
SEQEND
  5
25F
  8
0
  0
POLYLINE
  5
260
  8
0
 66
     1
 10
0.0
 20
0.0
 30
0.0
  0
VERTEX
  5
261
  8
0
 10
124.7083466283738
 20
47.199210163008082
 30
0.0
 42
-0.0984914033567252
  0
VERTEX
  5
262
  8
0
 10
124.63222616088539
 20
46.816526730642643
 30
0.0
 42
-0.0984914033569051
  0
VERTEX
  5
263
  8
0
 10
124.41545340956171
 20
46.492103381821529
 30
0.0
 42
-0.0984914033573436
 70
     2
 50
225.0000000001279
  0
VERTEX
  5
264
  8
0
 10
124.0910300607415
 20
46.27533063049674
 30
0.0
 42
-0.0984914033575805
  0
VERTEX
  5
265
  8
0
 10
123.70834662837829
 20
46.199210163008082
 30
0.0
 42
-0.0984914033575625
  0
SEQEND
  5
266
  8
0
  0
POLYLINE
  5
267
  8
0
 66
     1
 10
0.0
 20
0.0
 30
0.0
  0
VERTEX
  5
268
  8
0
 10
123.70834662837829
 20
50.860833487314878
 30
0.0
 42
-0.0861088038697313
  0
VERTEX
  5
269
  8
0
 10
124.09744094322809
 20
50.793324031099161
 30
0.0
 42
-0.0924715576904567
  0
VERTEX
  5
26A
  8
0
 10
124.41545340955869
 20
50.60784578746469
 30
0.0
 42
-0.1031679218242641
 70
     2
 50
319.18105458726819
  0
VERTEX
  5
26B
  8
0
 10
124.65202480987421
 20
50.298429500677749
 30
0.0
 42
-0.1319518294984841
  0
VERTEX
  5
26C
  8
0
 10
124.70834662837041
 20
49.997079451372748
 30
0.0
 42
-0.112256620342503
  0
SEQEND
  5
26D
  8
0
  0
POLYLINE
  5
26E
  8
0
 66
     1
 10
0.0
 20
0.0
 30
0.0
  0
VERTEX
  5
26F
  8
0
 10
124.70834662837061
 20
49.997079451372791
 30
0.0
 42
-0.098491403356439
  0
VERTEX
  5
270
  8
0
 10
124.6322261608824
 20
49.614396019007422
 30
0.0
 42
-0.098491403356895
  0
VERTEX
  5
271
  8
0
 10
124.4154534095594
 20
49.289972670186231
 30
0.0
 42
-0.0984914033573879
 70
     2
 50
225.0000000002228
  0
VERTEX
  5
272
  8
0
 10
124.0910300607402
 20
49.073199918861363
 30
0.0
 42
-0.0984914033578482
  0
VERTEX
  5
273
  8
0
 10
123.70834662837829
 20
48.997079451372748
 30
0.0
 42
-0.0984914033578464
  0
SEQEND
  5
274
  8
0
  0
POLYLINE
  5
275
  8
0
 66
     1
 10
0.0
 20
0.0
 30
0.0
  0
VERTEX
  5
276
  8
0
 10
124.7083466283696
 20
53.135574670016013
 30
0.0
 42
-0.0984914033564404
  0
VERTEX
  5
277
  8
0
 10
124.6322261608814
 20
52.752891237650438
 30
0.0
 42
-0.0984914033568557
  0
VERTEX
  5
278
  8
0
 10
124.41545340955869
 20
52.428467888829452
 30
0.0
 42
-0.0984914033573959
 70
     2
 50
225.00000000024801
  0
VERTEX
  5
279
  8
0
 10
124.0910300607398
 20
52.21169513750457
 30
0.0
 42
-0.0984914033579028
  0
VERTEX
  5
27A
  8
0
 10
123.70834662837829
 20
52.135574670015991
 30
0.0
 42
-0.0984914033579604
  0
SEQEND
  5
27B
  8
0
  0
POLYLINE
  5
27C
  8
0
 66
     1
 10
0.0
 20
0.0
 30
0.0
  0
VERTEX
  5
27D
  8
0
 10
123.70834662837829
 20
54.077214486080003
 30
0.0
 42
-0.0932415067687826
  0
VERTEX
  5
27E
  8
0
 10
124.0937941456897
 20
54.004704672726739
 30
0.0
 42
-0.0961595689076609
  0
VERTEX
  5
27F
  8
0
 10
124.41545340955869
 20
53.801414569390111
 30
0.0
 42
-0.1005961501083797
 70
     2
 50
316.72163023459223
  0
VERTEX
  5
280
  8
0
 10
124.65139696550359
 20
53.467349560577112
 30
0.0
 42
-0.1228200267184208
  0
VERTEX
  5
281
  8
0
 10
124.70834662836781
 20
53.135574670015991
 30
0.0
 42
-0.1039749769695627
  0
SEQEND
  5
282
  8
0
  0
POLYLINE
  5
283
  8
0
 66
     1
 10
0.0
 20
0.0
 30
0.0
  0
VERTEX
  5
284
  8
0
 10
124.70834662837071
 20
56.507821746677799
 30
0.0
 42
-0.1005125234970303
  0
VERTEX
  5
285
  8
0
 10
124.6325733384457
 20
56.134695257591268
 30
0.0
 42
-0.0993057232615918
  0
VERTEX
  5
286
  8
0
 10
124.4154534095595
 20
55.816422180705111
 30
0.0
 42
-0.0976453758050702
 70
     2
 50
224.35651396763791
  0
VERTEX
  5
287
  8
0
 10
124.092084355751
 20
55.604794942209921
 30
0.0
 42
-0.0965029096376417
  0
VERTEX
  5
288
  8
0
 10
123.70834662837829
 20
55.530035103460328
 30
0.0
 42
-0.0965029096376315
  0
SEQEND
  5
289
  8
0
  0
POLYLINE
  5
28A
  8
0
 66
     1
 10
0.0
 20
0.0
 30
0.0
  0
VERTEX
  5
28B
  8
0
 10
123.70834662837829
 20
57.495282013865527
 30
0.0
 42
-0.0973703559092393
  0
VERTEX
  5
28C
  8
0
 10
124.09162550360151
 20
57.419927578517182
 30
0.0
 42
-0.0980199580784572
  0
VERTEX
  5
28D
  8
0
 10
124.41545340955869
 20
57.206061597758499
 30
0.0
 42
-0.0989528423291315
 70
     2
 50
315.36149866444401
  0
VERTEX
  5
28E
  8
0
 10
124.6511311968371
 20
56.857431570393182
 30
0.0
 42
-0.1180251925796578
  0
VERTEX
  5
28F
  8
0
 10
124.7083466283696
 20
56.507821746677742
 30
0.0
 42
-0.09962274701374
  0
SEQEND
  5
290
  8
0
  0
LINE
  5
291
  8
0
 10
113.70834662837819
 20
41.991605230837912
 30
0.0
 11
123.70834662837829
 21
41.991605230837912
 31
0.0
  0
LINE
  5
292
  8
0
 10
113.70834662837829
 20
43.837241662351239
 30
0.0
 11
123.70834662837829
 21
43.837241662351239
 31
0.0
  0
LINE
  5
293
  8
0
 10
113.70834662837829
 20
46.199210163008082
 30
0.0
 11
123.70834662837829
 21
46.199210163008082
 31
0.0
  0
LINE
  5
294
  8
0
 10
113.70834662837829
 20
48.997079451372727
 30
0.0
 11
123.70834662837829
 21
48.997079451372748
 31
0.0
  0
LINE
  5
295
  8
0
 10
113.70834662837829
 20
52.135574670015977
 30
0.0
 11
123.70834662837829
 21
52.135574670015991
 31
0.0
  0
LINE
  5
296
  8
0
 10
113.70834662837819
 20
43.460715672563573
 30
0.0
 11
123.70834662837829
 21
43.460715672563573
 31
0.0
  0
LINE
  5
297
  8
0
 10
113.70834662837829
 20
45.460638613549342
 30
0.0
 11
123.70834662837829
 21
45.460638613549342
 31
0.0
  0
LINE
  5
298
  8
0
 10
113.70834662837829
 20
47.95566530686834
 30
0.0
 11
123.70834662837829
 21
47.955665306868333
 31
0.0
  0
LINE
  5
299
  8
0
 10
113.70834662837819
 20
50.860833487314871
 30
0.0
 11
123.70834662837829
 21
50.860833487314871
 31
0.0
  0
LINE
  5
29A
  8
0
 10
113.70834662837829
 20
55.530035103460307
 30
0.0
 11
123.70834662837829
 21
55.530035103460328
 31
0.0
  0
LINE
  5
29B
  8
0
 10
113.70834662837829
 20
54.077214486079988
 30
0.0
 11
123.70834662837829
 21
54.077214486080003
 31
0.0
  0
LINE
  5
29C
  8
0
 10
113.70834662837829
 20
57.495282013865527
 30
0.0
 11
123.70834662837829
 21
57.495282013865527
 31
0.0
  0
TEXT
  5
3F0
  8
0
 62
     3
 10
0.0
 20
0.0
 30
0.0
 40
10.0
  1
KN40
  7
STANDARD1
  0
LINE
  5
443
  8
1
 10
186.0
 20
82.500000000000483
 30
0.0
 11
186.0
 21
37.499999999999559
 31
0.0
  0
LINE
  5
444
  8
1
 10
208.50000000000051
 20
60.000000000000028
 30
0.0
 11
163.4999999999996
 21
59.999999999999993
 31
0.0
  0
CIRCLE
  5
445
  8
0
 10
186.0
 20
60.0
 30
0.0
 40
19.0
  0
ARC
  5
446
  8
0
 10
205.0
 20
60.000000000000007
 30
0.0
 40
1.0
 50
268.49204224576192
 51
91.507957754238049
  0
ARC
  5
447
  8
0
 10
204.67649984602849
 20
63.491182249797347
 30
0.0
 40
1.0
 50
279.080097801318
 51
102.0960133097942
  0
ARC
  5
448
  8
0
 10
204.67649984602849
 20
56.508817750202681
 30
0.0
 40
1.0
 50
257.90398669020573
 51
80.919902198682038
  0
ARC
  5
449
  8
0
 10
203.7170154209158
 20
53.136519499916147
 30
0.0
 40
1.0
 50
247.31593113465121
 51
70.331846643127193
  0
ARC
  5
44A
  8
0
 10
202.1542197098471
 20
49.997940933688298
 30
0.0
 40
1.0
 50
236.72787557909501
 51
59.743791087571459
  0
ARC
  5
44B
  8
0
 10
197.4502959131529
 20
75.162147720597901
 30
0.0
 40
1.0
 50
321.4323200235396
 51
144.4482355320159
  0
ARC
  5
44C
  8
0
 10
200.04133004473351
 20
72.800041038014783
 30
0.0
 40
1.0
 50
310.84426446798477
 51
133.8601799764603
  0
ARC
  5
44D
  8
0
 10
202.1542197098471
 20
70.002059066311674
 30
0.0
 40
1.0
 50
300.25620891242869
 51
123.2721244209051
  0
ARC
  5
44E
  8
0
 10
203.7170154209158
 20
66.863480500083824
 30
0.0
 40
1.0
 50
289.66815335687289
 51
112.68406886534891
  0
ARC
  5
44F
  8
0
 10
200.0413300447336
 20
47.199958961985253
 30
0.0
 40
1.0
 50
226.13982002353779
 51
49.15573553201461
  0
ARC
  5
450
  8
0
 10
197.4502959131529
 20
44.837852279402227
 30
0.0
 40
1.0
 50
215.5517644679822
 51
38.567679976458429
  0
ARC
  5
451
  8
0
 10
194.46934888779069
 20
42.992056872835263
 30
0.0
 40
1.0
 50
204.96370891242711
 51
27.979624420902631
  0
ARC
  5
452
  8
0
 10
191.19999810777171
 20
41.725426963150142
 30
0.0
 40
1.0
 50
194.37565335687151
 51
17.39156886534742
  0
ARC
  5
453
  8
0
 10
187.75357362369849
 20
41.081094652537253
 30
0.0
 40
1.0
 50
183.7875978013154
 51
6.8035133097913461
  0
ARC
  5
454
  8
0
 10
184.24743531464969
 20
41.081001162227253
 30
0.0
 40
1.0
 50
173.1995422457598
 51
356.21545775423601
  0
ARC
  5
455
  8
0
 10
180.8009764735543
 20
41.725149675812759
 30
0.0
 40
1.0
 50
162.6114866902046
 51
345.62740219868039
  0
ARC
  5
456
  8
0
 10
177.53155814943861
 20
42.991605230838509
 30
0.0
 40
1.0
 50
152.023431134649
 51
335.03934664312459
  0
ARC
  5
457
  8
0
 10
171.9579873553833
 20
47.200707797366107
 30
0.0
 40
1.0
 50
130.84120891243131
 51
313.85712442090733
  0
ARC
  5
458
  8
0
 10
169.8452469082674
 20
49.998802444450106
 30
0.0
 40
1.0
 50
120.2531533568761
 51
303.26906886535232
  0
ARC
  5
459
  8
0
 10
168.28261857826189
 20
53.137464349336227
 30
0.0
 40
1.0
 50
109.6650978013208
 51
292.68101330979619
  0
ARC
  5
45A
  8
0
 10
167.3233139975095
 20
56.509813763656616
 30
0.0
 40
1.0
 50
99.077042245764844
 51
282.0929577542405
  0
ARC
  5
45B
  8
0
 10
167.0000000270187
 20
60.001013260592401
 30
0.0
 40
1.0
 50
88.488986690208847
 51
271.5049021986855
  0
ARC
  5
45C
  8
0
 10
167.32368636355099
 20
63.49217825332218
 30
0.0
 40
1.0
 50
77.900931134653845
 51
260.91684664312908
  0
ARC
  5
45D
  8
0
 10
168.2833506302951
 20
66.864425329983959
 30
0.0
 40
1.0
 50
67.312875579098076
 51
250.32879108757319
  0
ARC
  5
45E
  8
0
 10
169.8463137179823
 20
70.002920548627202
 30
0.0
 40
1.0
 50
56.724820023542748
 51
239.74073553201779
  0
ARC
  5
45F
  8
0
 10
187.75357362369871
 20
78.918905347463038
 30
0.0
 40
1.0
 50
353.1964866902066
 51
176.2124021986827
  0
ARC
  5
460
  8
0
 10
191.1999981077719
 20
78.274573036850001
 30
0.0
 40
1.0
 50
342.60843113465143
 51
165.6243466431273
  0
ARC
  5
461
  8
0
 10
194.4693488877908
 20
77.007943127164836
 30
0.0
 40
1.0
 50
332.02037557909568
 51
155.0362910875719
  0
ARC
  5
462
  8
0
 10
171.9593525950844
 20
72.800789836991868
 30
0.0
 40
1.0
 50
46.136764467985287
 51
229.15267997646049
  0
ARC
  5
463
  8
0
 10
174.55051269296041
 20
75.162758337648711
 30
0.0
 40
1.0
 50
35.548708912429213
 51
218.56462442090529
  0
ARC
  5
464
  8
0
 10
177.53155814943869
 20
77.008394769162038
 30
0.0
 40
1.0
 50
24.960653356873689
 51
207.97656886535009
  0
ARC
  5
465
  8
0
 10
184.24743531465001
 20
78.918998837773131
 30
0.0
 40
1.0
 50
3.7845422457628488
 51
186.80045775423881
  0
ARC
  5
466
  8
0
 10
180.8009764735545
 20
78.274850324187696
 30
0.0
 40
1.0
 50
14.372597801318451
 51
197.38851330979421
  0
ARC
  5
467
  8
0
 10
174.54889551329981
 20
44.838462939574811
 30
0.0
 40
1.0
 50
141.4292644679918
 51
324.4451799764675
  0
CIRCLE
  5
46E
  8
0
 10
186.0
 20
60.000000000000028
 30
0.0
 40
4.1880000000000734
  0
CIRCLE
  5
46F
  8
3
 10
186.0
 20
60.0
 30
0.0
 40
4.999999999999992
  0
CIRCLE
  5
470
  8
0
 10
186.0
 20
60.000000000000028
 30
0.0
 40
5.9999999999999432
  0
CIRCLE
  5
471
  8
0
 10
186.0
 20
60.000000000000028
 30
0.0
 40
13.49999999999994
  0
CIRCLE
  5
472
  8
0
 10
186.0
 20
60.0
 30
0.0
 40
14.499999999999959
  0
ENDSEC
  0
EOF
